  0
SECTION
  2
HEADER
  9
$ACADVER
  1
AC1009
  9
$INSBASE
 10
0.0
 20
0.0
 30
0.0
  9
$EXTMIN
 10
512.589218858470872
 20
383.0667696818783838
 30
0.0
  9
$EXTMAX
 10
747.0501943994843259
 20
399.1917696818783838
 30
0.0
  9
$LIMMIN
 10
0.0
 20
0.0
  9
$LIMMAX
 10
420.0
 20
297.0
  9
$ORTHOMODE
 70
     0
  9
$REGENMODE
 70
     1
  9
$FILLMODE
 70
     1
  9
$QTEXTMODE
 70
     0
  9
$MIRRTEXT
 70
     0
  9
$DRAGMODE
 70
     2
  9
$LTSCALE
 40
0.25
  9
$OSMODE
 70
   695
  9
$ATTMODE
 70
     1
  9
$TEXTSIZE
 40
2.5
  9
$TRACEWID
 40
1.0
  9
$TEXTSTYLE
  7
MMISOCP
  9
$CLAYER
  8
0
  9
$CELTYPE
  6
BYLAYER
  9
$CECOLOR
 62
   256
  9
$DIMSCALE
 40
1.0
  9
$DIMASZ
 40
0.25
  9
$DIMEXO
 40
0.25
  9
$DIMDLI
 40
0.375
  9
$DIMRND
 40
0.0
  9
$DIMDLE
 40
0.0
  9
$DIMEXE
 40
0.25
  9
$DIMTP
 40
0.0
  9
$DIMTM
 40
0.0
  9
$DIMTXT
 40
1.0
  9
$DIMCEN
 40
0.25
  9
$DIMTSZ
 40
0.0
  9
$DIMTOL
 70
     0
  9
$DIMLIM
 70
     0
  9
$DIMTIH
 70
     1
  9
$DIMTOH
 70
     1
  9
$DIMSE1
 70
     0
  9
$DIMSE2
 70
     0
  9
$DIMTAD
 70
     0
  9
$DIMZIN
 70
     0
  9
$DIMBLK
  1

  9
$DIMASO
 70
     1
  9
$DIMSHO
 70
     1
  9
$DIMPOST
  1

  9
$DIMAPOST
  1

  9
$DIMALT
 70
     0
  9
$DIMALTD
 70
     2
  9
$DIMALTF
 40
25.3999999999999986
  9
$DIMLFAC
 40
1.0
  9
$DIMTOFL
 70
     0
  9
$DIMTVP
 40
0.0
  9
$DIMTIX
 70
     0
  9
$DIMSOXD
 70
     0
  9
$DIMSAH
 70
     0
  9
$DIMBLK1
  1

  9
$DIMBLK2
  1

  9
$DIMSTYLE
  2
KINDRED
  9
$DIMCLRD
 70
     1
  9
$DIMCLRE
 70
     1
  9
$DIMCLRT
 70
     1
  9
$DIMTFAC
 40
1.0
  9
$DIMGAP
 40
0.25
  9
$LUNITS
 70
     2
  9
$LUPREC
 70
     4
  9
$SKETCHINC
 40
1.0
  9
$FILLETRAD
 40
0.0
  9
$AUNITS
 70
     0
  9
$AUPREC
 70
     0
  9
$MENU
  1
.
  9
$ELEVATION
 40
0.0
  9
$PELEVATION
 40
0.0
  9
$THICKNESS
 40
0.0
  9
$LIMCHECK
 70
     0
  9
$BLIPMODE
 70
     0
  9
$CHAMFERA
 40
0.0
  9
$CHAMFERB
 40
0.0
  9
$SKPOLY
 70
     0
  9
$TDCREATE
 40
2456337.3953703697770834
  9
$TDUPDATE
 40
2459230.6813541669398546
  9
$TDINDWG
 40
0.0299458681
  9
$TDUSRTIMER
 40
0.0299357639
  9
$USRTIMER
 70
     1
  9
$ANGBASE
 50
0.0
  9
$ANGDIR
 70
     0
  9
$PDMODE
 70
     0
  9
$PDSIZE
 40
0.0
  9
$PLINEWID
 40
0.0
  9
$COORDS
 70
     1
  9
$SPLFRAME
 70
     0
  9
$SPLINETYPE
 70
     6
  9
$SPLINESEGS
 70
     8
  9
$ATTDIA
 70
     1
  9
$ATTREQ
 70
     1
  9
$HANDLING
 70
     1
  9
$HANDSEED
  5
558D
  9
$SURFTAB1
 70
     6
  9
$SURFTAB2
 70
     6
  9
$SURFTYPE
 70
     6
  9
$SURFU
 70
     6
  9
$SURFV
 70
     6
  9
$UCSNAME
  2

  9
$UCSORG
 10
0.0
 20
0.0
 30
0.0
  9
$UCSXDIR
 10
1.0
 20
0.0
 30
0.0
  9
$UCSYDIR
 10
0.0
 20
1.0
 30
0.0
  9
$PUCSNAME
  2

  9
$PUCSORG
 10
0.0
 20
0.0
 30
0.0
  9
$PUCSXDIR
 10
1.0
 20
0.0
 30
0.0
  9
$PUCSYDIR
 10
0.0
 20
1.0
 30
0.0
  9
$USERI1
 70
     0
  9
$USERI2
 70
     0
  9
$USERI3
 70
     0
  9
$USERI4
 70
     0
  9
$USERI5
 70
     0
  9
$USERR1
 40
0.0
  9
$USERR2
 40
0.0
  9
$USERR3
 40
0.0
  9
$USERR4
 40
0.0
  9
$USERR5
 40
0.0
  9
$WORLDVIEW
 70
     1
  9
$SHADEDGE
 70
     3
  9
$SHADEDIF
 70
    70
  9
$TILEMODE
 70
     0
  9
$MAXACTVP
 70
    64
  9
$PLIMCHECK
 70
     0
  9
$PEXTMIN
 10
165.0664185883966013
 20
303.4152371131701784
 30
0.0
  9
$PEXTMAX
 10
196.0664185883966866
 20
319.5402371131701784
 30
0.0
  9
$PLIMMIN
 10
7.4744373685592791
 20
101.662244621072702
  9
$PLIMMAX
 10
427.4744373685592223
 20
398.6622446210727162
  9
$UNITMODE
 70
     0
  9
$VISRETAIN
 70
     1
  9
$PLINEGEN
 70
     0
  9
$PSLTSCALE
 70
     1
  0
ENDSEC
  0
SECTION
  2
TABLES
  0
TABLE
  2
VPORT
 70
     1
  0
VPORT
  2
*ACTIVE
 70
     0
 10
0.0
 20
0.0
 11
1.0
 21
1.0
 12
531.1210458778532484
 22
389.111990563690199
 13
0.0
 23
0.0
 14
2.5
 24
2.5
 15
10.0
 25
10.0
 16
0.0
 26
0.0
 36
1.0
 17
0.0
 27
0.0
 37
0.0
 40
26.5216414149935993
 41
1.63165905631659
 42
50.0
 43
0.0
 44
0.0
 50
0.0
 51
0.0
 71
     0
 72
  1000
 73
     1
 74
     3
 75
     0
 76
     0
 77
     0
 78
     0
  0
ENDTAB
  0
TABLE
  2
LTYPE
 70
    73
  0
LTYPE
  2
CONTINUOUS
 70
     0
  3
Solid line
 72
    65
 73
     0
 40
0.0
  0
LTYPE
  2
ACAD_ISO02W100
 70
     0
  3
ISO Strichlinie __ __ __ __ __ __ __ __ __ __ _
 72
    65
 73
     2
 40
15.0
 49
12.0
 49
-3.0
  0
LTYPE
  2
ACAD_ISO04W100
 70
     0
  3
ISO Lang gestrichelt punktiert ____ . ____ . __
 72
    65
 73
     4
 40
30.5
 49
24.0
 49
-3.0
 49
0.5
 49
-3.0
  0
LTYPE
  2
ACAD_ISO08W100
 70
     0
  3
ISO Lang kurz gestrichelt ____ __ ____ __ ____ 
 72
    65
 73
     4
 40
36.0
 49
24.0
 49
-3.0
 49
6.0
 49
-3.0
  0
LTYPE
  2
LONG_DASH_DOTTED
 70
     0
  3
Long-Dash Dot ____ . ____ . ____ . ____ . _
 72
    65
 73
     4
 40
0.3001
 49
0.2362
 49
-0.0295
 49
0.0049
 49
-0.0295
  0
LTYPE
  2
SECTION_VIEW_LINES
 70
     0
  3
Section View Lines
 72
    65
 73
     4
 40
0.8406
 49
0.6614
 49
-0.0827
 49
0.0138
 49
-0.0827
  0
LTYPE
  2
CHAIN
 70
     0
  3
Chain ____ _ ____ _ ____ _ ____ _ ____ _ ____
 72
    65
 73
     4
 40
0.3543
 49
0.2362
 49
-0.0295
 49
0.0591
 49
-0.0295
  0
LTYPE
  2
DASH_DOT
 70
     0
  3
Dash dot _._._._._._._._._._._._._._._.
 72
    65
 73
     4
 40
0.37
 49
0.24
 49
-0.06
 49
0.01
 49
-0.06
  0
LTYPE
  2
DASH_DOUBLE_DOT
 70
     0
  3
Dash Double Dot __ __ . __ __ . __ __ . __ _
 72
    65
 73
     6
 40
0.4398
 49
0.24
 49
-0.06
 49
0.0098
 49
-0.06
 49
0.01
 49
-0.06
  0
LTYPE
  2
DASH_TRIPLE_DOT
 70
     0
  3
Dash Triple-Dot _ . . . _ . . . _ . . . _
 72
    65
 73
     8
 40
0.51
 49
0.24
 49
-0.06
 49
0.01
 49
-0.06
 49
0.01
 49
-0.06
 49
0.01
 49
-0.06
  0
LTYPE
  2
DASHED
 70
     0
  3
Dashed __ __ __ __ __ __ __ __ __ __ __ __ __ _
 72
    65
 73
     2
 40
0.2067
 49
0.1654
 49
-0.0413
  0
LTYPE
  2
DASHED_SPACE
 70
     0
  3
Dashed Space _._._._._._._._._._._._._._._.
 72
    65
 73
     2
 40
0.2067
 49
0.1654
 49
-0.0413
  0
LTYPE
  2
DOTTED
 70
     0
  3
Dotted . . . . . . . . . . . . . . . . . . . . 
 72
    65
 73
     2
 40
0.0482
 49
0.0069
 49
-0.0413
  0
LTYPE
  2
DOUBLE_DASH_CHAIN
 70
     0
  3
Double Dash Chain ___ _ _ ___ _ _ ___ _ _ ___ _
 72
    65
 73
     6
 40
1.2402999999999991
 49
0.6614
 49
-0.0827
 49
0.1654
 49
-0.0827
 49
0.1654
 49
-0.0827
  0
LTYPE
  2
DOUBLE_DASH_DOT
 70
     0
  3
Double Dash Dot __ __ . __ __ . __ __ . __ _
 72
    65
 73
     6
 40
0.67
 49
0.24
 49
-0.06
 49
0.24
 49
-0.06
 49
0.01
 49
-0.06
  0
LTYPE
  2
DOUBLE_DASH_DOUBLE_DOT
 70
     0
  3
Double-dash double-dot _ _ . . _ _ . . _
 72
    65
 73
     8
 40
0.7400000000000001
 49
0.24
 49
-0.06
 49
0.24
 49
-0.06
 49
0.01
 49
-0.06
 49
0.01
 49
-0.06
  0
LTYPE
  2
DOUBLE_DASH_TRIPLE_DOT
 70
     0
  3
Double Dash Triple Dot __ __ . . . __ __ . . .
 72
    65
 73
    10
 40
0.8100000000000001
 49
0.24
 49
-0.06
 49
0.24
 49
-0.06
 49
0.01
 49
-0.06
 49
0.01
 49
-0.06
 49
0.01
 49
-0.06
  0
LTYPE
  2
LONG_DASH_DOUBLE_DOT
 70
     0
  3
Long Dash Double Dot ____ . . ____ . . ____ . .
 72
    65
 73
     6
 40
0.3345
 49
0.2362
 49
-0.0295
 49
0.0049
 49
-0.0295
 49
0.0049
 49
-0.0295
  0
LTYPE
  2
LONG_DASH_TRIPLE_DOT
 70
     0
  3
Long Dash Triple Dot ____ ... ____ ... ____
 72
    65
 73
     8
 40
0.75
 49
0.48
 49
-0.06
 49
0.01
 49
-0.06
 49
0.01
 49
-0.06
 49
0.01
 49
-0.06
  0
LTYPE
  2
BORDER
 70
     0
  3
Border __ __ . __ __ . __ __ . __ __ . __ __ .
 72
    65
 73
     6
 40
44.4500000000000028
 49
12.6999999999999993
 49
-6.3499999999999988
 49
12.6999999999999993
 49
-6.3499999999999988
 49
0.0
 49
-6.3499999999999988
  0
LTYPE
  2
BORDER2
 70
     0
  3
Border (.5x) __.__.__.__.__.__.__.__.__.__.__.
 72
    65
 73
     6
 40
22.2250000000000014
 49
6.3499999999999988
 49
-3.1749999999999989
 49
6.3499999999999988
 49
-3.1749999999999989
 49
0.0
 49
-3.1749999999999989
  0
LTYPE
  2
BORDERX2
 70
     0
  3
Border (2x) ____  ____  .  ____  ____  .  ___
 72
    65
 73
     6
 40
88.9000000000000057
 49
25.3999999999999986
 49
-12.6999999999999993
 49
25.3999999999999986
 49
-12.6999999999999993
 49
0.0
 49
-12.6999999999999993
  0
LTYPE
  2
CENTER
 70
     0
  3
Center ____ _ ____ _ ____ _ ____ _ ____ _ ____
 72
    65
 73
     4
 40
50.7999999999999972
 49
31.75
 49
-6.3499999999999988
 49
6.3499999999999988
 49
-6.3499999999999988
  0
LTYPE
  2
CENTER2
 70
     0
  3
Center (.5x) ___ _ ___ _ ___ _ ___ _ ___ _ ___
 72
    65
 73
     4
 40
28.5749999999999993
 49
19.0500000000000007
 49
-3.1749999999999989
 49
3.1749999999999989
 49
-3.1749999999999989
  0
LTYPE
  2
CENTERX2
 70
     0
  3
Center (2x) ________  __  ________  __  _____
 72
    65
 73
     4
 40
101.5999999999999943
 49
63.5
 49
-12.6999999999999993
 49
12.6999999999999993
 49
-12.6999999999999993
  0
LTYPE
  2
DASHDOT2
 70
     0
  3
Dash dot (.5x) _._._._._._._._._._._._._._._.
 72
    65
 73
     4
 40
12.6999999999999993
 49
6.3499999999999988
 49
-3.1749999999999989
 49
0.0
 49
-3.1749999999999989
  0
LTYPE
  2
DASHDOTX2
 70
     0
  3
Dash dot (2x) ____  .  ____  .  ____  .  ___
 72
    65
 73
     4
 40
50.7999999999999972
 49
25.3999999999999986
 49
-12.6999999999999993
 49
0.0
 49
-12.6999999999999993
  0
LTYPE
  2
DASHED2
 70
     0
  3
Dashed (.5x) _ _ _ _ _ _ _ _ _ _ _ _ _ _ _ _ _
 72
    65
 73
     2
 40
9.5249999999999986
 49
6.3499999999999988
 49
-3.1749999999999989
  0
LTYPE
  2
DASHEDX2
 70
     0
  3
Dashed (2x) ____  ____  ____  ____  ____  ___
 72
    65
 73
     2
 40
38.1000000000000014
 49
25.3999999999999986
 49
-12.6999999999999993
  0
LTYPE
  2
DIVIDE
 70
     0
  3
Divide ____ . . ____ . . ____ . . ____ . . ____
 72
    65
 73
     6
 40
31.75
 49
12.6999999999999993
 49
-6.3499999999999988
 49
0.0
 49
-6.3499999999999988
 49
0.0
 49
-6.3499999999999988
  0
LTYPE
  2
DIVIDE2
 70
     0
  3
Divide (.5x) __..__..__..__..__..__..__..__.._
 72
    65
 73
     6
 40
15.875
 49
6.3499999999999988
 49
-3.1749999999999989
 49
0.0
 49
-3.1749999999999989
 49
0.0
 49
-3.1749999999999989
  0
LTYPE
  2
DIVIDEX2
 70
     0
  3
Divide (2x) ________  .  .  ________  .  .  _
 72
    65
 73
     6
 40
63.4999999999999929
 49
25.3999999999999986
 49
-12.6999999999999993
 49
0.0
 49
-12.6999999999999993
 49
0.0
 49
-12.6999999999999993
  0
LTYPE
  2
DOT
 70
     0
  3
Dot . . . . . . . . . . . . . . . . . . . . . .
 72
    65
 73
     2
 40
6.3499999999999988
 49
0.0
 49
-6.3499999999999988
  0
LTYPE
  2
DOT2
 70
     0
  3
Dot (.5x) .....................................
 72
    65
 73
     2
 40
3.1749999999999989
 49
0.0
 49
-3.1749999999999989
  0
LTYPE
  2
DOTX2
 70
     0
  3
Dot (2x) .  .  .  .  .  .  .  .  .  .  .  .  . 
 72
    65
 73
     2
 40
12.6999999999999993
 49
0.0
 49
-12.6999999999999993
  0
LTYPE
  2
HIDDEN
 70
     0
  3
Hidden __ __ __ __ __ __ __ __ __ __ __ __ __ _
 72
    65
 73
     2
 40
9.5249999999999986
 49
6.3499999999999988
 49
-3.1749999999999989
  0
LTYPE
  2
HIDDEN2
 70
     0
  3
Hidden (.5x) _ _ _ _ _ _ _ _ _ _ _ _ _ _ _ _ _
 72
    65
 73
     2
 40
4.7624999999999993
 49
3.1749999999999989
 49
-1.587499999999999
  0
LTYPE
  2
HIDDENX2
 70
     0
  3
Hidden (2x) ____ ____ ____ ____ ____ ____ ____
 72
    65
 73
     2
 40
19.0500000000000007
 49
12.6999999999999993
 49
-6.3499999999999988
  0
LTYPE
  2
PHANTOM
 70
     0
  3
Phantom ______  __  __  ______  __  __  ______
 72
    65
 73
     6
 40
63.5
 49
31.75
 49
-6.3499999999999988
 49
6.3499999999999988
 49
-6.3499999999999988
 49
6.3499999999999988
 49
-6.3499999999999988
  0
LTYPE
  2
PHANTOM2
 70
     0
  3
Phantom (.5x) ___ _ _ ___ _ _ ___ _ _ ___ _ _
 72
    65
 73
     6
 40
31.75
 49
15.875
 49
-3.1749999999999989
 49
3.1749999999999989
 49
-3.1749999999999989
 49
3.1749999999999989
 49
-3.1749999999999989
  0
LTYPE
  2
PHANTOMX2
 70
     0
  3
Phantom (2x) ____________    ____    ____   _
 72
    65
 73
     6
 40
127.0
 49
63.5
 49
-12.6999999999999993
 49
12.6999999999999993
 49
-12.6999999999999993
 49
12.6999999999999993
 49
-12.6999999999999993
  0
LTYPE
  2
ACAD_ISO03W100
 70
     0
  3
ISO dash space __    __    __    __    __    __
 72
    65
 73
     2
 40
30.0
 49
12.0
 49
-18.0
  0
LTYPE
  2
ACAD_ISO05W100
 70
     0
  3
ISO long-dash double-dot ____ .. ____ .. ____ .
 72
    65
 73
     6
 40
33.0
 49
24.0
 49
-3.0
 49
0.0
 49
-3.0
 49
0.0
 49
-3.0
  0
LTYPE
  2
ACAD_ISO06W100
 70
     0
  3
ISO long-dash triple-dot ____ ... ____ ... ____
 72
    65
 73
     8
 40
36.0
 49
24.0
 49
-3.0
 49
0.0
 49
-3.0
 49
0.0
 49
-3.0
 49
0.0
 49
-3.0
  0
LTYPE
  2
ACAD_ISO07W100
 70
     0
  3
ISO dot . . . . . . . . . . . . . . . . . . . .
 72
    65
 73
     2
 40
3.0
 49
0.0
 49
-3.0
  0
LTYPE
  2
ACAD_ISO09W100
 70
     0
  3
ISO long-dash double-short-dash ____ __ __ ____
 72
    65
 73
     6
 40
45.0
 49
24.0
 49
-3.0
 49
6.0
 49
-3.0
 49
6.0
 49
-3.0
  0
LTYPE
  2
ACAD_ISO10W100
 70
     0
  3
ISO dash dot __ . __ . __ . __ . __ . __ . __ .
 72
    65
 73
     4
 40
18.0
 49
12.0
 49
-3.0
 49
0.0
 49
-3.0
  0
LTYPE
  2
ACAD_ISO11W100
 70
     0
  3
ISO double-dash dot __ __ . __ __ . __ __ . __ 
 72
    65
 73
     6
 40
33.0
 49
12.0
 49
-3.0
 49
12.0
 49
-3.0
 49
0.0
 49
-3.0
  0
LTYPE
  2
ACAD_ISO12W100
 70
     0
  3
ISO dash double-dot __ . . __ . . __ . . __ . .
 72
    65
 73
     6
 40
21.0
 49
12.0
 49
-3.0
 49
0.0
 49
-3.0
 49
0.0
 49
-3.0
  0
LTYPE
  2
ACAD_ISO13W100
 70
     0
  3
ISO double-dash double-dot __ __ . . __ __ . . 
 72
    65
 73
     8
 40
36.0
 49
12.0
 49
-3.0
 49
12.0
 49
-3.0
 49
0.0
 49
-3.0
 49
0.0
 49
-3.0
  0
LTYPE
  2
ACAD_ISO14W100
 70
     0
  3
ISO dash triple-dot __ . . . __ . . . __ . . . 
 72
    65
 73
     8
 40
24.0
 49
12.0
 49
-3.0
 49
0.0
 49
-3.0
 49
0.0
 49
-3.0
 49
0.0
 49
-3.0
  0
LTYPE
  2
ACAD_ISO15W100
 70
     0
  3
ISO double-dash triple-dot __ __ . . . __ __ . 
 72
    65
 73
    10
 40
39.0
 49
12.0
 49
-3.0
 49
12.0
 49
-3.0
 49
0.0
 49
-3.0
 49
0.0
 49
-3.0
 49
0.0
 49
-3.0
  0
LTYPE
  2
FENCELINE1
 70
     0
  3
Fenceline circle ----0-----0----0-----0----0---
 72
    65
 73
     4
 40
36.8299999999999983
 49
6.3499999999999988
 49
-2.54
 49
-2.54
 49
25.3999999999999986
  0
LTYPE
  2
FENCELINE2
 70
     0
  3
Fenceline square ----[]-----[]----[]-----[]----
 72
    65
 73
     4
 40
36.8299999999999983
 49
6.3499999999999988
 49
-2.54
 49
-2.54
 49
25.3999999999999986
  0
LTYPE
  2
TRACKS
 70
     0
  3
Tracks -|-|-|-|-|-|-|-|-|-|-|-|-|-|-|-|-|-|-|-|
 72
    65
 73
     2
 40
7.6200000000000001
 49
3.8100000000000001
 49
3.8100000000000001
  0
LTYPE
  2
BATTING
 70
     0
  3
Batting SSSSSSSSSSSSSSSSSSSSSSSSSSSSSSSSSSSSSSS
 72
    65
 73
     4
 40
10.1625399999999999
 49
0.00254
 49
-2.54
 49
-5.0800000000000001
 49
-2.54
  0
LTYPE
  2
HOT_WATER_SUPPLY
 70
     0
  3
Hot water supply ---- HW ---- HW ---- HW ----
 72
    65
 73
     3
 40
22.8599999999999994
 49
12.6999999999999993
 49
-5.0800000000000001
 49
-5.0800000000000001
  0
LTYPE
  2
GAS_LINE
 70
     0
  3
Gas line ----GAS----GAS----GAS----GAS----GAS---
 72
    65
 73
     3
 40
24.129999999999999
 49
12.6999999999999993
 49
-5.0800000000000001
 49
-6.3499999999999988
  0
LTYPE
  2
ZIGZAG
 70
     0
  3
Zig zag /\/\/\/\/\/\/\/\/\/\/\/\/\/\/\/\/\/\/\/
 72
    65
 73
     4
 40
20.32254
 49
0.00254
 49
-5.0800000000000001
 49
-10.1600000000000001
 49
-5.0800000000000001
  0
LTYPE
  2
AM_ISO02W050
 70
     0
  3
__ __ __ __ __ __ __ __ __ __ __ __ __ __ __
 72
    65
 73
     2
 40
7.5
 49
6.0
 49
-1.5
  0
LTYPE
  2
AM_ISO08W050
 70
     0
  3
____ . ____ . ____ . ____ . ____ . ____ . ____
 72
    65
 73
     4
 40
18.0
 49
12.0
 49
-1.5
 49
3.0
 49
-1.5
  0
LTYPE
  2
AM_ISO09W050
 70
     0
  3
_____ . . _____ . . _____ . . ____ .. ____
 72
    65
 73
     6
 40
22.5
 49
12.0
 49
-1.5
 49
3.0
 49
-1.5
 49
3.0
 49
-1.5
  0
LTYPE
  2
AMCONSTR
 70
     0
  3
_______________________
 72
    65
 73
     2
 40
9999.0
 49
9999.0
 49
0.0
  0
LTYPE
  2
AM_ISO08W050X2
 70
     0
  3
__ . __ . __ . __ . __ . __
 72
    65
 73
     4
 40
9.0
 49
6.0
 49
-0.75
 49
1.5
 49
-0.75
  0
LTYPE
  2
AM_ISO02W050X2
 70
     0
  3
 _ _ _ _ _ _ _ _ _ _ _ _
 72
    65
 73
     2
 40
3.75
 49
3.0
 49
-0.75
  0
LTYPE
  2
AMZIGZAG
 70
     0
  3
/\/-/\/-/\/-/\/-/\/-/\/
 72
    65
 73
     2
 40
11.0000999999999998
 49
0.0001
 49
-11.0
  0
LTYPE
  2
ACISOWELD
 70
     0
  3
_ _ _ _ _
 72
    65
 73
     2
 40
2.0
 49
2.0
 49
-1.0
  0
LTYPE
  2
ACISOTGB
 70
     0
  3
__ . . __ . .
 72
    65
 73
     6
 40
9.0
 49
4.0
 49
-1.0
 49
1.0
 49
-1.0
 49
1.0
 49
-1.0
  0
LTYPE
  2
ACISOTGL
 70
     0
  3
_ _ _ _ _
 72
    65
 73
     2
 40
3.0
 49
2.0
 49
-1.0
  0
LTYPE
  2
AMZIGZAG2
 70
     0
  3
/\/-/\/-/\/-/\/-/\/-/\/
 72
    65
 73
     2
 40
0.4401
 49
0.0001
 49
-0.4400000000000001
  0
LTYPE
  2
ACANSTGB
 70
     0
  3
__ . . __ . .
 72
    65
 73
     6
 40
0.35433070866
 49
0.15748031496
 49
-0.03937007874
 49
0.03937007874
 49
-0.03937007874
 49
0.03937007874
 49
-0.03937007874
  0
LTYPE
  2
ACANSTGL
 70
     0
  3
_ _ _ _ _
 72
    65
 73
     2
 40
0.11811023622
 49
0.07874015748
 49
-0.03937007874
  0
ENDTAB
  0
TABLE
  2
LAYER
 70
    56
  0
LAYER
  2
0
 70
     0
 62
     7
  6
CONTINUOUS
  0
LAYER
  2
AM_0N
 70
     0
 62
     7
  6
CONTINUOUS
  0
LAYER
  2
AM_1N
 70
     0
 62
    14
  6
CONTINUOUS
  0
LAYER
  2
AM_4N
 70
     0
 62
    92
  6
CONTINUOUS
  0
LAYER
  2
AM_8N
 70
     0
 62
     1
  6
CONTINUOUS
  0
LAYER
  2
AM_3N
 70
     0
 62
     6
  6
AM_ISO02W050
  0
LAYER
  2
AM_7N
 70
     0
 62
   142
  6
AM_ISO08W050
  0
LAYER
  2
AM_4
 70
     0
 62
    92
  6
CONTINUOUS
  0
LAYER
  2
AM_0
 70
     0
 62
     7
  6
CONTINUOUS
  0
LAYER
  2
AM_1
 70
     0
 62
    14
  6
CONTINUOUS
  0
LAYER
  2
AM_3
 70
     0
 62
     6
  6
AM_ISO02W050
  0
LAYER
  2
AM_7
 70
     0
 62
   142
  6
AM_ISO08W050
  0
LAYER
  2
AM_8
 70
     0
 62
     1
  6
CONTINUOUS
  0
LAYER
  2
MM_4_0_025
 70
     0
 62
     1
  6
CONTINUOUS
  0
LAYER
  2
MM_4_0_035
 70
     0
 62
     2
  6
CONTINUOUS
  0
LAYER
  2
MM_4_0_050
 70
     0
 62
     7
  6
CONTINUOUS
  0
LAYER
  2
MM_4_0_070
 70
     0
 62
    30
  6
CONTINUOUS
  0
LAYER
  2
AM_6
 70
     0
 62
   140
  6
CONTINUOUS
  0
LAYER
  2
AM_6_1
 70
     0
 62
     2
  6
CONTINUOUS
  0
LAYER
  2
AM_6_2
 70
     0
 62
     7
  6
CONTINUOUS
  0
LAYER
  2
AM_6_3
 70
     0
 62
    30
  6
CONTINUOUS
  0
LAYER
  2
AM_VIEWS
 70
     0
 62
     1
  6
CONTINUOUS
  0
LAYER
  2
AM_CL_1
 70
     0
 62
     1
  6
CONTINUOUS
  0
LAYER
  2
AM_CL
 70
     0
 62
     1
  6
AMCONSTR
  0
LAYER
  2
AM_10
 70
     0
 62
     7
  6
AM_ISO08W050
  0
LAYER
  2
MM_SKINSBASE
 70
     0
 62
     8
  6
CONTINUOUS
  0
LAYER
  2
AM_5
 70
     0
 62
    92
  6
CONTINUOUS
  0
LAYER
  2
AM_5_2
 70
     0
 62
     7
  6
CONTINUOUS
  0
LAYER
  2
AM_5_FILL
 70
     0
 62
     2
  6
CONTINUOUS
  0
LAYER
  2
AM_5_3
 70
     0
 62
     2
  6
ACAD_ISO02W100
  0
LAYER
  2
AM_5_1
 70
     0
 62
     2
  6
CONTINUOUS
  0
LAYER
  2
AM_PAREF
 70
     0
 62
   142
  6
CONTINUOUS
  0
LAYER
  2
AM_BOR
 70
     0
 62
     7
  6
CONTINUOUS
  0
LAYER
  2
2DTRANSTITLEBLOCK
 70
     0
 62
     7
  6
CONTINUOUS
  0
LAYER
  2
0_TITLE_BLOCK
 70
     0
 62
     7
  6
CONTINUOUS
  0
LAYER
  2
0_FORMAT_A3
 70
     0
 62
     7
  6
CONTINUOUS
  0
LAYER
  2
0_FORMAT_A2
 70
     1
 62
     7
  6
CONTINUOUS
  0
LAYER
  2
0_FORMAT_A1
 70
     1
 62
     7
  6
CONTINUOUS
  0
LAYER
  2
0_FORMAT_A0
 70
     1
 62
     7
  6
CONTINUOUS
  0
LAYER
  2
0_FORMAT_A4L
 70
     1
 62
     7
  6
CONTINUOUS
  0
LAYER
  2
SKETCH_LINES
 70
     0
 62
     7
  6
CONTINUOUS
  0
LAYER
  2
TEXT
 70
     0
 62
     7
  6
CONTINUOUS
  0
LAYER
  2
0_FORMAT_A4P
 70
     1
 62
     7
  6
CONTINUOUS
  0
LAYER
  2
DEFPOINTS
 70
     0
 62
     7
  6
CONTINUOUS
  0
LAYER
  2
AM_5-DETAILANSICHT
 70
     0
 62
     3
  6
CONTINUOUS
  0
LAYER
  2
HL
 70
     0
 62
     3
  6
HIDDEN
  0
LAYER
  2
DIM
 70
     0
 62
     1
  6
CONTINUOUS
  0
LAYER
  2
PRICING
 70
     0
 62
     7
  6
CONTINUOUS
  0
LAYER
  2
CATALOG
 70
     0
 62
     6
  6
CONTINUOUS
  0
LAYER
  2
CUTOUT
 70
     0
 62
     2
  6
CONTINUOUS
  0
LAYER
  2
CL
 70
     0
 62
     5
  6
CENTER
  0
LAYER
  2
H
 70
     0
 62
     3
  6
HIDDEN
  0
LAYER
  2
LEGEND
 70
     0
 62
     6
  6
CONTINUOUS
  0
LAYER
  2
SPOTWELD
 70
     0
 62
     2
  6
CONTINUOUS
  0
LAYER
  2
AMC_CONTOUR
 70
     0
 62
     7
  6
CONTINUOUS
  0
LAYER
  2
P-0000
 70
     0
 62
     7
  6
CONTINUOUS
  0
ENDTAB
  0
TABLE
  2
STYLE
 70
   109
  0
STYLE
  2
STANDARD
 70
     0
 40
0.0
 41
1.0
 50
0.0
 71
     0
 42
2.5
  3
txt
  4

  0
STYLE
  2

 70
     1
 40
0.0
 41
1.0
 50
0.0
 71
     0
 42
2.5
  3
ltypeshp.shx
  4

  0
STYLE
  2
MMISOCP
 70
     0
 40
0.0
 41
1.0
 50
0.0
 71
     0
 42
2.5
  3
isocp.shx
  4

  0
STYLE
  2
TEXT_STYLE12
 70
     0
 40
0.0
 41
1.0
 50
0.0
 71
     0
 42
0.2
  3
txt
  4

  0
STYLE
  2
TEXT_STYLE16
 70
     0
 40
0.0
 41
1.0
 50
0.0
 71
     0
 42
0.2
  3
txt
  4

  0
STYLE
  2
TEXT_STYLE55
 70
     0
 40
0.0
 41
1.0
 50
0.0
 71
     0
 42
0.2
  3
txt
  4

  0
STYLE
  2
TEXT_STYLE56
 70
     0
 40
0.0
 41
1.0
 50
0.0
 71
     0
 42
0.2
  3
txt
  4

  0
STYLE
  2
PARTS-LIST_2_0MM
 70
     0
 40
0.0
 41
0.899999976158142
 50
0.0
 71
     0
 42
0.2
  3
txt
  4

  0
STYLE
  2
TEXT__1_3MM
 70
     0
 40
0.0
 41
0.899999976158142
 50
0.0
 71
     0
 42
0.2
  3
txt
  4

  0
STYLE
  2
TEXT__1_5MM
 70
     0
 40
0.0
 41
0.899999976158142
 50
0.0
 71
     0
 42
0.2
  3
txt
  4

  0
STYLE
  2
TEXT__3_5MM
 70
     0
 40
0.0
 41
0.899999976158142
 50
0.0
 71
     0
 42
0.2
  3
txt
  4

  0
STYLE
  2
TEXT__5_0MM
 70
     0
 40
0.0
 41
0.899999976158142
 50
0.0
 71
     0
 42
0.2
  3
txt
  4

  0
STYLE
  2
TEXT_STYLE10
 70
     0
 40
0.0
 41
1.0
 50
0.0
 71
     0
 42
0.2
  3
txt
  4

  0
STYLE
  2
TEXT_STYLE1
 70
     0
 40
0.0
 41
1.0
 50
0.0
 71
     0
 42
0.2
  3
txt
  4

  0
STYLE
  2
TEXT_STYLE2
 70
     0
 40
0.0
 41
1.0
 50
0.0
 71
     0
 42
0.2
  3
txt
  4

  0
STYLE
  2
TEXT_STYLE3
 70
     0
 40
0.0
 41
1.0
 50
0.0
 71
     0
 42
0.2
  3
txt
  4

  0
STYLE
  2
TEXT_STYLE4
 70
     0
 40
0.0
 41
1.0
 50
0.0
 71
     0
 42
0.2
  3
txt
  4

  0
STYLE
  2
TEXT_STYLE5
 70
     0
 40
0.0
 41
1.0
 50
0.0
 71
     0
 42
0.2
  3
txt
  4

  0
STYLE
  2
TEXT_STYLE6
 70
     0
 40
0.0
 41
1.0
 50
0.0
 71
     0
 42
0.2
  3
txt
  4

  0
STYLE
  2
TEXT_STYLE7
 70
     0
 40
0.0
 41
1.0
 50
0.0
 71
     0
 42
0.2
  3
txt
  4

  0
STYLE
  2
TEXT_STYLE8
 70
     0
 40
0.0
 41
1.0
 50
0.0
 71
     0
 42
0.2
  3
txt
  4

  0
STYLE
  2
TEXT_STYLE9
 70
     0
 40
0.0
 41
1.0
 50
0.0
 71
     0
 42
0.2
  3
txt
  4

  0
STYLE
  2
TEXT_STYLE11
 70
     0
 40
0.0
 41
1.0
 50
0.0
 71
     0
 42
0.2
  3
txt
  4

  0
STYLE
  2
TEXT_STYLE13
 70
     0
 40
0.0
 41
1.0
 50
0.0
 71
     0
 42
0.2
  3
txt
  4

  0
STYLE
  2
TEXT_STYLE14
 70
     0
 40
0.0
 41
1.0
 50
0.0
 71
     0
 42
0.2
  3
txt
  4

  0
STYLE
  2
TEXT_STYLE15
 70
     0
 40
0.0
 41
1.0
 50
0.0
 71
     0
 42
0.2
  3
txt
  4

  0
STYLE
  2
TEXT_STYLE17
 70
     0
 40
0.0
 41
1.0
 50
0.0
 71
     0
 42
0.2
  3
txt
  4

  0
STYLE
  2
TEXT_STYLE18
 70
     0
 40
0.0
 41
1.0
 50
0.0
 71
     0
 42
0.2
  3
txt
  4

  0
STYLE
  2
TEXT_STYLE19
 70
     0
 40
0.0
 41
1.0
 50
0.0
 71
     0
 42
0.2
  3
txt
  4

  0
STYLE
  2
TEXT_STYLE20
 70
     0
 40
0.0
 41
1.0
 50
0.0
 71
     0
 42
0.2
  3
txt
  4

  0
STYLE
  2
TEXT_STYLE21
 70
     0
 40
0.0
 41
1.0
 50
0.0
 71
     0
 42
0.2
  3
txt
  4

  0
STYLE
  2
TEXT_STYLE22
 70
     0
 40
0.0
 41
1.0
 50
0.0
 71
     0
 42
0.2
  3
txt
  4

  0
STYLE
  2
TEXT_STYLE23
 70
     0
 40
0.0
 41
1.0
 50
0.0
 71
     0
 42
0.2
  3
txt
  4

  0
STYLE
  2
TEXT_STYLE24
 70
     0
 40
0.0
 41
1.0
 50
0.0
 71
     0
 42
0.2
  3
txt
  4

  0
STYLE
  2
TEXT_STYLE25
 70
     0
 40
0.0
 41
1.0
 50
0.0
 71
     0
 42
0.2
  3
txt
  4

  0
STYLE
  2
TEXT_STYLE26
 70
     0
 40
0.0
 41
1.0
 50
0.0
 71
     0
 42
0.2
  3
txt
  4

  0
STYLE
  2
TEXT_STYLE27
 70
     0
 40
0.0
 41
0.899999976158142
 50
0.0
 71
     0
 42
0.2
  3
txt
  4

  0
STYLE
  2
TEXT_STYLE28
 70
     0
 40
0.0
 41
0.899999976158142
 50
0.0
 71
     0
 42
0.2
  3
txt
  4

  0
STYLE
  2
TEXT_STYLE29
 70
     0
 40
0.0
 41
0.899999976158142
 50
0.0
 71
     0
 42
0.2
  3
txt
  4

  0
STYLE
  2
TEXT_STYLE30
 70
     0
 40
0.0
 41
0.899999976158142
 50
0.0
 71
     0
 42
0.2
  3
txt
  4

  0
STYLE
  2
TEXT_STYLE31
 70
     0
 40
0.0
 41
0.899999976158142
 50
0.0
 71
     0
 42
0.2
  3
txt
  4

  0
STYLE
  2
TEXT_STYLE32
 70
     0
 40
0.0
 41
0.899999976158142
 50
0.0
 71
     0
 42
0.2
  3
txt
  4

  0
STYLE
  2
TEXT_STYLE33
 70
     0
 40
0.0
 41
0.899999976158142
 50
0.0
 71
     0
 42
0.2
  3
txt
  4

  0
STYLE
  2
TEXT_STYLE34
 70
     0
 40
0.0
 41
0.899999976158142
 50
0.0
 71
     0
 42
0.2
  3
txt
  4

  0
STYLE
  2
TEXT_STYLE35
 70
     0
 40
0.0
 41
0.899999976158142
 50
0.0
 71
     0
 42
0.2
  3
txt
  4

  0
STYLE
  2
TEXT_STYLE36
 70
     0
 40
0.0
 41
0.899999976158142
 50
0.0
 71
     0
 42
0.2
  3
txt
  4

  0
STYLE
  2
TEXT_STYLE37
 70
     0
 40
0.0
 41
0.899999976158142
 50
0.0
 71
     0
 42
0.2
  3
txt
  4

  0
STYLE
  2
TEXT_STYLE38
 70
     0
 40
0.0
 41
0.899999976158142
 50
0.0
 71
     0
 42
0.2
  3
txt
  4

  0
STYLE
  2
TEXT_STYLE39
 70
     0
 40
0.0
 41
1.0
 50
0.0
 71
     0
 42
0.2
  3
txt
  4

  0
STYLE
  2
TEXT_STYLE40
 70
     0
 40
0.0
 41
1.0
 50
0.0
 71
     0
 42
0.2
  3
txt
  4

  0
STYLE
  2
TEXT_STYLE41
 70
     0
 40
0.0
 41
1.0
 50
0.0
 71
     0
 42
0.2
  3
txt
  4

  0
STYLE
  2
TEXT_STYLE42
 70
     0
 40
0.0
 41
1.0
 50
0.0
 71
     0
 42
0.2
  3
txt
  4

  0
STYLE
  2
TEXT_STYLE43
 70
     0
 40
0.0
 41
0.899999976158142
 50
0.0
 71
     0
 42
0.2
  3
txt
  4

  0
STYLE
  2
TEXT_STYLE44
 70
     0
 40
0.0
 41
0.899999976158142
 50
0.0
 71
     0
 42
0.2
  3
txt
  4

  0
STYLE
  2
TEXT_STYLE45
 70
     0
 40
0.0
 41
0.899999976158142
 50
0.0
 71
     0
 42
0.2
  3
txt
  4

  0
STYLE
  2
TEXT_STYLE46
 70
     0
 40
0.0
 41
0.899999976158142
 50
0.0
 71
     0
 42
0.2
  3
txt
  4

  0
STYLE
  2
TEXT_STYLE47
 70
     0
 40
0.0
 41
0.899999976158142
 50
0.0
 71
     0
 42
0.2
  3
txt
  4

  0
STYLE
  2
TEXT_STYLE48
 70
     0
 40
0.0
 41
0.899999976158142
 50
0.0
 71
     0
 42
0.2
  3
txt
  4

  0
STYLE
  2
TEXT_STYLE49
 70
     0
 40
0.0
 41
1.0
 50
0.0
 71
     0
 42
0.2
  3
txt
  4

  0
STYLE
  2
TEXT_STYLE50
 70
     0
 40
0.0
 41
1.1499999761581421
 50
0.0
 71
     0
 42
0.2
  3
txt
  4

  0
STYLE
  2
TEXT_STYLE51
 70
     0
 40
0.0
 41
1.1499999761581421
 50
0.0
 71
     0
 42
0.2
  3
txt
  4

  0
STYLE
  2
TEXT_STYLE52
 70
     0
 40
0.0
 41
0.9699999690055847
 50
0.0
 71
     0
 42
0.2
  3
txt
  4

  0
STYLE
  2
TEXT_STYLE53
 70
     0
 40
0.0
 41
0.9699999690055847
 50
0.0
 71
     0
 42
0.2
  3
txt
  4

  0
STYLE
  2
TEXT_STYLE54
 70
     0
 40
0.0
 41
1.1499999761581421
 50
0.0
 71
     0
 42
0.2
  3
txt
  4

  0
STYLE
  2
TEXT_STYLE57
 70
     0
 40
0.0
 41
0.899999976158142
 50
0.0
 71
     0
 42
0.2
  3
txt
  4

  0
STYLE
  2
TEXT_STYLE58
 70
     0
 40
0.0
 41
0.899999976158142
 50
0.0
 71
     0
 42
0.2
  3
txt
  4

  0
STYLE
  2
TEXT_STYLE59
 70
     0
 40
0.0
 41
0.8499999642372131
 50
0.0
 71
     0
 42
0.2
  3
txt
  4

  0
STYLE
  2
TEXT_STYLE60
 70
     0
 40
0.0
 41
0.8499999642372131
 50
0.0
 71
     0
 42
0.2
  3
txt
  4

  0
STYLE
  2
TEXT_STYLE61
 70
     0
 40
0.0
 41
0.7999999523162842
 50
0.0
 71
     0
 42
0.2
  3
txt
  4

  0
STYLE
  2
TEXT_STYLE62
 70
     0
 40
0.0
 41
0.7999999523162842
 50
0.0
 71
     0
 42
0.2
  3
txt
  4

  0
STYLE
  2
TEXT_STYLE63
 70
     0
 40
0.0
 41
0.7999999523162842
 50
0.0
 71
     0
 42
0.2
  3
txt
  4

  0
STYLE
  2
TEXT_STYLE64
 70
     0
 40
0.0
 41
0.7999999523162842
 50
0.0
 71
     0
 42
0.2
  3
txt
  4

  0
STYLE
  2
TEXT_STYLE65
 70
     0
 40
0.0
 41
1.0
 50
0.0
 71
     0
 42
0.2
  3
txt
  4

  0
STYLE
  2
TEXT_STYLE66
 70
     0
 40
0.0
 41
1.0
 50
0.0
 71
     0
 42
0.2
  3
txt
  4

  0
STYLE
  2
TEXT_STYLE67
 70
     0
 40
0.0
 41
0.8499999642372131
 50
0.0
 71
     0
 42
0.2
  3
txt
  4

  0
STYLE
  2
TEXT_STYLE68
 70
     0
 40
0.0
 41
0.8499999642372131
 50
0.0
 71
     0
 42
0.2
  3
txt
  4

  0
STYLE
  2
TEXT_STYLE69
 70
     0
 40
0.0
 41
0.899999976158142
 50
0.0
 71
     0
 42
0.2
  3
txt
  4

  0
STYLE
  2
TEXT_STYLE70
 70
     0
 40
0.0
 41
0.899999976158142
 50
0.0
 71
     0
 42
0.2
  3
txt
  4

  0
STYLE
  2
TEXT_STYLE71
 70
     0
 40
0.0
 41
0.899999976158142
 50
0.0
 71
     0
 42
0.2
  3
txt
  4

  0
STYLE
  2
TEXT_STYLE72
 70
     0
 40
0.0
 41
0.899999976158142
 50
0.0
 71
     0
 42
0.2
  3
txt
  4

  0
STYLE
  2
TEXT_STYLE73
 70
     0
 40
0.0
 41
1.0
 50
0.0
 71
     0
 42
0.2
  3
txt
  4

  0
STYLE
  2
TEXT_STYLE74
 70
     0
 40
0.0
 41
1.0
 50
0.0
 71
     0
 42
0.2
  3
txt
  4

  0
STYLE
  2
TEXT_STYLE75
 70
     0
 40
0.0
 41
1.0
 50
0.0
 71
     0
 42
0.2
  3
txt
  4

  0
STYLE
  2
TEXT_STYLE76
 70
     0
 40
0.0
 41
0.949999988079071
 50
0.0
 71
     0
 42
0.2
  3
txt
  4

  0
STYLE
  2
TEXT_STYLE77
 70
     0
 40
0.0
 41
0.949999988079071
 50
0.0
 71
     0
 42
0.2
  3
txt
  4

  0
STYLE
  2
TEXT_STYLE78
 70
     0
 40
0.0
 41
0.899999976158142
 50
0.0
 71
     0
 42
0.2
  3
txt
  4

  0
STYLE
  2
TEXT_STYLE79
 70
     0
 40
0.0
 41
0.899999976158142
 50
0.0
 71
     0
 42
0.2
  3
txt
  4

  0
STYLE
  2
TEXT_STYLE80
 70
     0
 40
0.0
 41
0.899999976158142
 50
0.0
 71
     0
 42
0.2
  3
txt
  4

  0
STYLE
  2
TEXT_STYLE81
 70
     0
 40
0.0
 41
0.899999976158142
 50
0.0
 71
     0
 42
0.2
  3
txt
  4

  0
STYLE
  2
TEXT_STYLE82
 70
     0
 40
0.0
 41
0.899999976158142
 50
0.0
 71
     0
 42
0.2
  3
txt
  4

  0
STYLE
  2
TEXT_STYLE83
 70
     0
 40
0.0
 41
0.7999999523162842
 50
0.0
 71
     0
 42
0.2
  3
txt
  4

  0
STYLE
  2
TEXT_STYLE84
 70
     0
 40
0.0
 41
0.7799999713897705
 50
0.0
 71
     0
 42
0.2
  3
txt
  4

  0
STYLE
  2
TEXT_STYLE85
 70
     0
 40
0.0
 41
0.7799999713897705
 50
0.0
 71
     0
 42
0.2
  3
txt
  4

  0
STYLE
  2
TEXT_STYLE86
 70
     0
 40
0.0
 41
0.899999976158142
 50
0.0
 71
     0
 42
0.2
  3
txt
  4

  0
STYLE
  2
TEXT_STYLE87
 70
     0
 40
0.0
 41
1.0
 50
0.0
 71
     0
 42
0.2
  3
txt
  4

  0
STYLE
  2
CURRENT-DIN
 70
     0
 40
0.0
 41
1.0
 50
0.0
 71
     0
 42
0.2
  3
txt
  4

  0
STYLE
  2
DEFAULT-DIN
 70
     0
 40
0.0
 41
1.0
 50
0.0
 71
     0
 42
0.2
  3
txt
  4

  0
STYLE
  2
CURRENT-ISO
 70
     0
 40
0.0
 41
1.0
 50
0.0
 71
     0
 42
0.2
  3
txt
  4

  0
STYLE
  2
DEFAULT-ISO
 70
     0
 40
0.0
 41
1.0
 50
0.0
 71
     0
 42
0.2
  3
txt
  4

  0
STYLE
  2
TEXT_2_5MM
 70
     0
 40
0.0
 41
0.899999976158142
 50
0.0
 71
     0
 42
0.2
  3
txt
  4

  0
STYLE
  2
TEXT_3_5MM
 70
     0
 40
0.0
 41
0.899999976158142
 50
0.0
 71
     0
 42
0.2
  3
txt
  4

  0
STYLE
  2
TEXT_5_0MM
 70
     0
 40
0.0
 41
0.899999976158142
 50
0.0
 71
     0
 42
0.2
  3
txt
  4

  0
STYLE
  2

 70
     1
 40
0.0
 41
1.0
 50
0.0
 71
     0
 42
2.5
  3
genltshp.shx
  4

  0
STYLE
  2
ACISOTS
 70
     0
 40
1.0
 41
1.0
 50
0.0
 71
     0
 42
2.5
  3
isocp.shx
  4

  0
STYLE
  2
ACISOGDT
 70
     0
 40
0.0
 41
1.0
 50
0.0
 71
     0
 42
2.5
  3
amgdt.shx
  4

  0
STYLE
  2
ROMANS
 70
     0
 40
0.75
 41
1.0
 50
0.0
 71
     0
 42
1.024999999999999
  3
romans
  4

  0
STYLE
  2
SX
 70
     0
 40
1.0
 41
1.0
 50
0.0
 71
     0
 42
1.0
  3
simplex.shx
  4

  0
STYLE
  2
ACANSGDT
 70
     0
 40
0.0
 41
1.0
 50
0.0
 71
     0
 42
1.0
  3
amgdt.shx
  4

  0
STYLE
  2
FRANKE
 70
     0
 40
0.0
 41
1.0
 50
0.0
 71
     0
 42
40.0
  3
txt
  4

  0
ENDTAB
  0
TABLE
  2
VIEW
 70
     4
  0
ENDTAB
  0
TABLE
  2
UCS
 70
     0
  0
ENDTAB
  0
TABLE
  2
APPID
 70
    34
  0
APPID
  2
ACAD
 70
     0
  0
APPID
  2
CONTENTTABDATA
 70
     0
  0
APPID
  2
CONTENTCURRENTTAB
 70
     0
  0
APPID
  2
CONTENTBLOCKDESCRIPTION
 70
     0
  0
APPID
  2
CONTENTBLOCKICON
 70
     0
  0
APPID
  2
ACAD_PSEXT
 70
     0
  0
APPID
  2
AMACAD
 70
     0
  0
APPID
  2
ACAECLAYERSTANDARD
 70
     0
  0
APPID
  2
ACAD_DSTYLE_DIMTEXT_FILL
 70
     0
  0
APPID
  2
ACAD_EXEMPT_FROM_CAD_STANDARDS
 70
     0
  0
APPID
  2
ACAD_MLEADERVER
 70
     0
  0
APPID
  2
MCAD_NO_VIS
 70
     0
  0
APPID
  2
ACAD_TEMP_GRAPHIC
 70
     0
  0
APPID
  2
AD_DRAW
 70
     0
  0
APPID
  2
ACATTRIBSERVICES
 70
     0
  0
APPID
  2
DESIGNERASSEMBLIES
 70
     0
  0
APPID
  2
ACADM_DIM_EDIT
 70
     0
  0
APPID
  2
AMDT_DM_ADJ
 70
     0
  0
APPID
  2
ACADANNOAV
 70
     0
  0
APPID
  2
ACAUTHENVIRON
 70
     0
  0
APPID
  2
ACDBDYNAMICBLOCKTRUENAME
 70
     0
  0
APPID
  2
ACDBDYNAMICBLOCKGUID
 70
     0
  0
APPID
  2
ACDBBLOCKREPETAG
 70
     0
  0
APPID
  2
ACAD_NAV_VCDISPLAY
 70
     0
  0
APPID
  2
ACAD_DSTYLE_DIMJAG
 70
     0
  0
APPID
  2
ACAD_DSTYLE_DIMBREAK
 70
     0
  0
APPID
  2
GENIUS_GENDTOL_13
 70
     0
  0
APPID
  2
ACAD_DSTYLE_DIMINSPECT
 70
     0
  0
APPID
  2
ACAD_DSTYLE_DIMTALN
 70
     0
  0
APPID
  2
GENIUS_GENREC_14
 70
     0
  0
APPID
  2
GENIUS_GENODEF_13
 70
     0
  0
APPID
  2
GENIUS_GENOBJ-N-REC_13
 70
     0
  0
APPID
  2
ACAD_DSTYLE_DIMRADIAL_EXTENSION
 70
     0
  0
APPID
  2
TOP
 70
     0
  0
ENDTAB
  0
TABLE
  2
DIMSTYLE
 70
    34
  0
DIMSTYLE
  2
ISO-25
 70
     0
  3

  4

  5

  6

  7

 40
1.0
 41
2.5
 42
0.625
 43
3.75
 44
1.25
 45
0.0
 46
0.0
 47
0.0
 48
0.0
140
2.5
141
2.5
142
0.0
143
0.03937007874016
144
1.0
145
0.0
146
1.0
147
0.625
 71
     0
 72
     0
 73
     0
 74
     0
 75
     0
 76
     0
 77
     1
 78
     8
170
     0
171
     3
172
     1
173
     0
174
     0
175
     0
176
     0
177
     0
178
     0
  0
DIMSTYLE
  2
STANDARD
 70
     0
  3

  4

  5

  6

  7

 40
1.0
 41
0.18
 42
0.0625
 43
0.38
 44
0.18
 45
0.0
 46
0.0
 47
0.0
 48
0.0
140
0.18
141
0.09
142
0.0
143
25.3999999999999986
144
1.0
145
0.0
146
1.0
147
0.09
 71
     0
 72
     0
 73
     1
 74
     1
 75
     0
 76
     0
 77
     0
 78
     0
170
     0
171
     2
172
     0
173
     0
174
     0
175
     0
176
     0
177
     0
178
     0
  0
DIMSTYLE
  2
MM_KBT
 70
     0
  3

  4

  5

  6
SMALL
  7
CLOSEDBLANK
 40
0.0
 41
3.5
 42
0.0
 43
20.0
 44
2.0
 45
0.0
 46
0.0
 47
0.0
 48
0.0
140
3.5
141
0.0
142
0.0
143
0.0394
144
1.0
145
0.0
146
1.0
147
0.625
 71
     0
 72
     0
 73
     0
 74
     0
 75
     0
 76
     1
 77
     2
 78
     8
170
     0
171
     2
172
     1
173
     1
174
     0
175
     0
176
     0
177
     0
178
     5
  0
DIMSTYLE
  2
MMM
 70
     0
  3

  4

  5

  6

  7

 40
0.0
 41
2.5
 42
2.0
 43
10.0
 44
2.0
 45
0.0
 46
0.0
 47
0.0
 48
0.0
140
3.5
141
0.0
142
0.0
143
0.0394
144
1.0
145
0.0
146
1.0
147
0.625
 71
     0
 72
     0
 73
     0
 74
     0
 75
     0
 76
     0
 77
     1
 78
     8
170
     0
171
     2
172
     1
173
     0
174
     0
175
     0
176
     3
177
     3
178
     2
  0
DIMSTYLE
  2
MMM$0
 70
     0
  3

  4

  5

  6

  7

 40
0.0
 41
2.5
 42
2.0
 43
10.0
 44
2.0
 45
0.0
 46
0.0
 47
0.0
 48
0.0
140
3.5
141
0.0
142
0.0
143
0.0394
144
1.0
145
0.0
146
1.0
147
0.625
 71
     0
 72
     0
 73
     0
 74
     0
 75
     0
 76
     0
 77
     1
 78
     8
170
     0
171
     2
172
     1
173
     0
174
     0
175
     0
176
     3
177
     3
178
     2
  0
DIMSTYLE
  2
MMM$2
 70
     0
  3

  4

  5

  6

  7

 40
0.0
 41
2.5
 42
2.0
 43
10.0
 44
2.0
 45
0.0
 46
0.0
 47
0.0
 48
0.0
140
3.5
141
0.0
142
0.0
143
0.0394
144
1.0
145
0.0
146
1.0
147
0.625
 71
     0
 72
     0
 73
     0
 74
     0
 75
     0
 76
     0
 77
     1
 78
     8
170
     0
171
     2
172
     1
173
     0
174
     0
175
     0
176
     3
177
     3
178
     2
  0
DIMSTYLE
  2
MMM$3
 70
     0
  3

  4

  5

  6

  7

 40
0.0
 41
2.5
 42
2.0
 43
10.0
 44
2.0
 45
0.0
 46
0.0
 47
0.0
 48
0.0
140
3.5
141
0.0
142
0.0
143
0.0394
144
1.0
145
0.0
146
1.0
147
0.625
 71
     0
 72
     0
 73
     0
 74
     0
 75
     0
 76
     0
 77
     1
 78
     8
170
     0
171
     2
172
     1
173
     0
174
     0
175
     0
176
     3
177
     3
178
     2
  0
DIMSTYLE
  2
MMM$4
 70
     0
  3

  4

  5

  6

  7

 40
0.0
 41
2.5
 42
2.0
 43
10.0
 44
2.0
 45
0.0
 46
0.0
 47
0.0
 48
0.0
140
3.5
141
0.0
142
0.0
143
0.0394
144
1.0
145
0.0
146
1.0
147
0.625
 71
     0
 72
     0
 73
     0
 74
     0
 75
     0
 76
     0
 77
     1
 78
     8
170
     0
171
     2
172
     1
173
     0
174
     0
175
     0
176
     3
177
     3
178
     2
  0
DIMSTYLE
  2
MMM$6
 70
     0
  3

  4

  5

  6

  7

 40
0.0
 41
2.5
 42
2.0
 43
10.0
 44
2.0
 45
0.0
 46
0.0
 47
0.0
 48
0.0
140
3.5
141
0.0
142
0.0
143
0.0394
144
1.0
145
0.0
146
1.0
147
0.625
 71
     0
 72
     0
 73
     0
 74
     0
 75
     0
 76
     0
 77
     0
 78
     8
170
     0
171
     2
172
     1
173
     0
174
     0
175
     0
176
     3
177
     3
178
     2
  0
DIMSTYLE
  2
MMM$7
 70
     0
  3

  4

  5

  6

  7

 40
0.0
 41
2.5
 42
2.0
 43
10.0
 44
2.0
 45
0.0
 46
0.0
 47
0.0
 48
0.0
140
3.5
141
0.0
142
0.0
143
0.0394
144
1.0
145
0.0
146
1.0
147
0.625
 71
     0
 72
     0
 73
     0
 74
     0
 75
     0
 76
     0
 77
     1
 78
     8
170
     0
171
     2
172
     1
173
     0
174
     0
175
     0
176
     3
177
     3
178
     2
  0
DIMSTYLE
  2
AM_ISO
 70
     0
  3

  4
"
  5

  6

  7

 40
1.0
 41
2.5
 42
1.0
 43
10.0
 44
1.0
 45
0.0
 46
0.0
 47
0.1
 48
0.1
140
3.5
141
0.0
142
0.0
143
0.0393701
144
1.0
145
0.0
146
0.71
147
1.5
 71
     0
 72
     0
 73
     0
 74
     0
 75
     0
 76
     0
 77
     1
 78
     8
170
     0
171
     2
172
     1
173
     0
174
     0
175
     0
176
   256
177
   256
178
     2
  0
DIMSTYLE
  2
AM_ISO$3
 70
     0
  3

  4
"
  5

  6

  7

 40
1.0
 41
2.5
 42
1.0
 43
10.0
 44
1.0
 45
0.0
 46
0.0
 47
0.1
 48
0.1
140
3.5
141
0.0
142
0.0
143
0.0393701
144
1.0
145
0.0
146
0.71
147
1.5
 71
     0
 72
     0
 73
     0
 74
     1
 75
     0
 76
     0
 77
     1
 78
     8
170
     0
171
     2
172
     0
173
     0
174
     0
175
     0
176
   256
177
   256
178
     2
  0
DIMSTYLE
  2
AM_ISO$4
 70
     0
  3

  4
"
  5

  6

  7

 40
1.0
 41
2.5
 42
1.0
 43
10.0
 44
1.0
 45
0.0
 46
0.0
 47
0.1
 48
0.1
140
3.5
141
0.0
142
0.0
143
0.0393701
144
1.0
145
0.0
146
0.71
147
1.5
 71
     0
 72
     0
 73
     0
 74
     1
 75
     0
 76
     0
 77
     1
 78
     8
170
     0
171
     2
172
     0
173
     0
174
     0
175
     0
176
   256
177
   256
178
     2
  0
DIMSTYLE
  2
AM_ISO$6
 70
     0
  3

  4
"
  5

  6

  7

 40
1.0
 41
2.5
 42
1.0
 43
10.0
 44
1.0
 45
0.0
 46
0.0
 47
0.1
 48
0.1
140
3.5
141
0.0
142
0.0
143
0.0393701
144
1.0
145
0.0
146
0.71
147
1.5
 71
     0
 72
     0
 73
     0
 74
     0
 75
     0
 76
     0
 77
     0
 78
     8
170
     0
171
     2
172
     1
173
     0
174
     0
175
     0
176
   256
177
   256
178
     2
  0
DIMSTYLE
  2
AM_ISO$7
 70
     0
  3

  4
"
  5

  6

  7

 40
1.0
 41
2.5
 42
1.0
 43
10.0
 44
1.0
 45
0.0
 46
0.0
 47
0.1
 48
0.1
140
5.0
141
0.0
142
0.0
143
0.0393701
144
1.0
145
0.0
146
0.71
147
1.5
 71
     0
 72
     0
 73
     0
 74
     0
 75
     0
 76
     0
 77
     1
 78
     8
170
     0
171
     2
172
     1
173
     0
174
     0
175
     0
176
   256
177
   256
178
     2
  0
DIMSTYLE
  2
AM_ISO$SF
 70
     0
  3

  4
"
  5

  6

  7

 40
1.0
 41
2.5
 42
1.0
 43
10.0
 44
1.0
 45
0.0
 46
0.0
 47
0.1
 48
0.1
140
3.5
141
0.0
142
0.0
143
0.0393701
144
1.0
145
0.0
146
0.71
147
1.5
 71
     0
 72
     0
 73
     0
 74
     0
 75
     1
 76
     1
 77
     1
 78
     8
170
     0
171
     2
172
     1
173
     0
174
     0
175
     0
176
   256
177
   256
178
     2
  0
DIMSTYLE
  2
AM_ISO$SH
 70
     0
  3

  4
"
  5

  6
GENAXEH
  7

 40
1.0
 41
2.5
 42
1.0
 43
10.0
 44
1.0
 45
0.0
 46
0.0
 47
0.1
 48
0.1
140
3.5
141
0.0
142
0.0
143
0.0393701
144
2.0
145
0.0
146
0.71
147
1.5
 71
     0
 72
     0
 73
     0
 74
     0
 75
     1
 76
     1
 77
     1
 78
     8
170
     0
171
     2
172
     1
173
     1
174
     0
175
     0
176
   256
177
   256
178
     2
  0
DIMSTYLE
  2
KINDRED
 70
     0
  3

  4

  5

  6

  7

 40
2.0
 41
0.25
 42
0.25
 43
0.375
 44
0.25
 45
0.0
 46
0.0
 47
0.0
 48
0.0
140
1.0
141
0.25
142
0.0
143
25.3999999999999986
144
1.0
145
0.0
146
1.0
147
0.25
 71
     0
 72
     0
 73
     1
 74
     1
 75
     0
 76
     0
 77
     0
 78
     0
170
     0
171
     2
172
     0
173
     0
174
     0
175
     0
176
     1
177
     1
178
     1
  0
DIMSTYLE
  2
CATALOG
 70
     0
  3
" 
  4
cm
  5

  6
DOT
  7
DOT
 40
2.0
 41
0.25
 42
0.25
 43
0.375
 44
0.25
 45
0.0
 46
0.0
 47
0.0
 48
0.0
140
0.375
141
0.25
142
0.0
143
2.54
144
1.0
145
0.0
146
1.0
147
0.25
 71
     0
 72
     0
 73
     0
 74
     0
 75
     0
 76
     0
 77
     0
 78
     0
170
     1
171
     0
172
     0
173
     1
174
     0
175
     0
176
   256
177
   256
178
   256
  0
DIMSTYLE
  2
CATALOG-HORIZONTAL
 70
     0
  3
" 
  4
cm
  5

  6
DOT
  7
DOT
 40
2.0
 41
0.25
 42
0.25
 43
0.375
 44
0.25
 45
0.0
 46
0.0
 47
0.0
 48
0.0
140
0.375
141
0.25
142
0.0
143
2.54
144
1.0
145
0.0
146
1.0
147
0.25
 71
     0
 72
     0
 73
     1
 74
     0
 75
     0
 76
     0
 77
     0
 78
     0
170
     1
171
     0
172
     0
173
     1
174
     0
175
     0
176
   256
177
   256
178
   256
  0
DIMSTYLE
  2
PRICING
 70
     0
  3
" 
  4
cm
  5

  6
DOT
  7
DOT
 40
2.0
 41
0.25
 42
0.25
 43
0.375
 44
0.25
 45
0.0
 46
0.0
 47
0.0
 48
0.0
140
0.375
141
0.25
142
0.0
143
2.54
144
1.0
145
0.0
146
1.0
147
0.25
 71
     0
 72
     0
 73
     0
 74
     0
 75
     0
 76
     0
 77
     0
 78
     0
170
     1
171
     0
172
     0
173
     1
174
     0
175
     0
176
   256
177
   256
178
   256
  0
DIMSTYLE
  2
CATALOG-FAUCET
 70
     0
  3
" 
  4
cm
  5

  6
DOT
  7
DOT
 40
2.0
 41
0.25
 42
0.25
 43
0.375
 44
0.25
 45
0.0
 46
0.0
 47
0.0
 48
0.0
140
0.375
141
0.0
142
0.0
143
2.54
144
1.0
145
0.0
146
1.0
147
0.25
 71
     0
 72
     0
 73
     1
 74
     1
 75
     0
 76
     0
 77
     0
 78
     0
170
     1
171
     0
172
     0
173
     1
174
     0
175
     0
176
   256
177
   256
178
   256
  0
DIMSTYLE
  2
AM_ANSI
 70
     0
  3

  4
mm
  5

  6

  7

 40
1.0
 41
0.12
 42
0.05
 43
0.5
 44
0.1
 45
0.0
 46
0.0
 47
0.1
 48
0.1
140
0.12
141
0.0
142
0.0
143
25.3999999999999986
144
1.0
145
0.0
146
0.71
147
0.06
 71
     0
 72
     0
 73
     1
 74
     1
 75
     0
 76
     0
 77
     0
 78
     7
170
     0
171
     2
172
     0
173
     0
174
     0
175
     0
176
   256
177
   256
178
   140
  0
DIMSTYLE
  2
AM_ANSI$3
 70
     0
  3

  4
mm
  5

  6

  7

 40
1.0
 41
0.12
 42
0.05
 43
0.5
 44
0.1
 45
0.0
 46
0.0
 47
0.1
 48
0.1
140
0.12
141
0.0
142
0.0
143
25.3999999999999986
144
1.0
145
0.0
146
0.71
147
0.06
 71
     0
 72
     0
 73
     1
 74
     1
 75
     0
 76
     0
 77
     0
 78
     7
170
     0
171
     2
172
     0
173
     0
174
     0
175
     0
176
   256
177
   256
178
   140
  0
DIMSTYLE
  2
AM_ANSI$4
 70
     0
  3

  4
mm
  5

  6

  7

 40
1.0
 41
0.12
 42
0.05
 43
0.5
 44
0.1
 45
0.0
 46
0.0
 47
0.1
 48
0.1
140
0.12
141
0.0
142
0.0
143
25.3999999999999986
144
1.0
145
0.0
146
0.71
147
0.06
 71
     0
 72
     0
 73
     1
 74
     1
 75
     0
 76
     0
 77
     0
 78
     7
170
     0
171
     2
172
     0
173
     0
174
     0
175
     0
176
   256
177
   256
178
   140
  0
DIMSTYLE
  2
AM_ANSI$7
 70
     0
  3

  4
mm
  5

  6

  7

 40
1.0
 41
0.12
 42
0.05
 43
0.5
 44
0.1
 45
0.0
 46
0.0
 47
0.1
 48
0.1
140
0.12
141
0.0
142
0.0
143
25.3999999999999986
144
1.0
145
0.0
146
0.71
147
0.06
 71
     0
 72
     0
 73
     1
 74
     1
 75
     0
 76
     0
 77
     0
 78
     7
170
     0
171
     2
172
     0
173
     0
174
     0
175
     0
176
   256
177
   256
178
   140
  0
DIMSTYLE
  2
AM_ANSI$SF
 70
     0
  3

  4
mm
  5

  6

  7

 40
1.0
 41
0.12
 42
0.05
 43
0.5
 44
0.1
 45
0.0
 46
0.0
 47
0.1
 48
0.1
140
0.12
141
0.0
142
0.0
143
25.3999999999999986
144
1.0
145
0.0
146
0.71
147
0.06
 71
     0
 72
     0
 73
     1
 74
     1
 75
     1
 76
     1
 77
     0
 78
     7
170
     0
171
     2
172
     0
173
     0
174
     0
175
     0
176
   256
177
   256
178
   140
  0
DIMSTYLE
  2
AM_ANSI$SH
 70
     0
  3

  4
mm
  5

  6
GENAXEH
  7

 40
1.0
 41
0.12
 42
0.05
 43
0.5
 44
0.1
 45
0.0
 46
0.0
 47
0.1
 48
0.1
140
0.12
141
0.0
142
0.0
143
25.3999999999999986
144
1.0
145
0.0
146
0.71
147
0.06
 71
     0
 72
     0
 73
     1
 74
     1
 75
     1
 76
     1
 77
     0
 78
     7
170
     0
171
     2
172
     0
173
     1
174
     0
175
     0
176
   256
177
   256
178
   140
  0
DIMSTYLE
  2
AM_ISO$0
 70
     0
  3

  4
"
  5

  6

  7

 40
1.0
 41
2.5
 42
1.0
 43
10.0
 44
1.0
 45
0.0
 46
0.0
 47
0.1
 48
0.1
140
3.5
141
0.0
142
0.0
143
0.0393701
144
1.0
145
0.0
146
0.71
147
1.5
 71
     0
 72
     0
 73
     0
 74
     0
 75
     0
 76
     0
 77
     1
 78
     8
170
     0
171
     2
172
     1
173
     0
174
     0
175
     0
176
   256
177
   256
178
     2
  0
DIMSTYLE
  2
FRAC-08
 70
     0
  3
 
  4

  5

  6

  7

 40
2.0
 41
0.25
 42
0.25
 43
0.375
 44
0.25
 45
0.0
 46
0.0
 47
0.0
 48
0.125
140
0.375
141
0.25
142
0.0
143
25.3999999999999986
144
1.0
145
0.0
146
1.0
147
0.25
 71
     1
 72
     0
 73
     1
 74
     1
 75
     0
 76
     0
 77
     0
 78
     0
170
     0
171
     2
172
     0
173
     0
174
     0
175
     0
176
   256
177
   256
178
   256
  0
DIMSTYLE
  2
FRAC-60
 70
     0
  3
 
  4

  5

  6

  7

 40
2.0
 41
0.25
 42
0.25
 43
0.375
 44
0.25
 45
0.0
 46
0.0
 47
0.0625
 48
0.0
140
0.375
141
0.25
142
0.0
143
25.3999999999999986
144
1.0
145
0.0
146
1.0
147
0.25
 71
     1
 72
     0
 73
     1
 74
     1
 75
     0
 76
     0
 77
     0
 78
     0
170
     0
171
     2
172
     0
173
     0
174
     0
175
     0
176
   256
177
   256
178
   256
  0
DIMSTYLE
  2
FRAC-80
 70
     0
  3
 
  4

  5

  6

  7

 40
2.0
 41
0.25
 42
0.25
 43
0.375
 44
0.25
 45
0.0
 46
0.0
 47
0.125
 48
0.0
140
0.375
141
0.25
142
0.0
143
25.3999999999999986
144
1.0
145
0.0
146
1.0
147
0.25
 71
     1
 72
     0
 73
     1
 74
     1
 75
     0
 76
     0
 77
     0
 78
     0
170
     0
171
     2
172
     0
173
     0
174
     0
175
     0
176
   256
177
   256
178
   256
  0
DIMSTYLE
  2
FRAC-320
 70
     0
  3
 
  4

  5

  6

  7

 40
2.0
 41
0.25
 42
0.25
 43
0.375
 44
0.25
 45
0.0
 46
0.0
 47
0.03125
 48
0.0
140
0.375
141
0.25
142
0.0
143
25.3999999999999986
144
1.0
145
0.0
146
1.0
147
0.25
 71
     1
 72
     0
 73
     1
 74
     1
 75
     0
 76
     0
 77
     0
 78
     0
170
     0
171
     2
172
     0
173
     0
174
     0
175
     0
176
   256
177
   256
178
   256
  0
DIMSTYLE
  2
KINDRED$0
 70
     0
  3

  4

  5

  6

  7

 40
2.0
 41
0.25
 42
0.25
 43
0.375
 44
0.25
 45
0.0
 46
0.0
 47
0.0
 48
0.0
140
1.0
141
0.25
142
0.0
143
25.3999999999999986
144
1.0
145
0.0
146
1.0
147
0.25
 71
     0
 72
     0
 73
     1
 74
     1
 75
     0
 76
     0
 77
     0
 78
     0
170
     0
171
     2
172
     0
173
     0
174
     0
175
     0
176
     1
177
     1
178
     1
  0
ENDTAB
  0
ENDSEC
  0
SECTION
  2
BLOCKS
  0
BLOCK
  8
0
  2
$MODEL_SPACE
 70
     0
 10
0.0
 20
0.0
 30
0.0
  3
$MODEL_SPACE
  1

  0
ENDBLK
  5
25
  8
0
  0
BLOCK
 67
     1
  8
0
  2
$PAPER_SPACE
 70
     0
 10
0.0
 20
0.0
 30
0.0
  3
$PAPER_SPACE
  1

  0
ENDBLK
  5
21
 67
     1
  8
0
  0
BLOCK
  8
0
  2
FKT_TITLEBLOCK
 70
     2
 10
0.0
 20
0.0
 30
0.0
  3
FKT_TITLEBLOCK
  1

  0
ATTDEF
  5
3321
  8
MM_4_0_050
 10
-90.4680208435559479
 20
47.7833962214974406
 30
0.0
 40
2.5
  1

  7
TEXT_STYLE16
 11
-90.4680208435559479
 21
49.0333962214974406
 31
0.0
  3
Part_Group
  2
Part_Group
 70
     0
 74
     2
  0
ATTDEF
  5
3322
  8
MM_4_0_050
 10
-76.434332016216274
 20
54.1282158665385396
 30
0.0
 40
2.5
  1

  7
TEXT_STYLE16
 11
-76.434332016216274
 21
55.3782158665385396
 31
0.0
  3

  2
LENGTH
 70
     0
 74
     2
  0
ATTDEF
  5
3323
  8
MM_4_0_050
 10
-189.0704714390683989
 20
40.1287003108625981
 30
0.0
 40
2.0000000298023219
  1

  7
TEXT_STYLE55
 11
-189.0704714390683989
 21
41.1287003257637593
 31
0.0
  3
Revision_Titel_1
  2
Revision_Titel_1
 70
     0
 74
     2
  0
ATTDEF
  5
3324
  8
MM_4_0_050
 10
-112.7235208114660026
 20
41.5096864343477066
 30
0.0
 40
2.5
  1

  7
TEXT_STYLE16
 11
-112.7235208114660026
 21
42.7596864343477066
 31
0.0
  3
Scale
  2
Scale
 70
     0
 74
     2
  0
ATTDEF
  5
3325
  8
MM_4_0_050
 10
-117.4005629852760961
 20
48.3669777286801335
 30
0.0
 40
2.0000000298023219
  1

  7
TEXT_STYLE55
 11
-117.4005629852760961
 21
49.3669777435812875
 31
0.0
  3
Originate_From
  2
Originate_From
 70
     0
 74
     2
  0
ATTDEF
  5
3326
  8
MM_4_0_050
 10
-117.4005629852760961
 20
52.6058045038725481
 30
0.0
 40
2.0000000298023219
  1

  7
TEXT_STYLE55
 11
-117.4005629852760961
 21
53.6058045187737093
 31
0.0
  3
Replacement_For
  2
Replacement_For
 70
     0
 74
     2
  0
ATTDEF
  5
3327
  8
MM_4_0_050
 10
-117.3944542290035002
 20
56.8084842255577769
 30
0.0
 40
2.0000000298023219
  1

  7
TEXT_STYLE55
 11
-117.3944542290035002
 21
57.8084842404589381
 31
0.0
  3
Replaced_Trough
  2
Replaced_Trough
 70
     0
 74
     2
  0
ATTDEF
  5
3328
  8
MM_4_0_050
 10
-157.6658474761306081
 20
48.2749765578651022
 30
0.0
 40
2.0000000298023219
  1

  7
TEXT_STYLE55
 11
-157.6658474761306081
 21
49.2749765727662634
 31
0.0
  3
Modified_Date
  2
Modified_Date
 70
     0
 74
     2
  0
ATTDEF
  5
3329
  8
MM_4_0_050
 10
-157.6658474761306081
 20
52.7121495876365316
 30
0.0
 40
2.0000000298023219
  1

  7
TEXT_STYLE55
 11
-157.6658474761306081
 21
53.7121496025376928
 31
0.0
  3
Checked_Date
  2
Checked_Date
 70
     0
 74
     2
  0
ATTDEF
  5
332A
  8
MM_4_0_050
 10
-157.6658474761306081
 20
56.7459432510650572
 30
0.0
 40
2.0000000298023219
  1

  7
TEXT_STYLE55
 11
-157.6658474761306081
 21
57.7459432659662184
 31
0.0
  3
Drawn_Date
  2
Drawn_Date
 70
     0
 74
     2
  0
ATTDEF
  5
332B
  8
MM_4_0_050
 10
-173.8010219419350904
 20
48.2909826554409776
 30
0.0
 40
2.0000000298023219
  1

  7
TEXT_STYLE55
 11
-173.8010219419350904
 21
49.2909826703421388
 31
0.0
  3
Modified_By
  2
Modified_By
 70
     0
 74
     2
  0
ATTDEF
  5
332C
  8
MM_4_0_050
 10
-173.8010219419350904
 20
52.7281556852124211
 30
0.0
 40
2.0000000298023219
  1

  7
TEXT_STYLE55
 11
-173.8010219419350904
 21
53.7281557001135823
 31
0.0
  3
Checked_By
  2
Checked_By
 70
     0
 74
     2
  0
ATTDEF
  5
332D
  8
MM_4_0_050
 10
-173.8010219419350904
 20
56.7619493486409397
 30
0.0
 40
2.0000000298023219
  1

  7
TEXT_STYLE55
 11
-173.8010219419350904
 21
57.7619493635421009
 31
0.0
  3
Drawn_By
  2
Drawn_By
 70
     0
 74
     2
  0
ATTDEF
  5
332E
  8
MM_4_0_050
 10
-123.5227350452714035
 20
37.997631930175892
 30
0.0
 40
2.0000000298023219
  1

  7
PARTS-LIST_2_0MM
 11
-123.5227350452714035
 21
38.9976319450770532
 31
0.0
  3
Departement
  2
Departement
 70
     0
 74
     2
  0
ATTDEF
  5
332F
  8
MM_4_0_050
 62
     7
 10
-135.0135744979882872
 20
41.6830410607871613
 30
0.0
 40
2.5
  1

  7
TEXT_STYLE16
 11
-135.0135744979882872
 21
42.9330410607871613
 31
0.0
  3
Unit
  2
UNIT
 70
     0
 74
     2
  0
ATTDEF
  5
3330
  8
MM_4_0_050
 10
-10.0927460251283492
 20
1.309277733203686
 30
0.0
 40
5.0
  1

  7
TEXT_STYLE56
 11
-10.0927460251283492
 21
3.809277733203686
 31
0.0
  3
Revision_Index_1
  2
Revision_Index_1
 70
     0
 74
     2
  0
ATTDEF
  5
3331
  8
MM_4_0_050
 10
-30.2935985987699006
 20
54.3247034205726109
 30
0.0
 40
2.5
  1

  7
TEXT_STYLE16
 11
-30.2935985987699006
 21
55.5747034205726109
 31
0.0
  3
Weight
  2
Weight
 70
     0
 74
     2
  0
ATTDEF
  5
3332
  8
MM_4_0_050
 10
-188.9414120025091108
 20
35.9346970747167305
 30
0.0
 40
2.0000000298023219
  1

  7
TEXT_STYLE55
 11
-188.9414120025091108
 21
37.9346971045190529
 31
0.0
  3
Revision_Memo_1
  2
Revision_Memo_1
 70
     0
 74
     3
  0
ATTDEF
  5
3333
  8
MM_4_0_050
 10
-90.52042833517811
 20
54.1463443778128806
 30
0.0
 40
2.5
  1

  7
TEXT_STYLE16
 11
-90.52042833517811
 21
55.3963443778128806
 31
0.0
  3
Thickness
  2
Thickness
 70
     0
 74
     2
  0
ATTDEF
  5
3334
  8
MM_4_0_050
 10
-29.9773032591564288
 20
48.2400630630258718
 30
0.0
 40
2.5
  1

  7
TEXT_STYLE16
 11
-29.9773032591564288
 21
49.4900630630258718
 31
0.0
  3
Tolerance
  2
Tolerance
 70
     0
 74
     2
  0
ATTDEF
  5
3335
  8
MM_4_0_050
 10
-76.609469748843253
 20
47.7399961226213918
 30
0.0
 40
2.5
  1

  7
TEXT_STYLE16
 11
-76.609469748843253
 21
48.9899961226213918
 31
0.0
  3
Part_Number
  2
Part_Number
 70
     0
 74
     2
  0
ATTDEF
  5
3336
  8
MM_4_0_050
 10
-44.6213724707196207
 20
42.0794166224739001
 30
0.0
 40
2.5
  1

  7
TEXT_STYLE16
 11
-44.6213724707196207
 21
43.3294166224739001
 31
0.0
  3
Remark
  2
REMARK
 70
     0
 74
     2
  0
ATTDEF
  5
3337
  8
MM_4_0_050
 10
-90.3244432288046823
 20
42.073895636760092
 30
0.0
 40
2.5
  1

  7
TEXT_STYLE16
 11
-90.3244432288046823
 21
43.323895636760092
 31
0.0
  3
Material
  2
Material
 70
     0
 74
     2
  0
ATTDEF
  5
3338
  8
MM_4_0_050
 10
-74.8827889115018337
 20
1.3651845409932539
 30
0.0
 40
5.0
  1

  7
TEXT_STYLE56
 11
-74.8827889115018337
 21
3.8651845409932539
 31
0.0
  3
Document_Number
  2
Document_Number
 70
     0
 74
     2
  0
ATTDEF
  5
3339
  8
MM_4_0_050
 10
-44.2848586620314606
 20
33.9672570000146621
 30
0.0
 40
3.4999999403953548
  1

  7
TEXT_STYLE12
 11
-44.2848586620314606
 21
35.7172569702123326
 31
0.0
  3
Collection
  2
Collection
 70
     0
 74
     2
  0
ATTDEF
  5
333A
  8
MM_4_0_050
 10
-90.2619767001072546
 20
34.0690779339741212
 30
0.0
 40
3.4999999403953548
  1

  7
TEXT_STYLE12
 11
-90.2619767001072546
 21
35.8190779041717917
 31
0.0
  3
Project
  2
Project
 70
     0
 74
     2
  0
ATTDEF
  5
333B
  8
MM_4_0_050
 10
-89.9225765088244771
 20
12.2307016712723797
 30
0.0
 40
3.4999999403953548
  1

  7
TEXT_STYLE12
 11
-89.9225765088244771
 21
13.9807016414700591
 31
0.0
  3
Auxiliary_Remark2
  2
Auxiliary_Remark2
 70
     0
 74
     2
  0
ATTDEF
  5
333C
  8
MM_4_0_050
 10
-89.6694811567444958
 20
18.4365465770817707
 30
0.0
 40
3.4999999403953548
  1

  7
TEXT_STYLE12
 11
-89.6694811567444958
 21
20.1865465472794483
 31
0.0
  3
Auxiliary_Remark1
  2
Auxiliary_Remark1
 70
     0
 74
     2
  0
ATTDEF
  5
333D
  8
MM_4_0_050
 10
-90.2031338444308943
 20
25.072796139995571
 30
0.0
 40
5.0
  1

  7
TEXT_STYLE56
 11
-90.2031338444308943
 21
27.572796139995571
 31
0.0
  3
Title
  2
Title
 70
     0
 74
     2
  0
INSERT
  5
333E
  8
0
  2
*U199
 10
0.0
 20
0.0
 30
0.0
  0
INSERT
  5
333F
  8
0
  2
*U200
 10
0.0
 20
0.0
 30
0.0
  0
INSERT
  5
3340
  8
0
  2
*U201
 10
0.0
 20
0.0
 30
0.0
  0
INSERT
  5
3341
  8
0
  2
*U202
 10
0.0
 20
0.0
 30
0.0
  0
INSERT
  5
3342
  8
0
  2
*U203
 10
0.0
 20
0.0
 30
0.0
  0
INSERT
  5
3343
  8
0
  2
*U204
 10
0.0
 20
0.0
 30
0.0
  0
INSERT
  5
3344
  8
0
  2
*U205
 10
0.0
 20
0.0
 30
0.0
  0
INSERT
  5
3345
  8
0
  2
*U206
 10
0.0
 20
0.0
 30
0.0
  0
INSERT
  5
3346
  8
0
  2
*U207
 10
0.0
 20
0.0
 30
0.0
  0
INSERT
  5
3347
  8
0
  2
*U208
 10
0.0
 20
0.0
 30
0.0
  0
INSERT
  5
3348
  8
0
  2
*U209
 10
0.0
 20
0.0
 30
0.0
  0
INSERT
  5
3349
  8
0
  2
*U210
 10
0.0
 20
0.0
 30
0.0
  0
INSERT
  5
334A
  8
0
  2
*U211
 10
0.0
 20
0.0
 30
0.0
  0
INSERT
  5
334B
  8
0
  2
*U212
 10
0.0
 20
0.0
 30
0.0
  0
INSERT
  5
334C
  8
0
  2
*U213
 10
0.0
 20
0.0
 30
0.0
  0
INSERT
  5
334D
  8
0
  2
*U214
 10
0.0
 20
0.0
 30
0.0
  0
INSERT
  5
334E
  8
0
  2
*U215
 10
0.0
 20
0.0
 30
0.0
  0
INSERT
  5
334F
  8
0
  2
*U216
 10
0.0
 20
0.0
 30
0.0
  0
INSERT
  5
3350
  8
0
  2
*U217
 10
0.0
 20
0.0
 30
0.0
  0
INSERT
  5
3351
  8
0
  2
*U218
 10
0.0
 20
0.0
 30
0.0
  0
INSERT
  5
3352
  8
0
  2
*U219
 10
0.0
 20
0.0
 30
0.0
  0
INSERT
  5
3353
  8
0
  2
*U220
 10
0.0
 20
0.0
 30
0.0
  0
INSERT
  5
3354
  8
0
  2
*U221
 10
0.0
 20
0.0
 30
0.0
  0
INSERT
  5
3355
  8
0
  2
*U222
 10
0.0
 20
0.0
 30
0.0
  0
INSERT
  5
3356
  8
0
  2
*U223
 10
0.0
 20
0.0
 30
0.0
  0
LINE
  5
3357
  8
MM_4_0_050
  6
CONTINUOUS
 10
-121.2754222603946062
 20
32.4543560493109169
 30
0.0
 11
-121.2754222603946062
 21
32.8680141961730499
 31
0.0
  0
LINE
  5
3358
  8
MM_4_0_050
  6
CONTINUOUS
 10
-121.4488601953907931
 20
32.4543560493109169
 30
0.0
 11
-121.2754222603946062
 21
32.4543560493109169
 31
0.0
  0
LINE
  5
3359
  8
MM_4_0_050
  6
CONTINUOUS
 10
-121.9025304738565012
 20
31.9740196883394994
 30
0.0
 11
-121.4488601953907931
 21
32.4543560493109169
 31
0.0
  0
LINE
  5
335A
  8
MM_4_0_050
  6
CONTINUOUS
 10
-121.282082277098894
 20
31.2401170664037693
 30
0.0
 11
-121.9025304738565012
 21
31.9740196883394994
 31
0.0
  0
LINE
  5
335B
  8
MM_4_0_050
  6
CONTINUOUS
 10
-121.1486564737061968
 20
31.2401170664037693
 30
0.0
 11
-121.282082277098894
 21
31.2401170664037693
 31
0.0
  0
LINE
  5
335C
  8
MM_4_0_050
  6
CONTINUOUS
 10
-121.1486564737061968
 20
30.7797954431308689
 30
0.0
 11
-121.1486564737061968
 21
31.2401170664037693
 31
0.0
  0
LINE
  5
335D
  8
MM_4_0_050
  6
CONTINUOUS
 10
-122.2561357357265024
 20
30.7797954431308689
 30
0.0
 11
-121.1486564737061968
 21
30.7797954431308689
 31
0.0
  0
LINE
  5
335E
  8
MM_4_0_050
  6
CONTINUOUS
 10
-122.2561357357265024
 20
31.2401170664037693
 30
0.0
 11
-122.2561357357265024
 21
30.7797954431308689
 31
0.0
  0
LINE
  5
335F
  8
MM_4_0_050
  6
CONTINUOUS
 10
-122.1227099323339047
 20
31.2401170664037693
 30
0.0
 11
-122.2561357357265024
 21
31.2401170664037693
 31
0.0
  0
LINE
  5
3360
  8
MM_4_0_050
  6
CONTINUOUS
 10
-122.5630341617022054
 20
31.7404941807642196
 30
0.0
 11
-122.1227099323339047
 21
31.2401170664037693
 31
0.0
  0
LINE
  5
3361
  8
MM_4_0_050
  6
CONTINUOUS
 10
-122.5630341617022054
 20
31.2401170664037693
 30
0.0
 11
-122.5630341617022054
 21
31.7404941807642196
 31
0.0
  0
LINE
  5
3362
  8
MM_4_0_050
  6
CONTINUOUS
 10
-122.4096022925075999
 20
31.2401170664037693
 30
0.0
 11
-122.5630341617022054
 21
31.2401170664037693
 31
0.0
  0
LINE
  5
3363
  8
MM_4_0_050
  6
CONTINUOUS
 10
-122.4096022925075999
 20
30.7797954431308689
 30
0.0
 11
-122.4096022925075999
 21
31.2401170664037693
 31
0.0
  0
LINE
  5
3364
  8
MM_4_0_050
  6
CONTINUOUS
 10
-123.5704397352297974
 20
30.7797954431308689
 30
0.0
 11
-122.4096022925075999
 21
30.7797954431308689
 31
0.0
  0
LINE
  5
3365
  8
MM_4_0_050
  6
CONTINUOUS
 10
-123.5704397352297974
 20
31.2401170664037693
 30
0.0
 11
-123.5704397352297974
 21
30.7797954431308689
 31
0.0
  0
LINE
  5
3366
  8
MM_4_0_050
  6
CONTINUOUS
 10
-123.3502602767523939
 20
31.2401170664037693
 30
0.0
 11
-123.5704397352297974
 21
31.2401170664037693
 31
0.0
  0
LINE
  5
3367
  8
MM_4_0_050
  6
CONTINUOUS
 10
-123.3502602767523939
 20
32.4476960326072401
 30
0.0
 11
-123.3502602767523939
 21
31.2401170664037693
 31
0.0
  0
LINE
  5
3368
  8
MM_4_0_050
  6
CONTINUOUS
 10
-123.5704397352297974
 20
32.4476960326072401
 30
0.0
 11
-123.3502602767523939
 21
32.4476960326072401
 31
0.0
  0
LINE
  5
3369
  8
MM_4_0_050
  6
CONTINUOUS
 10
-123.5704397352297974
 20
32.8680141961730499
 30
0.0
 11
-123.5704397352297974
 21
32.4476960326072401
 31
0.0
  0
LINE
  5
336A
  8
MM_4_0_050
  6
CONTINUOUS
 10
-122.4162623092118025
 20
32.8680141961730499
 30
0.0
 11
-123.5704397352297974
 21
32.8680141961730499
 31
0.0
  0
LINE
  5
336B
  8
MM_4_0_050
  6
CONTINUOUS
 10
-122.4162623092118025
 20
32.4476960326072401
 30
0.0
 11
-122.4162623092118025
 21
32.8680141961730499
 31
0.0
  0
LINE
  5
336C
  8
MM_4_0_050
  6
CONTINUOUS
 10
-122.5630341617022054
 20
32.4476960326072401
 30
0.0
 11
-122.4162623092118025
 21
32.4476960326072401
 31
0.0
  0
LINE
  5
336D
  8
MM_4_0_050
  6
CONTINUOUS
 10
-122.5630341617022054
 20
31.9873397217469098
 30
0.0
 11
-122.5630341617022054
 21
32.4476960326072401
 31
0.0
  0
LINE
  5
336E
  8
MM_4_0_050
  6
CONTINUOUS
 10
-122.1227099323339047
 20
32.4476960326072401
 30
0.0
 11
-122.5630341617022054
 21
31.9873397217469098
 31
0.0
  0
LINE
  5
336F
  8
MM_4_0_050
  6
CONTINUOUS
 10
-122.2561357357265024
 20
32.4476960326072401
 30
0.0
 11
-122.1227099323339047
 21
32.4476960326072401
 31
0.0
  0
LINE
  5
3370
  8
MM_4_0_050
  6
CONTINUOUS
 10
-122.2561357357265024
 20
32.8680141961730499
 30
0.0
 11
-122.2561357357265024
 21
32.4476960326072401
 31
0.0
  0
LINE
  5
3371
  8
MM_4_0_050
  6
CONTINUOUS
 10
-121.2754222603946062
 20
32.8680141961730499
 30
0.0
 11
-122.2561357357265024
 21
32.8680141961730499
 31
0.0
  0
LINE
  5
3372
  8
MM_4_0_050
  6
CONTINUOUS
 10
-119.0437096318333943
 20
31.4419988227390697
 30
0.0
 11
-119.4840338612012971
 21
31.4419988227390697
 31
0.0
  0
LINE
  5
3373
  8
MM_4_0_050
  6
CONTINUOUS
 10
-119.0437096318333943
 20
30.7814951348938202
 30
0.0
 11
-119.0437096318333943
 21
31.4419988227390697
 31
0.0
  0
LINE
  5
3374
  8
MM_4_0_050
  6
CONTINUOUS
 10
-120.9584557622928003
 20
30.7814951348938202
 30
0.0
 11
-119.0437096318333943
 21
30.7814951348938202
 31
0.0
  0
LINE
  5
3375
  8
MM_4_0_050
  6
CONTINUOUS
 10
-120.9584557622928003
 20
31.2418601176501909
 30
0.0
 11
-120.9584557622928003
 21
30.7814951348938202
 31
0.0
  0
LINE
  5
3376
  8
MM_4_0_050
  6
CONTINUOUS
 10
-120.7583170572040956
 20
31.2418601176501909
 30
0.0
 11
-120.9584557622928003
 21
31.2418601176501909
 31
0.0
  0
LINE
  5
3377
  8
MM_4_0_050
  6
CONTINUOUS
 10
-120.7583170572040956
 20
32.4427443795629813
 30
0.0
 11
-120.7583170572040956
 21
31.2418601176501909
 31
0.0
  0
LINE
  5
3378
  8
MM_4_0_050
  6
CONTINUOUS
 10
-120.9584557622928003
 20
32.4427443795629813
 30
0.0
 11
-120.7583170572040956
 21
32.4427443795629813
 31
0.0
  0
LINE
  5
3379
  8
MM_4_0_050
  6
CONTINUOUS
 10
-120.9584557622928003
 20
32.8697225598329226
 30
0.0
 11
-120.9584557622928003
 21
32.4427443795629813
 31
0.0
  0
LINE
  5
337A
  8
MM_4_0_050
  6
CONTINUOUS
 10
-119.0437096318333943
 20
32.8697225598329226
 30
0.0
 11
-120.9584557622928003
 21
32.8697225598329226
 31
0.0
  0
LINE
  5
337B
  8
MM_4_0_050
  6
CONTINUOUS
 10
-119.0437096318333943
 20
32.2225735929820587
 30
0.0
 11
-119.0437096318333943
 21
32.8697225598329226
 31
0.0
  0
LINE
  5
337C
  8
MM_4_0_050
  6
CONTINUOUS
 10
-119.4840338612012971
 20
32.2225735929820587
 30
0.0
 11
-119.0437096318333943
 21
32.2225735929820587
 31
0.0
  0
LINE
  5
337D
  8
MM_4_0_050
  6
CONTINUOUS
 10
-119.4840338612012971
 20
32.4427443795629813
 30
0.0
 11
-119.4840338612012971
 21
32.2225735929820587
 31
0.0
  0
LINE
  5
337E
  8
MM_4_0_050
  6
CONTINUOUS
 10
-119.9443554844741016
 20
32.4427443795629813
 30
0.0
 11
-119.4840338612012971
 21
32.4427443795629813
 31
0.0
  0
LINE
  5
337F
  8
MM_4_0_050
  6
CONTINUOUS
 10
-119.9443554844741016
 20
32.0157401836025102
 30
0.0
 11
-119.9443554844741016
 21
32.4427443795629813
 31
0.0
  0
LINE
  5
3380
  8
MM_4_0_050
  6
CONTINUOUS
 10
-119.5240806803919043
 20
32.0157401836025102
 30
0.0
 11
-119.9443554844741016
 21
32.0157401836025102
 31
0.0
  0
LINE
  5
3381
  8
MM_4_0_050
  6
CONTINUOUS
 10
-119.5240806803919043
 20
31.6621782812165087
 30
0.0
 11
-119.5240806803919043
 21
32.0157401836025102
 31
0.0
  0
LINE
  5
3382
  8
MM_4_0_050
  6
CONTINUOUS
 10
-119.9443554844741016
 20
31.6621782812165087
 30
0.0
 11
-119.5240806803919043
 21
31.6621782812165087
 31
0.0
  0
LINE
  5
3383
  8
MM_4_0_050
  6
CONTINUOUS
 10
-119.9443554844741016
 20
31.2418601176501909
 30
0.0
 11
-119.9443554844741016
 21
31.6621782812165087
 31
0.0
  0
LINE
  5
3384
  8
MM_4_0_050
  6
CONTINUOUS
 10
-119.4840338612012971
 20
31.2418601176501909
 30
0.0
 11
-119.9443554844741016
 21
31.2418601176501909
 31
0.0
  0
LINE
  5
3385
  8
MM_4_0_050
  6
CONTINUOUS
 10
-119.4840338612012971
 20
31.4419988227390697
 30
0.0
 11
-119.4840338612012971
 21
31.2418601176501909
 31
0.0
  0
LINE
  5
3386
  8
MM_4_0_050
  6
CONTINUOUS
 10
-123.713352593666599
 20
34.3266012137996483
 30
0.0
 11
-123.713352593666599
 21
29.3294110153019005
 31
0.0
  0
LINE
  5
3387
  8
MM_4_0_050
  6
CONTINUOUS
 10
-118.7230228900259021
 20
34.3266012137996483
 30
0.0
 11
-123.713352593666599
 21
34.3266012137996483
 31
0.0
  0
LINE
  5
3388
  8
MM_4_0_050
  6
CONTINUOUS
 10
-118.7230228900259021
 20
29.3302348454931305
 30
0.0
 11
-118.7230228900259021
 21
34.3266012137996483
 31
0.0
  0
LINE
  5
3389
  8
MM_4_0_050
  6
CONTINUOUS
 10
-123.713352593666599
 20
29.3294110153019005
 30
0.0
 11
-118.7230228900259021
 21
29.3302348454931305
 31
0.0
  0
LINE
  5
338A
  8
MM_4_0_050
  6
CONTINUOUS
 10
-127.904445605258303
 20
31.7770635693580417
 30
0.0
 11
-127.5508403433886997
 21
31.7770635693580417
 31
0.0
  0
LINE
  5
338B
  8
MM_4_0_050
  6
CONTINUOUS
 10
-127.7309729826755955
 20
32.464224667812033
 30
0.0
 11
-127.904445605258303
 21
31.7770635693580417
 31
0.0
  0
LINE
  5
338C
  8
MM_4_0_050
  6
CONTINUOUS
 10
-127.5508403433886997
 20
31.7770635693580417
 30
0.0
 11
-127.7309729826755955
 21
32.464224667812033
 31
0.0
  0
LINE
  5
338D
  8
MM_4_0_050
  6
CONTINUOUS
 10
-126.8744323969040977
 20
32.4447996190927199
 30
0.0
 11
-127.047905019487203
 21
32.4447996190927199
 31
0.0
  0
LINE
  5
338E
  8
MM_4_0_050
  6
CONTINUOUS
 10
-126.8744323969040977
 20
32.45145096389993
 30
0.0
 11
-126.8744323969040977
 21
32.4447996190927199
 31
0.0
  0
LINE
  5
338F
  8
MM_4_0_050
  6
CONTINUOUS
 10
-126.8744323969040977
 20
32.8717691274657398
 30
0.0
 11
-126.8744323969040977
 21
32.45145096389993
 31
0.0
  0
LINE
  5
3390
  8
MM_4_0_050
  6
CONTINUOUS
 10
-128.4088811672976931
 20
32.8717691274657398
 30
0.0
 11
-126.8744323969040977
 21
32.8717691274657398
 31
0.0
  0
LINE
  5
3391
  8
MM_4_0_050
  6
CONTINUOUS
 10
-128.4088811672976931
 20
32.4447996190927199
 30
0.0
 11
-128.4088811672976931
 21
32.8717691274657398
 31
0.0
  0
LINE
  5
3392
  8
MM_4_0_050
  6
CONTINUOUS
 10
-128.242103249005396
 20
32.4447996190927199
 30
0.0
 11
-128.4088811672976931
 21
32.4447996190927199
 31
0.0
  0
LINE
  5
3393
  8
MM_4_0_050
  6
CONTINUOUS
 10
-128.6224006090714909
 20
31.2439066852834593
 30
0.0
 11
-128.242103249005396
 21
32.4447996190927199
 31
0.0
  0
LINE
  5
3394
  8
MM_4_0_050
  6
CONTINUOUS
 10
-128.7624777572708012
 20
31.2439066852834593
 30
0.0
 11
-128.6224006090714909
 21
31.2439066852834593
 31
0.0
  0
LINE
  5
3395
  8
MM_4_0_050
  6
CONTINUOUS
 10
-128.7624777572708012
 20
30.7835850620105589
 30
0.0
 11
-128.7624777572708012
 21
31.2439066852834593
 31
0.0
  0
LINE
  5
3396
  8
MM_4_0_050
  6
CONTINUOUS
 10
-127.861831904630094
 20
30.7835850620105589
 30
0.0
 11
-128.7624777572708012
 21
30.7835850620105589
 31
0.0
  0
LINE
  5
3397
  8
MM_4_0_050
  6
CONTINUOUS
 10
-127.861831904630094
 20
31.2439066852834593
 30
0.0
 11
-127.861831904630094
 21
30.7835850620105589
 31
0.0
  0
LINE
  5
3398
  8
MM_4_0_050
  6
CONTINUOUS
 10
-128.0486245606205955
 20
31.2439066852834593
 30
0.0
 11
-127.861831904630094
 21
31.2439066852834593
 31
0.0
  0
LINE
  5
3399
  8
MM_4_0_050
  6
CONTINUOUS
 10
-127.9885976913185033
 20
31.4373853736682101
 30
0.0
 11
-128.0486245606205955
 21
31.2439066852834593
 31
0.0
  0
LINE
  5
339A
  8
MM_4_0_050
  6
CONTINUOUS
 10
-127.4682145111565035
 20
31.4373853736682101
 30
0.0
 11
-127.9885976913185033
 21
31.4373853736682101
 31
0.0
  0
LINE
  5
339B
  8
MM_4_0_050
  6
CONTINUOUS
 10
-127.4215163471587999
 20
31.2439066852834593
 30
0.0
 11
-127.4682145111565035
 21
31.4373853736682101
 31
0.0
  0
LINE
  5
339C
  8
MM_4_0_050
  6
CONTINUOUS
 10
-127.6283063970548
 20
31.2439066852834593
 30
0.0
 11
-127.4215163471587999
 21
31.2439066852834593
 31
0.0
  0
LINE
  5
339D
  8
MM_4_0_050
  6
CONTINUOUS
 10
-127.6283063970548
 20
30.7835850620105589
 30
0.0
 11
-127.6283063970548
 21
31.2439066852834593
 31
0.0
  0
LINE
  5
339E
  8
MM_4_0_050
  6
CONTINUOUS
 10
-126.4941697244253049
 20
30.7835850620105589
 30
0.0
 11
-127.6283063970548
 21
30.7835850620105589
 31
0.0
  0
LINE
  5
339F
  8
MM_4_0_050
  6
CONTINUOUS
 10
-126.4941697244253049
 20
31.2439066852834593
 30
0.0
 11
-126.4941697244253049
 21
30.7835850620105589
 31
0.0
  0
LINE
  5
33A0
  8
MM_4_0_050
  6
CONTINUOUS
 10
-126.687648412810006
 20
31.2439066852834593
 30
0.0
 11
-126.4941697244253049
 21
31.2439066852834593
 31
0.0
  0
LINE
  5
33A1
  8
MM_4_0_050
  6
CONTINUOUS
 10
-127.047905019487203
 20
32.4447996190927199
 30
0.0
 11
-126.687648412810006
 21
31.2439066852834593
 31
0.0
  0
LINE
  5
33A2
  8
MM_4_0_050
  6
CONTINUOUS
 10
-124.8998328350774045
 20
32.8697225598329226
 30
0.0
 11
-124.8998328350774045
 21
32.4494043962666581
 31
0.0
  0
LINE
  5
33A3
  8
MM_4_0_050
  6
CONTINUOUS
 10
-124.0792459332307942
 20
32.8697225598329226
 30
0.0
 11
-124.8998328350774045
 21
32.8697225598329226
 31
0.0
  0
LINE
  5
33A4
  8
MM_4_0_050
  6
CONTINUOUS
 10
-124.0792459332307942
 20
32.4494043962666581
 30
0.0
 11
-124.0792459332307942
 21
32.8697225598329226
 31
0.0
  0
LINE
  5
33A5
  8
MM_4_0_050
  6
CONTINUOUS
 10
-124.3060854084124003
 20
32.4494043962666581
 30
0.0
 11
-124.0792459332307942
 21
32.4494043962666581
 31
0.0
  0
LINE
  5
33A6
  8
MM_4_0_050
  6
CONTINUOUS
 10
-124.3060854084124003
 20
30.7814951348938202
 30
0.0
 11
-124.3060854084124003
 21
32.4494043962666581
 31
0.0
  0
LINE
  5
33A7
  8
MM_4_0_050
  6
CONTINUOUS
 10
-124.9198389008793981
 20
30.7814951348938202
 30
0.0
 11
-124.3060854084124003
 21
30.7814951348938202
 31
0.0
  0
LINE
  5
33A8
  8
MM_4_0_050
  6
CONTINUOUS
 10
-125.6604015395188014
 20
32.0290949045973719
 30
0.0
 11
-124.9198389008793981
 21
30.7814951348938202
 31
0.0
  0
LINE
  5
33A9
  8
MM_4_0_050
  6
CONTINUOUS
 10
-125.6604015395188014
 20
31.2418601176501909
 30
0.0
 11
-125.6604015395188014
 21
32.0290949045973719
 31
0.0
  0
LINE
  5
33AA
  8
MM_4_0_050
  6
CONTINUOUS
 10
-125.4869289169355966
 20
31.2418601176501909
 30
0.0
 11
-125.6604015395188014
 21
31.2418601176501909
 31
0.0
  0
LINE
  5
33AB
  8
MM_4_0_050
  6
CONTINUOUS
 10
-125.4869289169355966
 20
30.7814951348938202
 30
0.0
 11
-125.4869289169355966
 21
31.2418601176501909
 31
0.0
  0
LINE
  5
33AC
  8
MM_4_0_050
  6
CONTINUOUS
 10
-126.3409026212690947
 20
30.7814951348938202
 30
0.0
 11
-125.4869289169355966
 21
30.7814951348938202
 31
0.0
  0
LINE
  5
33AD
  8
MM_4_0_050
  6
CONTINUOUS
 10
-126.3409026212690947
 20
31.2418601176501909
 30
0.0
 11
-126.3409026212690947
 21
30.7814951348938202
 31
0.0
  0
LINE
  5
33AE
  8
MM_4_0_050
  6
CONTINUOUS
 10
-126.1340778837866026
 20
31.2418601176501909
 30
0.0
 11
-126.3409026212690947
 21
31.2418601176501909
 31
0.0
  0
LINE
  5
33AF
  8
MM_4_0_050
  6
CONTINUOUS
 10
-126.1340778837866026
 20
32.4494043962666581
 30
0.0
 11
-126.1340778837866026
 21
31.2418601176501909
 31
0.0
  0
LINE
  5
33B0
  8
MM_4_0_050
  6
CONTINUOUS
 10
-126.3409026212690947
 20
32.4494043962666581
 30
0.0
 11
-126.1340778837866026
 21
32.4494043962666581
 31
0.0
  0
LINE
  5
33B1
  8
MM_4_0_050
  6
CONTINUOUS
 10
-126.3409026212690947
 20
32.8697225598329226
 30
0.0
 11
-126.3409026212690947
 21
32.4494043962666581
 31
0.0
  0
LINE
  5
33B2
  8
MM_4_0_050
  6
CONTINUOUS
 10
-125.4002099494378939
 20
32.8697225598329226
 30
0.0
 11
-126.3409026212690947
 21
32.8697225598329226
 31
0.0
  0
LINE
  5
33B3
  8
MM_4_0_050
  6
CONTINUOUS
 10
-124.7397149334890969
 20
31.76890331451634
 30
0.0
 11
-125.4002099494378939
 21
32.8697225598329226
 31
0.0
  0
LINE
  5
33B4
  8
MM_4_0_050
  6
CONTINUOUS
 10
-124.7397149334890969
 20
32.4494043962666581
 30
0.0
 11
-124.7397149334890969
 21
31.76890331451634
 31
0.0
  0
LINE
  5
33B5
  8
MM_4_0_050
  6
CONTINUOUS
 10
-124.8998328350774045
 20
32.4494043962666581
 30
0.0
 11
-124.7397149334890969
 21
32.4494043962666581
 31
0.0
  0
LINE
  5
33B6
  8
MM_4_0_050
  6
CONTINUOUS
 10
-130.3545252658765037
 20
32.4508005716436685
 30
0.0
 11
-130.3745313316784973
 21
32.4574605883473524
 31
0.0
  0
LINE
  5
33B7
  8
MM_4_0_050
  6
CONTINUOUS
 10
-130.3278244957838012
 20
32.4374545225453303
 30
0.0
 11
-130.3545252658765037
 21
32.4508005716436685
 31
0.0
  0
LINE
  5
33B8
  8
MM_4_0_050
  6
CONTINUOUS
 10
-130.3144784466859107
 20
32.4307945058416465
 30
0.0
 11
-130.3278244957838012
 21
32.4374545225453303
 31
0.0
  0
LINE
  5
33B9
  8
MM_4_0_050
  6
CONTINUOUS
 10
-130.2944723808844003
 20
32.4107537524530827
 30
0.0
 11
-130.3144784466859107
 21
32.4307945058416465
 31
0.0
  0
LINE
  5
33BA
  8
MM_4_0_050
  6
CONTINUOUS
 10
-130.2811263317865098
 20
32.3907476866510535
 30
0.0
 11
-130.2944723808844003
 21
32.4107537524530827
 31
0.0
  0
LINE
  5
33BB
  8
MM_4_0_050
  6
CONTINUOUS
 10
-130.2611115940879927
 20
32.3707416208494934
 30
0.0
 11
-130.2811263317865098
 21
32.3907476866510535
 31
0.0
  0
LINE
  5
33BC
  8
MM_4_0_050
  6
CONTINUOUS
 10
-130.254460249280811
 20
32.3507355550474571
 30
0.0
 11
-130.2611115940879927
 21
32.3707416208494934
 31
0.0
  0
LINE
  5
33BD
  8
MM_4_0_050
  6
CONTINUOUS
 10
-130.2411055282859991
 20
32.3306948016589502
 30
0.0
 11
-130.254460249280811
 21
32.3507355550474571
 31
0.0
  0
LINE
  5
33BE
  8
MM_4_0_050
  6
CONTINUOUS
 10
-130.234454183478789
 20
32.3106887358568713
 30
0.0
 11
-130.2411055282859991
 21
32.3306948016589502
 31
0.0
  0
LINE
  5
33BF
  8
MM_4_0_050
  6
CONTINUOUS
 10
-130.2210994624844034
 20
32.2773366209570227
 30
0.0
 11
-130.234454183478789
 21
32.3106887358568713
 31
0.0
  0
LINE
  5
33C0
  8
MM_4_0_050
  6
CONTINUOUS
 10
-130.2077534133860013
 20
32.2573218832584701
 30
0.0
 11
-130.2210994624844034
 21
32.2773366209570227
 31
0.0
  0
LINE
  5
33C1
  8
MM_4_0_050
  6
CONTINUOUS
 10
-130.2077534133860013
 20
32.230629785062753
 30
0.0
 11
-130.2077534133860013
 21
32.2573218832584701
 31
0.0
  0
LINE
  5
33C2
  8
MM_4_0_050
  6
CONTINUOUS
 10
-130.2077534133860013
 20
32.2106237192611786
 30
0.0
 11
-130.2077534133860013
 21
32.230629785062753
 31
0.0
  0
LINE
  5
33C3
  8
MM_4_0_050
  6
CONTINUOUS
 10
-130.2210994624844034
 20
32.1772629324643376
 30
0.0
 11
-130.2077534133860013
 21
32.2106237192611786
 31
0.0
  0
LINE
  5
33C4
  8
MM_4_0_050
  6
CONTINUOUS
 10
-130.2277594791881086
 20
32.1572568666627774
 30
0.0
 11
-130.2210994624844034
 21
32.1772629324643376
 31
0.0
  0
LINE
  5
33C5
  8
MM_4_0_050
  6
CONTINUOUS
 10
-130.2411055282859991
 20
32.130556096570082
 30
0.0
 11
-130.2277594791881086
 21
32.1572568666627774
 31
0.0
  0
LINE
  5
33C6
  8
MM_4_0_050
  6
CONTINUOUS
 10
-130.2477655449897043
 20
32.1105500307685077
 30
0.0
 11
-130.2411055282859991
 21
32.130556096570082
 31
0.0
  0
LINE
  5
33C7
  8
MM_4_0_050
  6
CONTINUOUS
 10
-130.2611115940879927
 20
32.0905439649664928
 30
0.0
 11
-130.2477655449897043
 21
32.1105500307685077
 31
0.0
  0
LINE
  5
33C8
  8
MM_4_0_050
  6
CONTINUOUS
 10
-130.2811263317865098
 20
32.0705032115779218
 30
0.0
 11
-130.2611115940879927
 21
32.0905439649664928
 31
0.0
  0
LINE
  5
33C9
  8
MM_4_0_050
  6
CONTINUOUS
 10
-130.2944723808844003
 20
32.0571918500665731
 30
0.0
 11
-130.2811263317865098
 21
32.0705032115779218
 31
0.0
  0
LINE
  5
33CA
  8
MM_4_0_050
  6
CONTINUOUS
 10
-130.3144784466859107
 20
32.037151096678059
 30
0.0
 11
-130.2944723808844003
 21
32.0571918500665731
 31
0.0
  0
LINE
  5
33CB
  8
MM_4_0_050
  6
CONTINUOUS
 10
-130.3278244957838012
 20
32.0304910799743325
 30
0.0
 11
-130.3144784466859107
 21
32.037151096678059
 31
0.0
  0
LINE
  5
33CC
  8
MM_4_0_050
  6
CONTINUOUS
 10
-130.3545252658765037
 20
32.0104850141723034
 30
0.0
 11
-130.3278244957838012
 21
32.0304910799743325
 31
0.0
  0
LINE
  5
33CD
  8
MM_4_0_050
  6
CONTINUOUS
 10
-130.3745313316784973
 20
31.9971389650744698
 30
0.0
 11
-130.3545252658765037
 21
32.0104850141723034
 31
0.0
  0
LINE
  5
33CE
  8
MM_4_0_050
  6
CONTINUOUS
 10
-130.394537397480093
 20
31.9904442607833417
 30
0.0
 11
-130.3745313316784973
 21
31.9971389650744698
 31
0.0
  0
LINE
  5
33CF
  8
MM_4_0_050
  6
CONTINUOUS
 10
-130.4212381675727954
 20
31.983784244079601
 30
0.0
 11
-130.394537397480093
 21
31.9904442607833417
 31
0.0
  0
LINE
  5
33D0
  8
MM_4_0_050
  6
CONTINUOUS
 10
-130.441244233374789
 20
31.983784244079601
 30
0.0
 11
-130.4212381675727954
 21
31.983784244079601
 31
0.0
  0
LINE
  5
33D1
  8
MM_4_0_050
  6
CONTINUOUS
 10
-130.6947758067516929
 20
31.983784244079601
 30
0.0
 11
-130.441244233374789
 21
31.983784244079601
 31
0.0
  0
LINE
  5
33D2
  8
MM_4_0_050
  6
CONTINUOUS
 10
-130.6947758067516929
 20
32.4708153093417025
 30
0.0
 11
-130.6947758067516929
 21
31.983784244079601
 31
0.0
  0
LINE
  5
33D3
  8
MM_4_0_050
  6
CONTINUOUS
 10
-130.441244233374789
 20
32.4708153093421572
 30
0.0
 11
-130.6947758067516929
 21
32.4708153093417025
 31
0.0
  0
LINE
  5
33D4
  8
MM_4_0_050
  6
CONTINUOUS
 10
-130.4212381675727954
 20
32.4708153093422212
 30
0.0
 11
-130.441244233374789
 21
32.4708153093421572
 31
0.0
  0
LINE
  5
33D5
  8
MM_4_0_050
  6
CONTINUOUS
 10
-130.4012321017711997
 20
32.4708153093422212
 30
0.0
 11
-130.4212381675727954
 21
32.4708153093422212
 31
0.0
  0
LINE
  5
33D6
  8
MM_4_0_050
  6
CONTINUOUS
 10
-130.3745313316784973
 20
32.4574605883473524
 30
0.0
 11
-130.4012321017711997
 21
32.4708153093422212
 31
0.0
  0
LINE
  5
33D7
  8
MM_4_0_050
  6
CONTINUOUS
 10
-129.9276251326774911
 20
32.8645280936797519
 30
0.0
 11
-129.8675982633754131
 21
32.8578680769760822
 31
0.0
  0
LINE
  5
33D8
  8
MM_4_0_050
  6
CONTINUOUS
 10
-129.9876780176695945
 20
32.8645280936797519
 30
0.0
 11
-129.9276251326774911
 21
32.8645280936797519
 31
0.0
  0
LINE
  5
33D9
  8
MM_4_0_050
  6
CONTINUOUS
 10
-131.6955994106465084
 20
32.8645280936797519
 30
0.0
 11
-129.9876780176695945
 21
32.8645280936797519
 31
0.0
  0
LINE
  5
33DA
  8
MM_4_0_050
  6
CONTINUOUS
 10
-131.6955994106465084
 20
32.4442186020104728
 30
0.0
 11
-131.6955994106465084
 21
32.8645280936797519
 31
0.0
  0
LINE
  5
33DB
  8
MM_4_0_050
  6
CONTINUOUS
 10
-131.4754546397560944
 20
32.4442186020104728
 30
0.0
 11
-131.6955994106465084
 21
32.4442186020104728
 31
0.0
  0
LINE
  5
33DC
  8
MM_4_0_050
  6
CONTINUOUS
 10
-131.4754546397560944
 20
31.2366743233939985
 30
0.0
 11
-131.4754546397560944
 21
32.4442186020104728
 31
0.0
  0
LINE
  5
33DD
  8
MM_4_0_050
  6
CONTINUOUS
 10
-131.6955994106465084
 20
31.2366743233939985
 30
0.0
 11
-131.4754546397560944
 21
31.2366743233939985
 31
0.0
  0
LINE
  5
33DE
  8
MM_4_0_050
  6
CONTINUOUS
 10
-131.6955994106465084
 20
30.7763093406371091
 30
0.0
 11
-131.6955994106465084
 21
31.2366743233939985
 31
0.0
  0
LINE
  5
33DF
  8
MM_4_0_050
  6
CONTINUOUS
 10
-130.5014011811279033
 20
30.7763093406371091
 30
0.0
 11
-131.6955994106465084
 21
30.7763093406371091
 31
0.0
  0
LINE
  5
33E0
  8
MM_4_0_050
  6
CONTINUOUS
 10
-130.5014011811279033
 20
31.2366743233939985
 30
0.0
 11
-130.5014011811279033
 21
30.7763093406371091
 31
0.0
  0
LINE
  5
33E1
  8
MM_4_0_050
  6
CONTINUOUS
 10
-130.6881851652219098
 20
31.2366743233939985
 30
0.0
 11
-130.5014011811279033
 21
31.2366743233939985
 31
0.0
  0
LINE
  5
33E2
  8
MM_4_0_050
  6
CONTINUOUS
 10
-130.6881851652219098
 20
31.6703038484711499
 30
0.0
 11
-130.6881851652219098
 21
31.2366743233939985
 31
0.0
  0
LINE
  5
33E3
  8
MM_4_0_050
  6
CONTINUOUS
 10
-130.4079875093393923
 20
31.6703038484711499
 30
0.0
 11
-130.6881851652219098
 21
31.6703038484711499
 31
0.0
  0
LINE
  5
33E4
  8
MM_4_0_050
  6
CONTINUOUS
 10
-130.021030132569507
 20
30.7763093406371091
 30
0.0
 11
-130.4079875093393923
 21
31.6703038484711499
 31
0.0
  0
LINE
  5
33E5
  8
MM_4_0_050
  6
CONTINUOUS
 10
-129.2871621982208126
 20
30.7763093406371091
 30
0.0
 11
-130.021030132569507
 21
30.7763093406371091
 31
0.0
  0
LINE
  5
33E6
  8
MM_4_0_050
  6
CONTINUOUS
 10
-129.2871621982208126
 20
31.2366743233939985
 30
0.0
 11
-129.2871621982208126
 21
30.7763093406371091
 31
0.0
  0
LINE
  5
33E7
  8
MM_4_0_050
  6
CONTINUOUS
 10
-129.4873009033096878
 20
31.2366743233939985
 30
0.0
 11
-129.2871621982208126
 21
31.2366743233939985
 31
0.0
  0
LINE
  5
33E8
  8
MM_4_0_050
  6
CONTINUOUS
 10
-129.7274864275887012
 20
31.7770635693580417
 30
0.0
 11
-129.4873009033096878
 21
31.2366743233939985
 31
0.0
  0
LINE
  5
33E9
  8
MM_4_0_050
  6
CONTINUOUS
 10
-129.7007856574959987
 20
31.810415684257439
 30
0.0
 11
-129.7274864275887012
 21
31.7770635693580417
 31
0.0
  0
LINE
  5
33EA
  8
MM_4_0_050
  6
CONTINUOUS
 10
-129.6474274767944905
 20
31.8371164543501415
 30
0.0
 11
-129.7007856574959987
 21
31.810415684257439
 31
0.0
  0
LINE
  5
33EB
  8
MM_4_0_050
  6
CONTINUOUS
 10
-129.6007206409001924
 20
31.8704685692500505
 30
0.0
 11
-129.6474274767944905
 21
31.8371164543501415
 31
0.0
  0
LINE
  5
33EC
  8
MM_4_0_050
  6
CONTINUOUS
 10
-129.5607085092966031
 20
31.9171754051443202
 30
0.0
 11
-129.6007206409001924
 21
31.8704685692500505
 31
0.0
  0
LINE
  5
33ED
  8
MM_4_0_050
  6
CONTINUOUS
 10
-129.5206616901060102
 20
31.963847553452041
 30
0.0
 11
-129.5607085092966031
 21
31.9171754051443202
 31
0.0
  0
LINE
  5
33EE
  8
MM_4_0_050
  6
CONTINUOUS
 10
-129.4873009033096878
 20
32.0105543893463107
 30
0.0
 11
-129.5206616901060102
 21
31.963847553452041
 31
0.0
  0
LINE
  5
33EF
  8
MM_4_0_050
  6
CONTINUOUS
 10
-129.460634820803989
 20
32.0706072743388688
 30
0.0
 11
-129.4873009033096878
 21
32.0105543893463107
 31
0.0
  0
LINE
  5
33F0
  8
MM_4_0_050
  6
CONTINUOUS
 10
-129.4405940674149065
 20
32.1239741269368722
 30
0.0
 11
-129.460634820803989
 21
32.0706072743388688
 31
0.0
  0
LINE
  5
33F1
  8
MM_4_0_050
  6
CONTINUOUS
 10
-129.4272827059041049
 20
32.1840270119294871
 30
0.0
 11
-129.4405940674149065
 21
32.1239741269368722
 31
0.0
  0
LINE
  5
33F2
  8
MM_4_0_050
  6
CONTINUOUS
 10
-129.420588001613396
 20
32.2440798969215905
 30
0.0
 11
-129.4272827059041049
 21
32.1840270119294871
 31
0.0
  0
LINE
  5
33F3
  8
MM_4_0_050
  6
CONTINUOUS
 10
-129.420588001613396
 20
32.3040980943272018
 30
0.0
 11
-129.420588001613396
 21
32.2440798969215905
 31
0.0
  0
LINE
  5
33F4
  8
MM_4_0_050
  6
CONTINUOUS
 10
-129.420588001613396
 20
32.3641509793193123
 30
0.0
 11
-129.420588001613396
 21
32.3040980943272018
 31
0.0
  0
LINE
  5
33F5
  8
MM_4_0_050
  6
CONTINUOUS
 10
-129.4272827059041049
 20
32.4242125362084366
 30
0.0
 11
-129.420588001613396
 21
32.3641509793193123
 31
0.0
  0
LINE
  5
33F6
  8
MM_4_0_050
  6
CONTINUOUS
 10
-129.4472887717060985
 20
32.4842654212010586
 30
0.0
 11
-129.4272827059041049
 21
32.4242125362084366
 31
0.0
  0
LINE
  5
33F7
  8
MM_4_0_050
  6
CONTINUOUS
 10
-129.4672948375076089
 20
32.5309375695083176
 30
0.0
 11
-129.4472887717060985
 21
32.4842654212010586
 31
0.0
  0
LINE
  5
33F8
  8
MM_4_0_050
  6
CONTINUOUS
 10
-129.5006556243039881
 20
32.5843304377967513
 30
0.0
 11
-129.4672948375076089
 21
32.5309375695083176
 31
0.0
  0
LINE
  5
33F9
  8
MM_4_0_050
  6
CONTINUOUS
 10
-129.5273477225001955
 20
32.6310372736914829
 30
0.0
 11
-129.5006556243039881
 21
32.5843304377967513
 31
0.0
  0
LINE
  5
33FA
  8
MM_4_0_050
  6
CONTINUOUS
 10
-129.5673598541038984
 20
32.6844041262894294
 30
0.0
 11
-129.5273477225001955
 21
32.6310372736914829
 31
0.0
  0
LINE
  5
33FB
  8
MM_4_0_050
  6
CONTINUOUS
 10
-129.6074153451909012
 20
32.7244162578930116
 30
0.0
 11
-129.5673598541038984
 21
32.6844041262894294
 31
0.0
  0
LINE
  5
33FC
  8
MM_4_0_050
  6
CONTINUOUS
 10
-129.6607735258924095
 20
32.7511083560891905
 30
0.0
 11
-129.6074153451909012
 21
32.7244162578930116
 31
0.0
  0
LINE
  5
33FD
  8
MM_4_0_050
  6
CONTINUOUS
 10
-129.7007856574959987
 20
32.7844691428855697
 30
0.0
 11
-129.6607735258924095
 21
32.7511083560891905
 31
0.0
  0
LINE
  5
33FE
  8
MM_4_0_050
  6
CONTINUOUS
 10
-129.7608385424885
 20
32.8111699129782721
 30
0.0
 11
-129.7007856574959987
 21
32.7844691428855697
 31
0.0
  0
LINE
  5
33FF
  8
MM_4_0_050
  6
CONTINUOUS
 10
-129.8075453783827129
 20
32.8311759787799033
 30
0.0
 11
-129.7608385424885
 21
32.8111699129782721
 31
0.0
  0
LINE
  5
3400
  8
MM_4_0_050
  6
CONTINUOUS
 10
-129.8675982633754131
 20
32.8578680769760822
 30
0.0
 11
-129.8075453783827129
 21
32.8311759787799033
 31
0.0
  0
LINE
  5
3401
  8
MM_4_0_050
  6
CONTINUOUS
 10
-132.5879809456845919
 20
31.2438373101095088
 30
0.0
 11
-132.768113584971502
 21
31.2438373101095088
 31
0.0
  0
LINE
  5
3402
  8
MM_4_0_050
  6
CONTINUOUS
 10
-132.5879809456845919
 20
30.7835156868366084
 30
0.0
 11
-132.5879809456845919
 21
31.2438373101095088
 31
0.0
  0
LINE
  5
3403
  8
MM_4_0_050
  6
CONTINUOUS
 10
-133.8222259943937047
 20
30.7835156868366084
 30
0.0
 11
-132.5879809456845919
 21
30.7835156868366084
 31
0.0
  0
LINE
  5
3404
  8
MM_4_0_050
  6
CONTINUOUS
 10
-133.8222259943937047
 20
31.2438373101095088
 30
0.0
 11
-133.8222259943937047
 21
30.7835156868366084
 31
0.0
  0
LINE
  5
3405
  8
MM_4_0_050
  6
CONTINUOUS
 10
-133.6220526017179111
 20
31.2438373101095088
 30
0.0
 11
-133.8222259943937047
 21
31.2438373101095088
 31
0.0
  0
LINE
  5
3406
  8
MM_4_0_050
  6
CONTINUOUS
 10
-133.6220526017179111
 20
32.4447302439187695
 30
0.0
 11
-133.6220526017179111
 21
31.2438373101095088
 31
0.0
  0
LINE
  5
3407
  8
MM_4_0_050
  6
CONTINUOUS
 10
-133.8155312901031095
 20
32.4447302439187695
 30
0.0
 11
-133.6220526017179111
 21
32.4447302439187695
 31
0.0
  0
LINE
  5
3408
  8
MM_4_0_050
  6
CONTINUOUS
 10
-133.8155312901031095
 20
32.8783944565829174
 30
0.0
 11
-133.8155312901031095
 21
32.4447302439187695
 31
0.0
  0
LINE
  5
3409
  8
MM_4_0_050
  6
CONTINUOUS
 10
-131.8607730280400006
 20
32.8783944565829174
 30
0.0
 11
-133.8155312901031095
 21
32.8783944565829174
 31
0.0
  0
LINE
  5
340A
  8
MM_4_0_050
  6
CONTINUOUS
 10
-131.8607730280400006
 20
32.224585473028327
 30
0.0
 11
-131.8607730280400006
 21
32.8783944565829174
 31
0.0
  0
LINE
  5
340B
  8
MM_4_0_050
  6
CONTINUOUS
 10
-132.3144433065058081
 20
32.224585473028327
 30
0.0
 11
-131.8607730280400006
 21
32.224585473028327
 31
0.0
  0
LINE
  5
340C
  8
MM_4_0_050
  6
CONTINUOUS
 10
-132.3144433065058081
 20
32.4447302439187695
 30
0.0
 11
-132.3144433065058081
 21
32.224585473028327
 31
0.0
  0
LINE
  5
340D
  8
MM_4_0_050
  6
CONTINUOUS
 10
-132.768113584971502
 20
32.4447302439187695
 30
0.0
 11
-132.3144433065058081
 21
32.4447302439187695
 31
0.0
  0
LINE
  5
340E
  8
MM_4_0_050
  6
CONTINUOUS
 10
-132.768113584971502
 20
32.0177520636487714
 30
0.0
 11
-132.768113584971502
 21
32.4447302439187695
 31
0.0
  0
LINE
  5
340F
  8
MM_4_0_050
  6
CONTINUOUS
 10
-132.3544554381093121
 20
32.0177520636487714
 30
0.0
 11
-132.768113584971502
 21
32.0177520636487714
 31
0.0
  0
LINE
  5
3410
  8
MM_4_0_050
  6
CONTINUOUS
 10
-132.3544554381093121
 20
31.6574954569715885
 30
0.0
 11
-132.3544554381093121
 21
32.0177520636487714
 31
0.0
  0
LINE
  5
3411
  8
MM_4_0_050
  6
CONTINUOUS
 10
-132.768113584971502
 20
31.6574954569715885
 30
0.0
 11
-132.3544554381093121
 21
31.6574954569715885
 31
0.0
  0
LINE
  5
3412
  8
MM_4_0_050
  6
CONTINUOUS
 10
-132.768113584971502
 20
31.2438373101095088
 30
0.0
 11
-132.768113584971502
 21
31.6574954569715885
 31
0.0
  0
LINE
  5
3413
  8
MM_4_0_050
  6
CONTINUOUS
 10
-129.1377974486022993
 20
34.3266012137996483
 30
0.0
 11
-134.1348218565339891
 21
34.3266012137996483
 31
0.0
  0
LINE
  5
3414
  8
MM_4_0_050
  6
CONTINUOUS
 10
-129.1377974486022993
 20
29.3302348454931305
 30
0.0
 11
-129.1377974486022993
 21
34.3266012137996483
 31
0.0
  0
LINE
  5
3415
  8
MM_4_0_050
  6
CONTINUOUS
 10
-134.1348218565339891
 20
29.3302348454931305
 30
0.0
 11
-129.1377974486022993
 21
29.3302348454931305
 31
0.0
  0
LINE
  5
3416
  8
MM_4_0_050
  6
CONTINUOUS
 10
-134.1348218565339891
 20
34.3266012137996483
 30
0.0
 11
-134.1348218565339891
 21
29.3302348454931305
 31
0.0
  0
LINE
  5
3417
  8
MM_4_0_050
  6
CONTINUOUS
 10
-123.9259875019717043
 20
34.3266012137996483
 30
0.0
 11
-128.9163258775091947
 21
34.3266012137996483
 31
0.0
  0
LINE
  5
3418
  8
MM_4_0_050
  6
CONTINUOUS
 10
-123.9259875019717043
 20
29.3302348454931305
 30
0.0
 11
-123.9259875019717043
 21
34.3266012137996483
 31
0.0
  0
LINE
  5
3419
  8
MM_4_0_050
  6
CONTINUOUS
 10
-128.9163258775091947
 20
29.3302348454931305
 30
0.0
 11
-123.9259875019717043
 21
29.3302348454931305
 31
0.0
  0
LINE
  5
341A
  8
MM_4_0_050
  6
CONTINUOUS
 10
-128.9163258775091947
 20
34.3266012137996483
 30
0.0
 11
-128.9163258775091947
 21
29.3302348454931305
 31
0.0
  0
LINE
  5
341B
  8
MM_4_0_050
  6
CONTINUOUS
 10
-91.1999999999999318
 20
37.224192513095602
 30
0.0
 11
-135.5508474327278918
 21
37.224192513095602
 31
0.0
  0
LINE
  5
341C
  8
MM_4_0_050
  6
CONTINUOUS
 10
-113.050847432727906
 20
47.224192513095538
 30
0.0
 11
-113.050847432727906
 21
40.8480046039904892
 31
0.0
  0
LINE
  5
341D
  8
MM_4_0_050
  6
CONTINUOUS
 10
-128.0508474327278918
 20
47.224192513095538
 30
0.0
 11
-128.0508474327278918
 21
40.8480046039904892
 31
0.0
  0
LINE
  5
341E
  8
MM_4_0_050
  6
CONTINUOUS
 10
-30.8562220759949888
 20
59.9741925130956517
 30
0.0
 11
-30.8562220759950492
 21
47.2213834696098331
 31
0.0
  0
LINE
  5
341F
  8
MM_4_0_050
  6
CONTINUOUS
 10
-91.1999999999999318
 20
10.5654270334941298
 30
0.0
 11
-135.5508474327278918
 21
10.5654270334941298
 31
0.0
  0
LINE
  5
3420
  8
MM_4_0_050
  6
CONTINUOUS
 10
-77.2012930964299926
 20
59.9740229191808396
 30
0.0
 11
-77.2012930964299926
 21
47.2212138756950992
 31
0.0
  0
LINE
  5
3421
  8
MM_4_0_050
  6
CONTINUOUS
 10
-45.5999999999999019
 20
47.2213834696098615
 30
0.0
 11
-45.5999999999999588
 21
32.5268195064697068
 31
0.0
  0
LINE
  5
3422
  8
MM_4_0_050
  6
CONTINUOUS
 10
-91.1999999999999886
 20
32.5268195064696783
 30
0.0
 11
-0.1571204525904477
 21
32.5268195064697281
 31
0.0
  0
LINE
  5
3423
  8
MM_4_0_050
  6
CONTINUOUS
 10
-91.1999999999999318
 20
53.5975713787148607
 30
0.0
 11
0.0000000000001137
 21
53.5975713787149175
 31
0.0
  0
LINE
  5
3424
  8
MM_4_0_050
  6
CONTINUOUS
 10
-135.5508474327278918
 20
40.8480046039904892
 30
0.0
 11
-0.0000000000000568
 21
40.8480046039904892
 31
0.0
  0
LINE
  5
3425
  8
MM_4_0_050
  6
CONTINUOUS
 10
-91.1999999999999318
 20
47.2213834696098118
 30
0.0
 11
0.0000000000001137
 21
47.2213834696098615
 31
0.0
  0
LINE
  5
3426
  8
MM_4_0_050
 10
-159.1508474327278861
 20
47.224192513095602
 30
0.0
 11
-159.1508474327278861
 21
59.9499999999998181
 31
0.0
  0
LINE
  5
3427
  8
MM_4_0_050
  6
CONTINUOUS
 10
-135.5508474327278918
 20
47.224192513095538
 30
0.0
 11
-91.1999999999999318
 21
47.224192513095602
 31
0.0
  0
LINE
  5
3428
  8
MM_4_0_050
 10
-135.5508474327278918
 20
51.474192513095538
 30
0.0
 11
-91.1999999999999886
 21
51.474192513095538
 31
0.0
  0
LINE
  5
3429
  8
MM_4_0_050
 10
-135.5508474327278918
 20
55.724192513095538
 30
0.0
 11
-91.1999999999999886
 21
55.724192513095538
 31
0.0
  0
LINE
  5
342A
  8
MM_4_0_050
 10
-118.1945673663350931
 20
47.224192513095538
 30
0.0
 11
-118.1945673663350931
 21
59.9741925130955522
 31
0.0
  0
CIRCLE
  5
342B
  8
MM_4_0_050
 10
-116.8057572702818021
 20
43.889756141051457
 30
0.0
 40
2.0
  0
LINE
  5
342C
  8
MM_4_0_050
  6
LONG_DASH_DOTTED
 10
-116.8057572702818021
 20
46.4650301222089226
 30
0.0
 11
-116.8057572702818021
 21
41.2602152031820992
 31
0.0
  0
CIRCLE
  5
342D
  8
MM_4_0_050
 10
-116.8057572702818021
 20
43.889756141051457
 30
0.0
 40
1.1999999999999991
  0
LINE
  5
342E
  8
MM_4_0_050
 10
-121.4724042182204045
 20
45.9610980148797807
 30
0.0
 11
-121.4724042182204045
 21
41.9610980148797807
 31
0.0
  0
LINE
  5
342F
  8
MM_4_0_050
  6
LONG_DASH_DOTTED
 10
-119.410881963439607
 20
43.958806579681891
 30
0.0
 11
-114.1858879950951007
 21
43.958806579681891
 31
0.0
  0
LINE
  5
3430
  8
MM_4_0_050
 10
-126.9724042182205039
 20
42.7610980148797282
 30
0.0
 11
-121.4724042182204045
 21
41.9610980148797807
 31
0.0
  0
LINE
  5
3431
  8
MM_4_0_050
 10
-126.9724042182205039
 20
45.1610980148797694
 30
0.0
 11
-126.9724042182205039
 21
42.7610980148797282
 31
0.0
  0
LINE
  5
3432
  8
MM_4_0_050
  6
LONG_DASH_DOTTED
 10
-119.9105642464216999
 20
43.9610980148797168
 30
0.0
 11
-127.6309132057420044
 21
43.9610980148797168
 31
0.0
  0
LINE
  5
3433
  8
MM_4_0_050
 10
-126.9724042182205039
 20
45.1610980148797694
 30
0.0
 11
-121.4724042182204045
 21
45.9610980148797807
 31
0.0
  0
LINE
  5
3434
  8
MM_4_0_050
 10
-12.8062520428865092
 20
10.56542703349416
 30
0.0
 11
-12.8062520428865092
 21
0.0262718475396469
 31
0.0
  0
LINE
  5
3435
  8
MM_4_0_050
 10
-76.1999999999999318
 20
0.02627184753959
 30
0.0
 11
-76.1999999999999318
 21
10.5654270334941298
 31
0.0
  0
LINE
  5
3436
  8
MM_4_0_050
 10
0.0
 20
10.56542703349416
 30
0.0
 11
-91.1999999999999318
 21
10.5654270334941298
 31
0.0
  0
LINE
  5
3437
  8
MM_4_0_050
  6
CONTINUOUS
 10
-190.0
 20
47.2241925130956588
 30
0.0
 11
-135.5508474327278918
 21
47.224192513095538
 31
0.0
  0
LINE
  5
3438
  8
MM_4_0_050
 10
-190.0
 20
51.474192513095538
 30
0.0
 11
-135.5508474327278918
 21
51.474192513095538
 31
0.0
  0
LINE
  5
3439
  8
MM_4_0_050
 10
-190.0
 20
55.7241925130954883
 30
0.0
 11
-135.5508474327278918
 21
55.724192513095538
 31
0.0
  0
LINE
  5
343A
  8
MM_4_0_050
 10
-175.1508474327278861
 20
47.224192513095602
 30
0.0
 11
-175.1508474327283125
 21
59.9741925130954883
 31
0.0
  0
LINE
  5
343B
  8
MM_4_0_050
  6
CONTINUOUS
 10
-91.1999999999999318
 20
-0.0000000000001137
 30
0.0
 11
-91.1999999999999886
 21
59.974192513095602
 31
0.0
  0
LINE
  5
343C
  8
MM_4_0_050
  6
CONTINUOUS
 10
-135.5508474327278918
 20
0.0
 30
0.0
 11
-135.5508474327278918
 21
59.9741925130955522
 31
0.0
  0
LINE
  5
343D
  8
MM_4_0_050
  6
CONTINUOUS
 10
-190.0
 20
59.9741925130954883
 30
0.0
 11
-189.9999999999998863
 21
0.0
 31
0.0
  0
LINE
  5
343E
  8
MM_4_0_050
  6
CONTINUOUS
 10
0.0
 20
59.9741925130956517
 30
0.0
 11
-190.0
 21
59.9741925130954883
 31
0.0
  0
LINE
  5
343F
  8
MM_4_0_050
  6
CONTINUOUS
 10
0.0
 20
0.0
 30
0.0
 11
0.0000000000000003
 21
59.9741925130956517
 31
0.0
  0
LINE
  5
3440
  8
MM_4_0_050
  6
CONTINUOUS
 10
-189.9999999999998863
 20
-0.0000000000002416
 30
0.0
 11
0.0
 21
0.0
 31
0.0
  0
INSERT
  5
3441
  8
0
  2
*U224
 10
0.0
 20
0.0
 30
0.0
  0
ATTDEF
  5
3442
  8
MM_4_0_050
 10
-52.0065492067374109
 20
54.1282158665385396
 30
0.0
 40
2.5
  1

  7
TEXT_STYLE16
 11
-52.0065492067374109
 21
55.3782158665385396
 31
0.0
  3

  2
WIDTH
 70
     0
 74
     2
  0
ENDBLK
  5
1D3
  8
0
  0
BLOCK
  8
0
  2
FORMAT_A3
 70
     0
 10
0.0
 20
0.0
 30
0.0
  3
FORMAT_A3
  1

  0
POLYLINE
  5
331
  8
MM_4_0_050
  6
CONTINUOUS
 62
     7
 66
     1
 10
0.0
 20
0.0
 30
0.0
  0
VERTEX
  5
332
  8
MM_4_0_050
  6
CONTINUOUS
 62
     7
 10
-400.0
 20
0.0
 30
0.0
  0
VERTEX
  5
333
  8
MM_4_0_050
  6
CONTINUOUS
 62
     7
 10
-400.0
 20
277.0000076293944744
 30
0.0
  0
VERTEX
  5
334
  8
MM_4_0_050
  6
CONTINUOUS
 62
     7
 10
0.0
 20
277.0000076293944744
 30
0.0
  0
VERTEX
  5
335
  8
MM_4_0_050
  6
CONTINUOUS
 62
     7
 10
0.0
 20
0.0
 30
0.0
  0
VERTEX
  5
336
  8
MM_4_0_050
  6
CONTINUOUS
 62
     7
 10
-400.0
 20
0.0
 30
0.0
  0
SEQEND
  5
337
  8
MM_4_0_050
  6
CONTINUOUS
 62
     7
  0
POLYLINE
  5
338
  8
MM_4_0_050
  6
CONTINUOUS
 62
     7
 66
     1
 10
0.0
 20
0.0
 30
0.0
  0
VERTEX
  5
339
  8
MM_4_0_050
  6
CONTINUOUS
 62
     7
 10
-340.0
 20
0.0
 30
0.0
  0
VERTEX
  5
33A
  8
MM_4_0_050
  6
CONTINUOUS
 62
     7
 10
-340.0
 20
-3.8999998569488521
 30
0.0
  0
SEQEND
  5
33B
  8
MM_4_0_050
  6
CONTINUOUS
 62
     7
  0
POLYLINE
  5
33C
  8
MM_4_0_050
  6
CONTINUOUS
 62
     7
 66
     1
 10
0.0
 20
0.0
 30
0.0
  0
VERTEX
  5
33D
  8
MM_4_0_050
  6
CONTINUOUS
 62
     7
 10
-340.0
 20
277.0000076293944744
 30
0.0
  0
VERTEX
  5
33E
  8
MM_4_0_050
  6
CONTINUOUS
 62
     7
 10
-340.0
 20
280.9000015258789063
 30
0.0
  0
SEQEND
  5
33F
  8
MM_4_0_050
  6
CONTINUOUS
 62
     7
  0
POLYLINE
  5
340
  8
MM_4_0_050
  6
CONTINUOUS
 62
     7
 66
     1
 10
0.0
 20
0.0
 30
0.0
  0
VERTEX
  5
341
  8
MM_4_0_050
  6
CONTINUOUS
 62
     7
 10
-270.0
 20
0.0
 30
0.0
  0
VERTEX
  5
342
  8
MM_4_0_050
  6
CONTINUOUS
 62
     7
 10
-270.0
 20
-3.8999998569488521
 30
0.0
  0
SEQEND
  5
343
  8
MM_4_0_050
  6
CONTINUOUS
 62
     7
  0
POLYLINE
  5
344
  8
MM_4_0_050
  6
CONTINUOUS
 62
     7
 66
     1
 10
0.0
 20
0.0
 30
0.0
  0
VERTEX
  5
345
  8
MM_4_0_050
  6
CONTINUOUS
 62
     7
 10
-270.0
 20
277.0000076293944744
 30
0.0
  0
VERTEX
  5
346
  8
MM_4_0_050
  6
CONTINUOUS
 62
     7
 10
-270.0
 20
280.9000015258789063
 30
0.0
  0
SEQEND
  5
347
  8
MM_4_0_050
  6
CONTINUOUS
 62
     7
  0
POLYLINE
  5
348
  8
MM_4_0_050
  6
CONTINUOUS
 62
     7
 66
     1
 10
0.0
 20
0.0
 30
0.0
  0
VERTEX
  5
349
  8
MM_4_0_050
  6
CONTINUOUS
 62
     7
 10
-200.0
 20
0.0
 30
0.0
  0
VERTEX
  5
34A
  8
MM_4_0_050
  6
CONTINUOUS
 62
     7
 10
-200.0
 20
-3.8999998569488521
 30
0.0
  0
SEQEND
  5
34B
  8
MM_4_0_050
  6
CONTINUOUS
 62
     7
  0
POLYLINE
  5
34C
  8
MM_4_0_050
  6
CONTINUOUS
 62
     7
 66
     1
 10
0.0
 20
0.0
 30
0.0
  0
VERTEX
  5
34D
  8
MM_4_0_050
  6
CONTINUOUS
 62
     7
 10
-200.0
 20
277.0000076293944744
 30
0.0
  0
VERTEX
  5
34E
  8
MM_4_0_050
  6
CONTINUOUS
 62
     7
 10
-200.0
 20
280.9000015258789063
 30
0.0
  0
SEQEND
  5
34F
  8
MM_4_0_050
  6
CONTINUOUS
 62
     7
  0
POLYLINE
  5
350
  8
MM_4_0_050
  6
CONTINUOUS
 62
     7
 66
     1
 10
0.0
 20
0.0
 30
0.0
  0
VERTEX
  5
351
  8
MM_4_0_050
  6
CONTINUOUS
 62
     7
 10
-130.0
 20
0.0
 30
0.0
  0
VERTEX
  5
352
  8
MM_4_0_050
  6
CONTINUOUS
 62
     7
 10
-130.0
 20
-3.8999998569488521
 30
0.0
  0
SEQEND
  5
353
  8
MM_4_0_050
  6
CONTINUOUS
 62
     7
  0
POLYLINE
  5
354
  8
MM_4_0_050
  6
CONTINUOUS
 62
     7
 66
     1
 10
0.0
 20
0.0
 30
0.0
  0
VERTEX
  5
355
  8
MM_4_0_050
  6
CONTINUOUS
 62
     7
 10
-130.0
 20
277.0000076293944744
 30
0.0
  0
VERTEX
  5
356
  8
MM_4_0_050
  6
CONTINUOUS
 62
     7
 10
-130.0
 20
280.9000015258789063
 30
0.0
  0
SEQEND
  5
357
  8
MM_4_0_050
  6
CONTINUOUS
 62
     7
  0
POLYLINE
  5
358
  8
MM_4_0_050
  6
CONTINUOUS
 62
     7
 66
     1
 10
0.0
 20
0.0
 30
0.0
  0
VERTEX
  5
359
  8
MM_4_0_050
  6
CONTINUOUS
 62
     7
 10
-60.0
 20
0.0
 30
0.0
  0
VERTEX
  5
35A
  8
MM_4_0_050
  6
CONTINUOUS
 62
     7
 10
-60.0
 20
-3.8999998569488521
 30
0.0
  0
SEQEND
  5
35B
  8
MM_4_0_050
  6
CONTINUOUS
 62
     7
  0
POLYLINE
  5
35C
  8
MM_4_0_050
  6
CONTINUOUS
 62
     7
 66
     1
 10
0.0
 20
0.0
 30
0.0
  0
VERTEX
  5
35D
  8
MM_4_0_050
  6
CONTINUOUS
 62
     7
 10
-60.0
 20
277.0000076293944744
 30
0.0
  0
VERTEX
  5
35E
  8
MM_4_0_050
  6
CONTINUOUS
 62
     7
 10
-60.0
 20
280.9000015258789063
 30
0.0
  0
SEQEND
  5
35F
  8
MM_4_0_050
  6
CONTINUOUS
 62
     7
  0
INSERT
  5
360
  8
0
  2
*U49
 10
0.0
 20
0.0
 30
0.0
  0
INSERT
  5
361
  8
0
  2
*U50
 10
0.0
 20
0.0
 30
0.0
  0
INSERT
  5
362
  8
0
  2
*U51
 10
0.0
 20
0.0
 30
0.0
  0
INSERT
  5
363
  8
0
  2
*U52
 10
0.0
 20
0.0
 30
0.0
  0
INSERT
  5
364
  8
0
  2
*U53
 10
0.0
 20
0.0
 30
0.0
  0
INSERT
  5
365
  8
0
  2
*U54
 10
0.0
 20
0.0
 30
0.0
  0
INSERT
  5
366
  8
0
  2
*U55
 10
0.0
 20
0.0
 30
0.0
  0
INSERT
  5
367
  8
0
  2
*U56
 10
0.0
 20
0.0
 30
0.0
  0
INSERT
  5
368
  8
0
  2
*U57
 10
0.0
 20
0.0
 30
0.0
  0
INSERT
  5
369
  8
0
  2
*U58
 10
0.0
 20
0.0
 30
0.0
  0
INSERT
  5
36A
  8
0
  2
*U59
 10
0.0
 20
0.0
 30
0.0
  0
INSERT
  5
36B
  8
0
  2
*U60
 10
0.0
 20
0.0
 30
0.0
  0
POLYLINE
  5
36C
  8
MM_4_0_050
  6
CONTINUOUS
 62
     7
 66
     1
 10
0.0
 20
0.0
 30
0.0
  0
VERTEX
  5
36D
  8
MM_4_0_050
  6
CONTINUOUS
 62
     7
 10
-400.0
 20
64.2500019073486328
 30
0.0
  0
VERTEX
  5
36E
  8
MM_4_0_050
  6
CONTINUOUS
 62
     7
 10
-403.8999998569487957
 20
64.2500019073486328
 30
0.0
  0
SEQEND
  5
36F
  8
MM_4_0_050
  6
CONTINUOUS
 62
     7
  0
POLYLINE
  5
370
  8
MM_4_0_050
  6
CONTINUOUS
 62
     7
 66
     1
 10
0.0
 20
0.0
 30
0.0
  0
VERTEX
  5
371
  8
MM_4_0_050
  6
CONTINUOUS
 62
     7
 10
0.0
 20
64.2500019073486328
 30
0.0
  0
VERTEX
  5
372
  8
MM_4_0_050
  6
CONTINUOUS
 62
     7
 10
3.899993896484375
 20
64.2500019073486328
 30
0.0
  0
SEQEND
  5
373
  8
MM_4_0_050
  6
CONTINUOUS
 62
     7
  0
POLYLINE
  5
374
  8
MM_4_0_050
  6
CONTINUOUS
 62
     7
 66
     1
 10
0.0
 20
0.0
 30
0.0
  0
VERTEX
  5
375
  8
MM_4_0_050
  6
CONTINUOUS
 62
     7
 10
-400.0
 20
138.5000038146972088
 30
0.0
  0
VERTEX
  5
376
  8
MM_4_0_050
  6
CONTINUOUS
 62
     7
 10
-403.8999998569487957
 20
138.5000038146972088
 30
0.0
  0
SEQEND
  5
377
  8
MM_4_0_050
  6
CONTINUOUS
 62
     7
  0
POLYLINE
  5
378
  8
MM_4_0_050
  6
CONTINUOUS
 62
     7
 66
     1
 10
0.0
 20
0.0
 30
0.0
  0
VERTEX
  5
379
  8
MM_4_0_050
  6
CONTINUOUS
 62
     7
 10
0.0
 20
138.5000038146972088
 30
0.0
  0
VERTEX
  5
37A
  8
MM_4_0_050
  6
CONTINUOUS
 62
     7
 10
3.899993896484375
 20
138.5000038146972088
 30
0.0
  0
SEQEND
  5
37B
  8
MM_4_0_050
  6
CONTINUOUS
 62
     7
  0
POLYLINE
  5
37C
  8
MM_4_0_050
  6
CONTINUOUS
 62
     7
 66
     1
 10
0.0
 20
0.0
 30
0.0
  0
VERTEX
  5
37D
  8
MM_4_0_050
  6
CONTINUOUS
 62
     7
 10
-400.0
 20
212.749996185302706
 30
0.0
  0
VERTEX
  5
37E
  8
MM_4_0_050
  6
CONTINUOUS
 62
     7
 10
-403.8999998569487957
 20
212.749996185302706
 30
0.0
  0
SEQEND
  5
37F
  8
MM_4_0_050
  6
CONTINUOUS
 62
     7
  0
POLYLINE
  5
380
  8
MM_4_0_050
  6
CONTINUOUS
 62
     7
 66
     1
 10
0.0
 20
0.0
 30
0.0
  0
VERTEX
  5
381
  8
MM_4_0_050
  6
CONTINUOUS
 62
     7
 10
0.0
 20
212.749996185302706
 30
0.0
  0
VERTEX
  5
382
  8
MM_4_0_050
  6
CONTINUOUS
 62
     7
 10
3.899993896484375
 20
212.749996185302706
 30
0.0
  0
SEQEND
  5
383
  8
MM_4_0_050
  6
CONTINUOUS
 62
     7
  0
INSERT
  5
384
  8
0
  2
*U61
 10
0.0
 20
0.0
 30
0.0
  0
INSERT
  5
385
  8
0
  2
*U62
 10
0.0
 20
0.0
 30
0.0
  0
INSERT
  5
386
  8
0
  2
*U63
 10
0.0
 20
0.0
 30
0.0
  0
INSERT
  5
387
  8
0
  2
*U64
 10
0.0
 20
0.0
 30
0.0
  0
INSERT
  5
388
  8
0
  2
*U65
 10
0.0
 20
0.0
 30
0.0
  0
INSERT
  5
389
  8
0
  2
*U66
 10
0.0
 20
0.0
 30
0.0
  0
INSERT
  5
38A
  8
0
  2
*U67
 10
0.0
 20
0.0
 30
0.0
  0
INSERT
  5
38B
  8
0
  2
*U68
 10
0.0
 20
0.0
 30
0.0
  0
INSERT
  5
38C
  8
0
  2
*U69
 10
0.0
 20
0.0
 30
0.0
  0
ENDBLK
  5
38D
  8
0
  0
BLOCK
  8
0
  2
FORMAT_A2
 70
     0
 10
0.0
 20
0.0
 30
0.0
  3
FORMAT_A2
  1

  0
INSERT
  5
3A3
  8
0
  2
*U70
 10
0.0
 20
0.0
 30
0.0
  0
INSERT
  5
3A4
  8
0
  2
*U71
 10
0.0
 20
0.0
 30
0.0
  0
INSERT
  5
3A5
  8
0
  2
*U72
 10
0.0
 20
0.0
 30
0.0
  0
INSERT
  5
3A6
  8
0
  2
*U73
 10
0.0
 20
0.0
 30
0.0
  0
INSERT
  5
3A7
  8
0
  2
*U74
 10
0.0
 20
0.0
 30
0.0
  0
INSERT
  5
3A8
  8
0
  2
*U75
 10
0.0
 20
0.0
 30
0.0
  0
INSERT
  5
3A9
  8
0
  2
*U76
 10
0.0
 20
0.0
 30
0.0
  0
INSERT
  5
3AA
  8
0
  2
*U77
 10
0.0
 20
0.0
 30
0.0
  0
INSERT
  5
3AB
  8
0
  2
*U78
 10
0.0
 20
0.0
 30
0.0
  0
INSERT
  5
3AC
  8
0
  2
*U79
 10
0.0
 20
0.0
 30
0.0
  0
INSERT
  5
3AD
  8
0
  2
*U80
 10
0.0
 20
0.0
 30
0.0
  0
INSERT
  5
3AE
  8
0
  2
*U81
 10
0.0
 20
0.0
 30
0.0
  0
POLYLINE
  5
3AF
  8
MM_4_0_050
  6
CONTINUOUS
 62
     7
 66
     1
 10
0.0
 20
0.0
 30
0.0
  0
VERTEX
  5
3B0
  8
MM_4_0_050
  6
CONTINUOUS
 62
     7
 10
0.0
 20
340.0
 30
0.0
  0
VERTEX
  5
3B1
  8
MM_4_0_050
  6
CONTINUOUS
 62
     7
 10
3.899993896484375
 20
340.0
 30
0.0
  0
SEQEND
  5
3B2
  8
MM_4_0_050
  6
CONTINUOUS
 62
     7
  0
POLYLINE
  5
3B3
  8
MM_4_0_050
  6
CONTINUOUS
 62
     7
 66
     1
 10
0.0
 20
0.0
 30
0.0
  0
VERTEX
  5
3B4
  8
MM_4_0_050
  6
CONTINUOUS
 62
     7
 10
-574.0000152587889488
 20
340.0
 30
0.0
  0
VERTEX
  5
3B5
  8
MM_4_0_050
  6
CONTINUOUS
 62
     7
 10
-577.9000151157378014
 20
340.0
 30
0.0
  0
SEQEND
  5
3B6
  8
MM_4_0_050
  6
CONTINUOUS
 62
     7
  0
POLYLINE
  5
3B7
  8
MM_4_0_050
  6
CONTINUOUS
 62
     7
 66
     1
 10
0.0
 20
0.0
 30
0.0
  0
VERTEX
  5
3B8
  8
MM_4_0_050
  6
CONTINUOUS
 62
     7
 10
0.0
 20
270.0
 30
0.0
  0
VERTEX
  5
3B9
  8
MM_4_0_050
  6
CONTINUOUS
 62
     7
 10
3.899993896484375
 20
270.0
 30
0.0
  0
SEQEND
  5
3BA
  8
MM_4_0_050
  6
CONTINUOUS
 62
     7
  0
POLYLINE
  5
3BB
  8
MM_4_0_050
  6
CONTINUOUS
 62
     7
 66
     1
 10
0.0
 20
0.0
 30
0.0
  0
VERTEX
  5
3BC
  8
MM_4_0_050
  6
CONTINUOUS
 62
     7
 10
-574.0000152587889488
 20
270.0
 30
0.0
  0
VERTEX
  5
3BD
  8
MM_4_0_050
  6
CONTINUOUS
 62
     7
 10
-577.9000151157378014
 20
270.0
 30
0.0
  0
SEQEND
  5
3BE
  8
MM_4_0_050
  6
CONTINUOUS
 62
     7
  0
POLYLINE
  5
3BF
  8
MM_4_0_050
  6
CONTINUOUS
 62
     7
 66
     1
 10
0.0
 20
0.0
 30
0.0
  0
VERTEX
  5
3C0
  8
MM_4_0_050
  6
CONTINUOUS
 62
     7
 10
0.0
 20
200.0
 30
0.0
  0
VERTEX
  5
3C1
  8
MM_4_0_050
  6
CONTINUOUS
 62
     7
 10
3.899993896484375
 20
200.0
 30
0.0
  0
SEQEND
  5
3C2
  8
MM_4_0_050
  6
CONTINUOUS
 62
     7
  0
POLYLINE
  5
3C3
  8
MM_4_0_050
  6
CONTINUOUS
 62
     7
 66
     1
 10
0.0
 20
0.0
 30
0.0
  0
VERTEX
  5
3C4
  8
MM_4_0_050
  6
CONTINUOUS
 62
     7
 10
-574.0000152587889488
 20
200.0
 30
0.0
  0
VERTEX
  5
3C5
  8
MM_4_0_050
  6
CONTINUOUS
 62
     7
 10
-577.9000151157378014
 20
200.0
 30
0.0
  0
SEQEND
  5
3C6
  8
MM_4_0_050
  6
CONTINUOUS
 62
     7
  0
POLYLINE
  5
3C7
  8
MM_4_0_050
  6
CONTINUOUS
 62
     7
 66
     1
 10
0.0
 20
0.0
 30
0.0
  0
VERTEX
  5
3C8
  8
MM_4_0_050
  6
CONTINUOUS
 62
     7
 10
0.0
 20
130.0
 30
0.0
  0
VERTEX
  5
3C9
  8
MM_4_0_050
  6
CONTINUOUS
 62
     7
 10
3.899993896484375
 20
130.0
 30
0.0
  0
SEQEND
  5
3CA
  8
MM_4_0_050
  6
CONTINUOUS
 62
     7
  0
POLYLINE
  5
3CB
  8
MM_4_0_050
  6
CONTINUOUS
 62
     7
 66
     1
 10
0.0
 20
0.0
 30
0.0
  0
VERTEX
  5
3CC
  8
MM_4_0_050
  6
CONTINUOUS
 62
     7
 10
-574.0000152587889488
 20
130.0
 30
0.0
  0
VERTEX
  5
3CD
  8
MM_4_0_050
  6
CONTINUOUS
 62
     7
 10
-577.9000151157378014
 20
130.0
 30
0.0
  0
SEQEND
  5
3CE
  8
MM_4_0_050
  6
CONTINUOUS
 62
     7
  0
POLYLINE
  5
3CF
  8
MM_4_0_050
  6
CONTINUOUS
 62
     7
 66
     1
 10
0.0
 20
0.0
 30
0.0
  0
VERTEX
  5
3D0
  8
MM_4_0_050
  6
CONTINUOUS
 62
     7
 10
0.0
 20
60.0
 30
0.0
  0
VERTEX
  5
3D1
  8
MM_4_0_050
  6
CONTINUOUS
 62
     7
 10
3.899993896484375
 20
60.0
 30
0.0
  0
SEQEND
  5
3D2
  8
MM_4_0_050
  6
CONTINUOUS
 62
     7
  0
POLYLINE
  5
3D3
  8
MM_4_0_050
  6
CONTINUOUS
 62
     7
 66
     1
 10
0.0
 20
0.0
 30
0.0
  0
VERTEX
  5
3D4
  8
MM_4_0_050
  6
CONTINUOUS
 62
     7
 10
-574.0000152587889488
 20
60.0
 30
0.0
  0
VERTEX
  5
3D5
  8
MM_4_0_050
  6
CONTINUOUS
 62
     7
 10
-577.9000151157378014
 20
60.0
 30
0.0
  0
SEQEND
  5
3D6
  8
MM_4_0_050
  6
CONTINUOUS
 62
     7
  0
INSERT
  5
3D7
  8
0
  2
*U82
 10
0.0
 20
0.0
 30
0.0
  0
INSERT
  5
3D8
  8
0
  2
*U83
 10
0.0
 20
0.0
 30
0.0
  0
INSERT
  5
3D9
  8
0
  2
*U84
 10
0.0
 20
0.0
 30
0.0
  0
INSERT
  5
3DA
  8
0
  2
*U85
 10
0.0
 20
0.0
 30
0.0
  0
INSERT
  5
3DB
  8
0
  2
*U86
 10
0.0
 20
0.0
 30
0.0
  0
INSERT
  5
3DC
  8
0
  2
*U87
 10
0.0
 20
0.0
 30
0.0
  0
INSERT
  5
3DD
  8
0
  2
*U88
 10
0.0
 20
0.0
 30
0.0
  0
INSERT
  5
3DE
  8
0
  2
*U89
 10
0.0
 20
0.0
 30
0.0
  0
INSERT
  5
3DF
  8
0
  2
*U90
 10
0.0
 20
0.0
 30
0.0
  0
INSERT
  5
3E0
  8
0
  2
*U91
 10
0.0
 20
0.0
 30
0.0
  0
INSERT
  5
3E1
  8
0
  2
*U92
 10
0.0
 20
0.0
 30
0.0
  0
INSERT
  5
3E2
  8
0
  2
*U93
 10
0.0
 20
0.0
 30
0.0
  0
INSERT
  5
3E3
  8
0
  2
*U94
 10
0.0
 20
0.0
 30
0.0
  0
INSERT
  5
3E4
  8
0
  2
*U95
 10
0.0
 20
0.0
 30
0.0
  0
INSERT
  5
3E5
  8
0
  2
*U96
 10
0.0
 20
0.0
 30
0.0
  0
INSERT
  5
3E6
  8
0
  2
*U97
 10
0.0
 20
0.0
 30
0.0
  0
POLYLINE
  5
3E7
  8
MM_4_0_050
  6
CONTINUOUS
 62
     7
 66
     1
 10
0.0
 20
0.0
 30
0.0
  0
VERTEX
  5
3E8
  8
MM_4_0_050
  6
CONTINUOUS
 62
     7
 10
-64.250030517578125
 20
400.0
 30
0.0
  0
VERTEX
  5
3E9
  8
MM_4_0_050
  6
CONTINUOUS
 62
     7
 10
-64.250030517578125
 20
403.899993896484375
 30
0.0
  0
SEQEND
  5
3EA
  8
MM_4_0_050
  6
CONTINUOUS
 62
     7
  0
POLYLINE
  5
3EB
  8
MM_4_0_050
  6
CONTINUOUS
 62
     7
 66
     1
 10
0.0
 20
0.0
 30
0.0
  0
VERTEX
  5
3EC
  8
MM_4_0_050
  6
CONTINUOUS
 62
     7
 10
-64.250030517578125
 20
0.0
 30
0.0
  0
VERTEX
  5
3ED
  8
MM_4_0_050
  6
CONTINUOUS
 62
     7
 10
-64.250030517578125
 20
-3.8999998569488521
 30
0.0
  0
SEQEND
  5
3EE
  8
MM_4_0_050
  6
CONTINUOUS
 62
     7
  0
POLYLINE
  5
3EF
  8
MM_4_0_050
  6
CONTINUOUS
 62
     7
 66
     1
 10
0.0
 20
0.0
 30
0.0
  0
VERTEX
  5
3F0
  8
MM_4_0_050
  6
CONTINUOUS
 62
     7
 10
-138.5000228881835938
 20
400.0
 30
0.0
  0
VERTEX
  5
3F1
  8
MM_4_0_050
  6
CONTINUOUS
 62
     7
 10
-138.5000228881835938
 20
403.899993896484375
 30
0.0
  0
SEQEND
  5
3F2
  8
MM_4_0_050
  6
CONTINUOUS
 62
     7
  0
POLYLINE
  5
3F3
  8
MM_4_0_050
  6
CONTINUOUS
 62
     7
 66
     1
 10
0.0
 20
0.0
 30
0.0
  0
VERTEX
  5
3F4
  8
MM_4_0_050
  6
CONTINUOUS
 62
     7
 10
-138.5000228881835938
 20
0.0
 30
0.0
  0
VERTEX
  5
3F5
  8
MM_4_0_050
  6
CONTINUOUS
 62
     7
 10
-138.5000228881835938
 20
-3.8999998569488521
 30
0.0
  0
SEQEND
  5
3F6
  8
MM_4_0_050
  6
CONTINUOUS
 62
     7
  0
POLYLINE
  5
3F7
  8
MM_4_0_050
  6
CONTINUOUS
 62
     7
 66
     1
 10
0.0
 20
0.0
 30
0.0
  0
VERTEX
  5
3F8
  8
MM_4_0_050
  6
CONTINUOUS
 62
     7
 10
-212.7500152587890909
 20
400.0
 30
0.0
  0
VERTEX
  5
3F9
  8
MM_4_0_050
  6
CONTINUOUS
 62
     7
 10
-212.7500152587890909
 20
403.899993896484375
 30
0.0
  0
SEQEND
  5
3FA
  8
MM_4_0_050
  6
CONTINUOUS
 62
     7
  0
POLYLINE
  5
3FB
  8
MM_4_0_050
  6
CONTINUOUS
 62
     7
 66
     1
 10
0.0
 20
0.0
 30
0.0
  0
VERTEX
  5
3FC
  8
MM_4_0_050
  6
CONTINUOUS
 62
     7
 10
-212.7500152587890909
 20
0.0
 30
0.0
  0
VERTEX
  5
3FD
  8
MM_4_0_050
  6
CONTINUOUS
 62
     7
 10
-212.7500152587890909
 20
-3.8999998569488521
 30
0.0
  0
SEQEND
  5
3FE
  8
MM_4_0_050
  6
CONTINUOUS
 62
     7
  0
POLYLINE
  5
3FF
  8
MM_4_0_050
  6
CONTINUOUS
 62
     7
 66
     1
 10
0.0
 20
0.0
 30
0.0
  0
VERTEX
  5
400
  8
MM_4_0_050
  6
CONTINUOUS
 62
     7
 10
-287.0000076293945881
 20
400.0
 30
0.0
  0
VERTEX
  5
401
  8
MM_4_0_050
  6
CONTINUOUS
 62
     7
 10
-287.0000076293945881
 20
403.899993896484375
 30
0.0
  0
SEQEND
  5
402
  8
MM_4_0_050
  6
CONTINUOUS
 62
     7
  0
POLYLINE
  5
403
  8
MM_4_0_050
  6
CONTINUOUS
 62
     7
 66
     1
 10
0.0
 20
0.0
 30
0.0
  0
VERTEX
  5
404
  8
MM_4_0_050
  6
CONTINUOUS
 62
     7
 10
-287.0000076293945881
 20
0.0
 30
0.0
  0
VERTEX
  5
405
  8
MM_4_0_050
  6
CONTINUOUS
 62
     7
 10
-287.0000076293945881
 20
-3.8999998569488521
 30
0.0
  0
SEQEND
  5
406
  8
MM_4_0_050
  6
CONTINUOUS
 62
     7
  0
POLYLINE
  5
407
  8
MM_4_0_050
  6
CONTINUOUS
 62
     7
 66
     1
 10
0.0
 20
0.0
 30
0.0
  0
VERTEX
  5
408
  8
MM_4_0_050
  6
CONTINUOUS
 62
     7
 10
-361.2500190734863281
 20
400.0
 30
0.0
  0
VERTEX
  5
409
  8
MM_4_0_050
  6
CONTINUOUS
 62
     7
 10
-361.2500190734863281
 20
403.899993896484375
 30
0.0
  0
SEQEND
  5
40A
  8
MM_4_0_050
  6
CONTINUOUS
 62
     7
  0
POLYLINE
  5
40B
  8
MM_4_0_050
  6
CONTINUOUS
 62
     7
 66
     1
 10
0.0
 20
0.0
 30
0.0
  0
VERTEX
  5
40C
  8
MM_4_0_050
  6
CONTINUOUS
 62
     7
 10
-361.2500190734863281
 20
0.0
 30
0.0
  0
VERTEX
  5
40D
  8
MM_4_0_050
  6
CONTINUOUS
 62
     7
 10
-361.2500190734863281
 20
-3.8999998569488521
 30
0.0
  0
SEQEND
  5
40E
  8
MM_4_0_050
  6
CONTINUOUS
 62
     7
  0
POLYLINE
  5
40F
  8
MM_4_0_050
  6
CONTINUOUS
 62
     7
 66
     1
 10
0.0
 20
0.0
 30
0.0
  0
VERTEX
  5
410
  8
MM_4_0_050
  6
CONTINUOUS
 62
     7
 10
-435.5000114440917969
 20
400.0
 30
0.0
  0
VERTEX
  5
411
  8
MM_4_0_050
  6
CONTINUOUS
 62
     7
 10
-435.5000114440917969
 20
403.899993896484375
 30
0.0
  0
SEQEND
  5
412
  8
MM_4_0_050
  6
CONTINUOUS
 62
     7
  0
POLYLINE
  5
413
  8
MM_4_0_050
  6
CONTINUOUS
 62
     7
 66
     1
 10
0.0
 20
0.0
 30
0.0
  0
VERTEX
  5
414
  8
MM_4_0_050
  6
CONTINUOUS
 62
     7
 10
-435.5000114440917969
 20
0.0
 30
0.0
  0
VERTEX
  5
415
  8
MM_4_0_050
  6
CONTINUOUS
 62
     7
 10
-435.5000114440917969
 20
-3.8999998569488521
 30
0.0
  0
SEQEND
  5
416
  8
MM_4_0_050
  6
CONTINUOUS
 62
     7
  0
POLYLINE
  5
417
  8
MM_4_0_050
  6
CONTINUOUS
 62
     7
 66
     1
 10
0.0
 20
0.0
 30
0.0
  0
VERTEX
  5
418
  8
MM_4_0_050
  6
CONTINUOUS
 62
     7
 10
-509.7500133514403728
 20
400.0
 30
0.0
  0
VERTEX
  5
419
  8
MM_4_0_050
  6
CONTINUOUS
 62
     7
 10
-509.7500133514403728
 20
403.899993896484375
 30
0.0
  0
SEQEND
  5
41A
  8
MM_4_0_050
  6
CONTINUOUS
 62
     7
  0
POLYLINE
  5
41B
  8
MM_4_0_050
  6
CONTINUOUS
 62
     7
 66
     1
 10
0.0
 20
0.0
 30
0.0
  0
VERTEX
  5
41C
  8
MM_4_0_050
  6
CONTINUOUS
 62
     7
 10
-509.7500133514403728
 20
0.0
 30
0.0
  0
VERTEX
  5
41D
  8
MM_4_0_050
  6
CONTINUOUS
 62
     7
 10
-509.7500133514403728
 20
-3.8999998569488521
 30
0.0
  0
SEQEND
  5
41E
  8
MM_4_0_050
  6
CONTINUOUS
 62
     7
  0
POLYLINE
  5
41F
  8
MM_4_0_050
  6
CONTINUOUS
 62
     7
 66
     1
 10
0.0
 20
0.0
 30
0.0
  0
VERTEX
  5
420
  8
MM_4_0_050
  6
CONTINUOUS
 62
     7
 10
-574.0000152587889488
 20
0.0
 30
0.0
  0
VERTEX
  5
421
  8
MM_4_0_050
  6
CONTINUOUS
 62
     7
 10
-574.0000152587889488
 20
400.0
 30
0.0
  0
VERTEX
  5
422
  8
MM_4_0_050
  6
CONTINUOUS
 62
     7
 10
0.0
 20
400.0
 30
0.0
  0
VERTEX
  5
423
  8
MM_4_0_050
  6
CONTINUOUS
 62
     7
 10
0.0
 20
0.0
 30
0.0
  0
VERTEX
  5
424
  8
MM_4_0_050
  6
CONTINUOUS
 62
     7
 10
-574.0000152587889488
 20
0.0
 30
0.0
  0
SEQEND
  5
425
  8
MM_4_0_050
  6
CONTINUOUS
 62
     7
  0
INSERT
  5
426
  8
0
  2
*U98
 10
0.0
 20
0.0
 30
0.0
  0
ENDBLK
  5
427
  8
0
  0
BLOCK
  8
0
  2
FORMAT_A1
 70
     0
 10
0.0
 20
0.0
 30
0.0
  3
FORMAT_A1
  1

  0
INSERT
  5
443
  8
0
  2
*U99
 10
0.0
 20
0.0
 30
0.0
  0
INSERT
  5
444
  8
0
  2
*U100
 10
0.0
 20
0.0
 30
0.0
  0
INSERT
  5
445
  8
0
  2
*U101
 10
0.0
 20
0.0
 30
0.0
  0
INSERT
  5
446
  8
0
  2
*U102
 10
0.0
 20
0.0
 30
0.0
  0
INSERT
  5
447
  8
0
  2
*U103
 10
0.0
 20
0.0
 30
0.0
  0
INSERT
  5
448
  8
0
  2
*U104
 10
0.0
 20
0.0
 30
0.0
  0
INSERT
  5
449
  8
0
  2
*U105
 10
0.0
 20
0.0
 30
0.0
  0
INSERT
  5
44A
  8
0
  2
*U106
 10
0.0
 20
0.0
 30
0.0
  0
INSERT
  5
44B
  8
0
  2
*U107
 10
0.0
 20
0.0
 30
0.0
  0
INSERT
  5
44C
  8
0
  2
*U108
 10
0.0
 20
0.0
 30
0.0
  0
INSERT
  5
44D
  8
0
  2
*U109
 10
0.0
 20
0.0
 30
0.0
  0
INSERT
  5
44E
  8
0
  2
*U110
 10
0.0
 20
0.0
 30
0.0
  0
INSERT
  5
44F
  8
0
  2
*U111
 10
0.0
 20
0.0
 30
0.0
  0
INSERT
  5
450
  8
0
  2
*U112
 10
0.0
 20
0.0
 30
0.0
  0
INSERT
  5
451
  8
0
  2
*U113
 10
0.0
 20
0.0
 30
0.0
  0
INSERT
  5
452
  8
0
  2
*U114
 10
0.0
 20
0.0
 30
0.0
  0
POLYLINE
  5
453
  8
MM_4_0_050
  6
CONTINUOUS
 62
     7
 66
     1
 10
0.0
 20
0.0
 30
0.0
  0
VERTEX
  5
454
  8
MM_4_0_050
  6
CONTINUOUS
 62
     7
 10
0.0
 20
499.7499847412108807
 30
0.0
  0
VERTEX
  5
455
  8
MM_4_0_050
  6
CONTINUOUS
 62
     7
 10
3.899993896484375
 20
499.7499847412108807
 30
0.0
  0
SEQEND
  5
456
  8
MM_4_0_050
  6
CONTINUOUS
 62
     7
  0
POLYLINE
  5
457
  8
MM_4_0_050
  6
CONTINUOUS
 62
     7
 66
     1
 10
0.0
 20
0.0
 30
0.0
  0
VERTEX
  5
458
  8
MM_4_0_050
  6
CONTINUOUS
 62
     7
 10
-800.9999847412109375
 20
499.7499847412108807
 30
0.0
  0
VERTEX
  5
459
  8
MM_4_0_050
  6
CONTINUOUS
 62
     7
 10
-804.8999845981596764
 20
499.7499847412108807
 30
0.0
  0
SEQEND
  5
45A
  8
MM_4_0_050
  6
CONTINUOUS
 62
     7
  0
POLYLINE
  5
45B
  8
MM_4_0_050
  6
CONTINUOUS
 62
     7
 66
     1
 10
0.0
 20
0.0
 30
0.0
  0
VERTEX
  5
45C
  8
MM_4_0_050
  6
CONTINUOUS
 62
     7
 10
0.0
 20
425.4999923706054119
 30
0.0
  0
VERTEX
  5
45D
  8
MM_4_0_050
  6
CONTINUOUS
 62
     7
 10
3.899993896484375
 20
425.4999923706054119
 30
0.0
  0
SEQEND
  5
45E
  8
MM_4_0_050
  6
CONTINUOUS
 62
     7
  0
POLYLINE
  5
45F
  8
MM_4_0_050
  6
CONTINUOUS
 62
     7
 66
     1
 10
0.0
 20
0.0
 30
0.0
  0
VERTEX
  5
460
  8
MM_4_0_050
  6
CONTINUOUS
 62
     7
 10
-800.9999847412109375
 20
425.4999923706054119
 30
0.0
  0
VERTEX
  5
461
  8
MM_4_0_050
  6
CONTINUOUS
 62
     7
 10
-804.8999845981596764
 20
425.4999923706054119
 30
0.0
  0
SEQEND
  5
462
  8
MM_4_0_050
  6
CONTINUOUS
 62
     7
  0
POLYLINE
  5
463
  8
MM_4_0_050
  6
CONTINUOUS
 62
     7
 66
     1
 10
0.0
 20
0.0
 30
0.0
  0
VERTEX
  5
464
  8
MM_4_0_050
  6
CONTINUOUS
 62
     7
 10
0.0
 20
351.25
 30
0.0
  0
VERTEX
  5
465
  8
MM_4_0_050
  6
CONTINUOUS
 62
     7
 10
3.899993896484375
 20
351.25
 30
0.0
  0
SEQEND
  5
466
  8
MM_4_0_050
  6
CONTINUOUS
 62
     7
  0
POLYLINE
  5
467
  8
MM_4_0_050
  6
CONTINUOUS
 62
     7
 66
     1
 10
0.0
 20
0.0
 30
0.0
  0
VERTEX
  5
468
  8
MM_4_0_050
  6
CONTINUOUS
 62
     7
 10
-800.9999847412109375
 20
351.25
 30
0.0
  0
VERTEX
  5
469
  8
MM_4_0_050
  6
CONTINUOUS
 62
     7
 10
-804.8999845981596764
 20
351.25
 30
0.0
  0
SEQEND
  5
46A
  8
MM_4_0_050
  6
CONTINUOUS
 62
     7
  0
POLYLINE
  5
46B
  8
MM_4_0_050
  6
CONTINUOUS
 62
     7
 66
     1
 10
0.0
 20
0.0
 30
0.0
  0
VERTEX
  5
46C
  8
MM_4_0_050
  6
CONTINUOUS
 62
     7
 10
0.0
 20
277.0000076293944744
 30
0.0
  0
VERTEX
  5
46D
  8
MM_4_0_050
  6
CONTINUOUS
 62
     7
 10
3.899993896484375
 20
277.0000076293944744
 30
0.0
  0
SEQEND
  5
46E
  8
MM_4_0_050
  6
CONTINUOUS
 62
     7
  0
POLYLINE
  5
46F
  8
MM_4_0_050
  6
CONTINUOUS
 62
     7
 66
     1
 10
0.0
 20
0.0
 30
0.0
  0
VERTEX
  5
470
  8
MM_4_0_050
  6
CONTINUOUS
 62
     7
 10
-800.9999847412109375
 20
277.0000076293944744
 30
0.0
  0
VERTEX
  5
471
  8
MM_4_0_050
  6
CONTINUOUS
 62
     7
 10
-804.8999845981596764
 20
277.0000076293944744
 30
0.0
  0
SEQEND
  5
472
  8
MM_4_0_050
  6
CONTINUOUS
 62
     7
  0
POLYLINE
  5
473
  8
MM_4_0_050
  6
CONTINUOUS
 62
     7
 66
     1
 10
0.0
 20
0.0
 30
0.0
  0
VERTEX
  5
474
  8
MM_4_0_050
  6
CONTINUOUS
 62
     7
 10
0.0
 20
202.749996185302706
 30
0.0
  0
VERTEX
  5
475
  8
MM_4_0_050
  6
CONTINUOUS
 62
     7
 10
3.899993896484375
 20
202.749996185302706
 30
0.0
  0
SEQEND
  5
476
  8
MM_4_0_050
  6
CONTINUOUS
 62
     7
  0
POLYLINE
  5
477
  8
MM_4_0_050
  6
CONTINUOUS
 62
     7
 66
     1
 10
0.0
 20
0.0
 30
0.0
  0
VERTEX
  5
478
  8
MM_4_0_050
  6
CONTINUOUS
 62
     7
 10
-800.9999847412109375
 20
202.749996185302706
 30
0.0
  0
VERTEX
  5
479
  8
MM_4_0_050
  6
CONTINUOUS
 62
     7
 10
-804.8999845981596764
 20
202.749996185302706
 30
0.0
  0
SEQEND
  5
47A
  8
MM_4_0_050
  6
CONTINUOUS
 62
     7
  0
POLYLINE
  5
47B
  8
MM_4_0_050
  6
CONTINUOUS
 62
     7
 66
     1
 10
0.0
 20
0.0
 30
0.0
  0
VERTEX
  5
47C
  8
MM_4_0_050
  6
CONTINUOUS
 62
     7
 10
0.0
 20
128.5000038146972088
 30
0.0
  0
VERTEX
  5
47D
  8
MM_4_0_050
  6
CONTINUOUS
 62
     7
 10
3.899993896484375
 20
128.5000038146972088
 30
0.0
  0
SEQEND
  5
47E
  8
MM_4_0_050
  6
CONTINUOUS
 62
     7
  0
POLYLINE
  5
47F
  8
MM_4_0_050
  6
CONTINUOUS
 62
     7
 66
     1
 10
0.0
 20
0.0
 30
0.0
  0
VERTEX
  5
480
  8
MM_4_0_050
  6
CONTINUOUS
 62
     7
 10
-800.9999847412109375
 20
128.5000038146972088
 30
0.0
  0
VERTEX
  5
481
  8
MM_4_0_050
  6
CONTINUOUS
 62
     7
 10
-804.8999845981596764
 20
128.5000038146972088
 30
0.0
  0
SEQEND
  5
482
  8
MM_4_0_050
  6
CONTINUOUS
 62
     7
  0
POLYLINE
  5
483
  8
MM_4_0_050
  6
CONTINUOUS
 62
     7
 66
     1
 10
0.0
 20
0.0
 30
0.0
  0
VERTEX
  5
484
  8
MM_4_0_050
  6
CONTINUOUS
 62
     7
 10
0.0
 20
54.2500019073486328
 30
0.0
  0
VERTEX
  5
485
  8
MM_4_0_050
  6
CONTINUOUS
 62
     7
 10
3.899993896484375
 20
54.2500019073486328
 30
0.0
  0
SEQEND
  5
486
  8
MM_4_0_050
  6
CONTINUOUS
 62
     7
  0
POLYLINE
  5
487
  8
MM_4_0_050
  6
CONTINUOUS
 62
     7
 66
     1
 10
0.0
 20
0.0
 30
0.0
  0
VERTEX
  5
488
  8
MM_4_0_050
  6
CONTINUOUS
 62
     7
 10
-800.9999847412109375
 20
54.2500019073486328
 30
0.0
  0
VERTEX
  5
489
  8
MM_4_0_050
  6
CONTINUOUS
 62
     7
 10
-804.8999845981596764
 20
54.2500019073486328
 30
0.0
  0
SEQEND
  5
48A
  8
MM_4_0_050
  6
CONTINUOUS
 62
     7
  0
INSERT
  5
48B
  8
0
  2
*U115
 10
0.0
 20
0.0
 30
0.0
  0
INSERT
  5
48C
  8
0
  2
*U116
 10
0.0
 20
0.0
 30
0.0
  0
INSERT
  5
48D
  8
0
  2
*U117
 10
0.0
 20
0.0
 30
0.0
  0
INSERT
  5
48E
  8
0
  2
*U118
 10
0.0
 20
0.0
 30
0.0
  0
INSERT
  5
48F
  8
0
  2
*U119
 10
0.0
 20
0.0
 30
0.0
  0
INSERT
  5
490
  8
0
  2
*U120
 10
0.0
 20
0.0
 30
0.0
  0
INSERT
  5
491
  8
0
  2
*U121
 10
0.0
 20
0.0
 30
0.0
  0
INSERT
  5
492
  8
0
  2
*U122
 10
0.0
 20
0.0
 30
0.0
  0
INSERT
  5
493
  8
0
  2
*U123
 10
0.0
 20
0.0
 30
0.0
  0
INSERT
  5
494
  8
0
  2
*U124
 10
0.0
 20
0.0
 30
0.0
  0
INSERT
  5
495
  8
0
  2
*U125
 10
0.0
 20
0.0
 30
0.0
  0
INSERT
  5
496
  8
0
  2
*U126
 10
0.0
 20
0.0
 30
0.0
  0
INSERT
  5
497
  8
0
  2
*U127
 10
0.0
 20
0.0
 30
0.0
  0
INSERT
  5
498
  8
0
  2
*U128
 10
0.0
 20
0.0
 30
0.0
  0
INSERT
  5
499
  8
0
  2
*U129
 10
0.0
 20
0.0
 30
0.0
  0
INSERT
  5
49A
  8
0
  2
*U130
 10
0.0
 20
0.0
 30
0.0
  0
INSERT
  5
49B
  8
0
  2
*U131
 10
0.0
 20
0.0
 30
0.0
  0
INSERT
  5
49C
  8
0
  2
*U132
 10
0.0
 20
0.0
 30
0.0
  0
INSERT
  5
49D
  8
0
  2
*U133
 10
0.0
 20
0.0
 30
0.0
  0
INSERT
  5
49E
  8
0
  2
*U134
 10
0.0
 20
0.0
 30
0.0
  0
INSERT
  5
49F
  8
0
  2
*U135
 10
0.0
 20
0.0
 30
0.0
  0
INSERT
  5
4A0
  8
0
  2
*U136
 10
0.0
 20
0.0
 30
0.0
  0
INSERT
  5
4A1
  8
0
  2
*U137
 10
0.0
 20
0.0
 30
0.0
  0
INSERT
  5
4A2
  8
0
  2
*U138
 10
0.0
 20
0.0
 30
0.0
  0
POLYLINE
  5
4A3
  8
MM_4_0_050
  6
CONTINUOUS
 62
     7
 66
     1
 10
0.0
 20
0.0
 30
0.0
  0
VERTEX
  5
4A4
  8
MM_4_0_050
  6
CONTINUOUS
 62
     7
 10
-50.08331298828125
 20
554.0000152587889488
 30
0.0
  0
VERTEX
  5
4A5
  8
MM_4_0_050
  6
CONTINUOUS
 62
     7
 10
-50.08331298828125
 20
557.9000091552734375
 30
0.0
  0
SEQEND
  5
4A6
  8
MM_4_0_050
  6
CONTINUOUS
 62
     7
  0
POLYLINE
  5
4A7
  8
MM_4_0_050
  6
CONTINUOUS
 62
     7
 66
     1
 10
0.0
 20
0.0
 30
0.0
  0
VERTEX
  5
4A8
  8
MM_4_0_050
  6
CONTINUOUS
 62
     7
 10
-50.08331298828125
 20
0.0
 30
0.0
  0
VERTEX
  5
4A9
  8
MM_4_0_050
  6
CONTINUOUS
 62
     7
 10
-50.08331298828125
 20
-3.8999998569488521
 30
0.0
  0
SEQEND
  5
4AA
  8
MM_4_0_050
  6
CONTINUOUS
 62
     7
  0
POLYLINE
  5
4AB
  8
MM_4_0_050
  6
CONTINUOUS
 62
     7
 66
     1
 10
0.0
 20
0.0
 30
0.0
  0
VERTEX
  5
4AC
  8
MM_4_0_050
  6
CONTINUOUS
 62
     7
 10
-120.1666259765625
 20
554.0000152587889488
 30
0.0
  0
VERTEX
  5
4AD
  8
MM_4_0_050
  6
CONTINUOUS
 62
     7
 10
-120.1666259765625
 20
557.9000091552734375
 30
0.0
  0
SEQEND
  5
4AE
  8
MM_4_0_050
  6
CONTINUOUS
 62
     7
  0
POLYLINE
  5
4AF
  8
MM_4_0_050
  6
CONTINUOUS
 62
     7
 66
     1
 10
0.0
 20
0.0
 30
0.0
  0
VERTEX
  5
4B0
  8
MM_4_0_050
  6
CONTINUOUS
 62
     7
 10
-120.1666259765625
 20
0.0
 30
0.0
  0
VERTEX
  5
4B1
  8
MM_4_0_050
  6
CONTINUOUS
 62
     7
 10
-120.1666259765625
 20
-3.8999998569488521
 30
0.0
  0
SEQEND
  5
4B2
  8
MM_4_0_050
  6
CONTINUOUS
 62
     7
  0
POLYLINE
  5
4B3
  8
MM_4_0_050
  6
CONTINUOUS
 62
     7
 66
     1
 10
0.0
 20
0.0
 30
0.0
  0
VERTEX
  5
4B4
  8
MM_4_0_050
  6
CONTINUOUS
 62
     7
 10
-190.2499771118164063
 20
554.0000152587889488
 30
0.0
  0
VERTEX
  5
4B5
  8
MM_4_0_050
  6
CONTINUOUS
 62
     7
 10
-190.2499771118164063
 20
557.9000091552734375
 30
0.0
  0
SEQEND
  5
4B6
  8
MM_4_0_050
  6
CONTINUOUS
 62
     7
  0
POLYLINE
  5
4B7
  8
MM_4_0_050
  6
CONTINUOUS
 62
     7
 66
     1
 10
0.0
 20
0.0
 30
0.0
  0
VERTEX
  5
4B8
  8
MM_4_0_050
  6
CONTINUOUS
 62
     7
 10
-190.2499771118164063
 20
0.0
 30
0.0
  0
VERTEX
  5
4B9
  8
MM_4_0_050
  6
CONTINUOUS
 62
     7
 10
-190.2499771118164063
 20
-3.8999998569488521
 30
0.0
  0
SEQEND
  5
4BA
  8
MM_4_0_050
  6
CONTINUOUS
 62
     7
  0
POLYLINE
  5
4BB
  8
MM_4_0_050
  6
CONTINUOUS
 62
     7
 66
     1
 10
0.0
 20
0.0
 30
0.0
  0
VERTEX
  5
4BC
  8
MM_4_0_050
  6
CONTINUOUS
 62
     7
 10
-260.3333282470703125
 20
554.0000152587889488
 30
0.0
  0
VERTEX
  5
4BD
  8
MM_4_0_050
  6
CONTINUOUS
 62
     7
 10
-260.3333282470703125
 20
557.9000091552734375
 30
0.0
  0
SEQEND
  5
4BE
  8
MM_4_0_050
  6
CONTINUOUS
 62
     7
  0
POLYLINE
  5
4BF
  8
MM_4_0_050
  6
CONTINUOUS
 62
     7
 66
     1
 10
0.0
 20
0.0
 30
0.0
  0
VERTEX
  5
4C0
  8
MM_4_0_050
  6
CONTINUOUS
 62
     7
 10
-260.3333282470703125
 20
0.0
 30
0.0
  0
VERTEX
  5
4C1
  8
MM_4_0_050
  6
CONTINUOUS
 62
     7
 10
-260.3333282470703125
 20
-3.8999998569488521
 30
0.0
  0
SEQEND
  5
4C2
  8
MM_4_0_050
  6
CONTINUOUS
 62
     7
  0
POLYLINE
  5
4C3
  8
MM_4_0_050
  6
CONTINUOUS
 62
     7
 66
     1
 10
0.0
 20
0.0
 30
0.0
  0
VERTEX
  5
4C4
  8
MM_4_0_050
  6
CONTINUOUS
 62
     7
 10
-330.4166412353516193
 20
554.0000152587889488
 30
0.0
  0
VERTEX
  5
4C5
  8
MM_4_0_050
  6
CONTINUOUS
 62
     7
 10
-330.4166412353516193
 20
557.9000091552734375
 30
0.0
  0
SEQEND
  5
4C6
  8
MM_4_0_050
  6
CONTINUOUS
 62
     7
  0
POLYLINE
  5
4C7
  8
MM_4_0_050
  6
CONTINUOUS
 62
     7
 66
     1
 10
0.0
 20
0.0
 30
0.0
  0
VERTEX
  5
4C8
  8
MM_4_0_050
  6
CONTINUOUS
 62
     7
 10
-330.4166412353516193
 20
0.0
 30
0.0
  0
VERTEX
  5
4C9
  8
MM_4_0_050
  6
CONTINUOUS
 62
     7
 10
-330.4166412353516193
 20
-3.8999998569488521
 30
0.0
  0
SEQEND
  5
4CA
  8
MM_4_0_050
  6
CONTINUOUS
 62
     7
  0
POLYLINE
  5
4CB
  8
MM_4_0_050
  6
CONTINUOUS
 62
     7
 66
     1
 10
0.0
 20
0.0
 30
0.0
  0
VERTEX
  5
4CC
  8
MM_4_0_050
  6
CONTINUOUS
 62
     7
 10
-400.4999923706054119
 20
554.0000152587889488
 30
0.0
  0
VERTEX
  5
4CD
  8
MM_4_0_050
  6
CONTINUOUS
 62
     7
 10
-400.4999923706054119
 20
557.9000091552734375
 30
0.0
  0
SEQEND
  5
4CE
  8
MM_4_0_050
  6
CONTINUOUS
 62
     7
  0
POLYLINE
  5
4CF
  8
MM_4_0_050
  6
CONTINUOUS
 62
     7
 66
     1
 10
0.0
 20
0.0
 30
0.0
  0
VERTEX
  5
4D0
  8
MM_4_0_050
  6
CONTINUOUS
 62
     7
 10
-400.4999923706054119
 20
0.0
 30
0.0
  0
VERTEX
  5
4D1
  8
MM_4_0_050
  6
CONTINUOUS
 62
     7
 10
-400.4999923706054119
 20
-3.8999998569488521
 30
0.0
  0
SEQEND
  5
4D2
  8
MM_4_0_050
  6
CONTINUOUS
 62
     7
  0
POLYLINE
  5
4D3
  8
MM_4_0_050
  6
CONTINUOUS
 62
     7
 66
     1
 10
0.0
 20
0.0
 30
0.0
  0
VERTEX
  5
4D4
  8
MM_4_0_050
  6
CONTINUOUS
 62
     7
 10
-470.5833053588867188
 20
554.0000152587889488
 30
0.0
  0
VERTEX
  5
4D5
  8
MM_4_0_050
  6
CONTINUOUS
 62
     7
 10
-470.5833053588867188
 20
557.9000091552734375
 30
0.0
  0
SEQEND
  5
4D6
  8
MM_4_0_050
  6
CONTINUOUS
 62
     7
  0
POLYLINE
  5
4D7
  8
MM_4_0_050
  6
CONTINUOUS
 62
     7
 66
     1
 10
0.0
 20
0.0
 30
0.0
  0
VERTEX
  5
4D8
  8
MM_4_0_050
  6
CONTINUOUS
 62
     7
 10
-470.5833053588867188
 20
0.0
 30
0.0
  0
VERTEX
  5
4D9
  8
MM_4_0_050
  6
CONTINUOUS
 62
     7
 10
-470.5833053588867188
 20
-3.8999998569488521
 30
0.0
  0
SEQEND
  5
4DA
  8
MM_4_0_050
  6
CONTINUOUS
 62
     7
  0
POLYLINE
  5
4DB
  8
MM_4_0_050
  6
CONTINUOUS
 62
     7
 66
     1
 10
0.0
 20
0.0
 30
0.0
  0
VERTEX
  5
4DC
  8
MM_4_0_050
  6
CONTINUOUS
 62
     7
 10
-540.666656494140625
 20
554.0000152587889488
 30
0.0
  0
VERTEX
  5
4DD
  8
MM_4_0_050
  6
CONTINUOUS
 62
     7
 10
-540.666656494140625
 20
557.9000091552734375
 30
0.0
  0
SEQEND
  5
4DE
  8
MM_4_0_050
  6
CONTINUOUS
 62
     7
  0
POLYLINE
  5
4DF
  8
MM_4_0_050
  6
CONTINUOUS
 62
     7
 66
     1
 10
0.0
 20
0.0
 30
0.0
  0
VERTEX
  5
4E0
  8
MM_4_0_050
  6
CONTINUOUS
 62
     7
 10
-540.666656494140625
 20
0.0
 30
0.0
  0
VERTEX
  5
4E1
  8
MM_4_0_050
  6
CONTINUOUS
 62
     7
 10
-540.666656494140625
 20
-3.8999998569488521
 30
0.0
  0
SEQEND
  5
4E2
  8
MM_4_0_050
  6
CONTINUOUS
 62
     7
  0
POLYLINE
  5
4E3
  8
MM_4_0_050
  6
CONTINUOUS
 62
     7
 66
     1
 10
0.0
 20
0.0
 30
0.0
  0
VERTEX
  5
4E4
  8
MM_4_0_050
  6
CONTINUOUS
 62
     7
 10
-610.7499885559080894
 20
554.0000152587889488
 30
0.0
  0
VERTEX
  5
4E5
  8
MM_4_0_050
  6
CONTINUOUS
 62
     7
 10
-610.7499885559080894
 20
557.9000091552734375
 30
0.0
  0
SEQEND
  5
4E6
  8
MM_4_0_050
  6
CONTINUOUS
 62
     7
  0
POLYLINE
  5
4E7
  8
MM_4_0_050
  6
CONTINUOUS
 62
     7
 66
     1
 10
0.0
 20
0.0
 30
0.0
  0
VERTEX
  5
4E8
  8
MM_4_0_050
  6
CONTINUOUS
 62
     7
 10
-610.7499885559080894
 20
0.0
 30
0.0
  0
VERTEX
  5
4E9
  8
MM_4_0_050
  6
CONTINUOUS
 62
     7
 10
-610.7499885559080894
 20
-3.8999998569488521
 30
0.0
  0
SEQEND
  5
4EA
  8
MM_4_0_050
  6
CONTINUOUS
 62
     7
  0
POLYLINE
  5
4EB
  8
MM_4_0_050
  6
CONTINUOUS
 62
     7
 66
     1
 10
0.0
 20
0.0
 30
0.0
  0
VERTEX
  5
4EC
  8
MM_4_0_050
  6
CONTINUOUS
 62
     7
 10
-680.8333206176756676
 20
554.0000152587889488
 30
0.0
  0
VERTEX
  5
4ED
  8
MM_4_0_050
  6
CONTINUOUS
 62
     7
 10
-680.8333206176756676
 20
557.9000091552734375
 30
0.0
  0
SEQEND
  5
4EE
  8
MM_4_0_050
  6
CONTINUOUS
 62
     7
  0
POLYLINE
  5
4EF
  8
MM_4_0_050
  6
CONTINUOUS
 62
     7
 66
     1
 10
0.0
 20
0.0
 30
0.0
  0
VERTEX
  5
4F0
  8
MM_4_0_050
  6
CONTINUOUS
 62
     7
 10
-680.8333206176756676
 20
0.0
 30
0.0
  0
VERTEX
  5
4F1
  8
MM_4_0_050
  6
CONTINUOUS
 62
     7
 10
-680.8333206176756676
 20
-3.8999998569488521
 30
0.0
  0
SEQEND
  5
4F2
  8
MM_4_0_050
  6
CONTINUOUS
 62
     7
  0
POLYLINE
  5
4F3
  8
MM_4_0_050
  6
CONTINUOUS
 62
     7
 66
     1
 10
0.0
 20
0.0
 30
0.0
  0
VERTEX
  5
4F4
  8
MM_4_0_050
  6
CONTINUOUS
 62
     7
 10
-750.9166526794432457
 20
554.0000152587889488
 30
0.0
  0
VERTEX
  5
4F5
  8
MM_4_0_050
  6
CONTINUOUS
 62
     7
 10
-750.9166526794432457
 20
557.9000091552734375
 30
0.0
  0
SEQEND
  5
4F6
  8
MM_4_0_050
  6
CONTINUOUS
 62
     7
  0
POLYLINE
  5
4F7
  8
MM_4_0_050
  6
CONTINUOUS
 62
     7
 66
     1
 10
0.0
 20
0.0
 30
0.0
  0
VERTEX
  5
4F8
  8
MM_4_0_050
  6
CONTINUOUS
 62
     7
 10
-750.9166526794432457
 20
0.0
 30
0.0
  0
VERTEX
  5
4F9
  8
MM_4_0_050
  6
CONTINUOUS
 62
     7
 10
-750.9166526794432457
 20
-3.8999998569488521
 30
0.0
  0
SEQEND
  5
4FA
  8
MM_4_0_050
  6
CONTINUOUS
 62
     7
  0
POLYLINE
  5
4FB
  8
MM_4_0_050
  6
CONTINUOUS
 62
     7
 66
     1
 10
0.0
 20
0.0
 30
0.0
  0
VERTEX
  5
4FC
  8
MM_4_0_050
  6
CONTINUOUS
 62
     7
 10
-800.9999847412109375
 20
0.0
 30
0.0
  0
VERTEX
  5
4FD
  8
MM_4_0_050
  6
CONTINUOUS
 62
     7
 10
-800.9999847412109375
 20
554.0000152587889488
 30
0.0
  0
VERTEX
  5
4FE
  8
MM_4_0_050
  6
CONTINUOUS
 62
     7
 10
0.0
 20
554.0000152587889488
 30
0.0
  0
VERTEX
  5
4FF
  8
MM_4_0_050
  6
CONTINUOUS
 62
     7
 10
0.0
 20
0.0
 30
0.0
  0
VERTEX
  5
500
  8
MM_4_0_050
  6
CONTINUOUS
 62
     7
 10
-800.9999847412109375
 20
0.0
 30
0.0
  0
SEQEND
  5
501
  8
MM_4_0_050
  6
CONTINUOUS
 62
     7
  0
INSERT
  5
502
  8
0
  2
*U139
 10
0.0
 20
0.0
 30
0.0
  0
ENDBLK
  5
503
  8
0
  0
BLOCK
  8
0
  2
FORMAT_A0
 70
     0
 10
0.0
 20
0.0
 30
0.0
  3
FORMAT_A0
  1

  0
INSERT
  5
513
  8
0
  2
*U140
 10
0.0
 20
0.0
 30
0.0
  0
INSERT
  5
514
  8
0
  2
*U141
 10
0.0
 20
0.0
 30
0.0
  0
INSERT
  5
515
  8
0
  2
*U142
 10
0.0
 20
0.0
 30
0.0
  0
INSERT
  5
516
  8
0
  2
*U143
 10
0.0
 20
0.0
 30
0.0
  0
INSERT
  5
517
  8
0
  2
*U144
 10
0.0
 20
0.0
 30
0.0
  0
INSERT
  5
518
  8
0
  2
*U145
 10
0.0
 20
0.0
 30
0.0
  0
INSERT
  5
519
  8
0
  2
*U146
 10
0.0
 20
0.0
 30
0.0
  0
INSERT
  5
51A
  8
0
  2
*U147
 10
0.0
 20
0.0
 30
0.0
  0
INSERT
  5
51B
  8
0
  2
*U148
 10
0.0
 20
0.0
 30
0.0
  0
INSERT
  5
51C
  8
0
  2
*U149
 10
0.0
 20
0.0
 30
0.0
  0
INSERT
  5
51D
  8
0
  2
*U150
 10
0.0
 20
0.0
 30
0.0
  0
INSERT
  5
51E
  8
0
  2
*U151
 10
0.0
 20
0.0
 30
0.0
  0
INSERT
  5
51F
  8
0
  2
*U152
 10
0.0
 20
0.0
 30
0.0
  0
INSERT
  5
520
  8
0
  2
*U153
 10
0.0
 20
0.0
 30
0.0
  0
INSERT
  5
521
  8
0
  2
*U154
 10
0.0
 20
0.0
 30
0.0
  0
INSERT
  5
522
  8
0
  2
*U155
 10
0.0
 20
0.0
 30
0.0
  0
INSERT
  5
523
  8
0
  2
*U156
 10
0.0
 20
0.0
 30
0.0
  0
INSERT
  5
524
  8
0
  2
*U157
 10
0.0
 20
0.0
 30
0.0
  0
INSERT
  5
525
  8
0
  2
*U158
 10
0.0
 20
0.0
 30
0.0
  0
INSERT
  5
526
  8
0
  2
*U159
 10
0.0
 20
0.0
 30
0.0
  0
INSERT
  5
527
  8
0
  2
*U160
 10
0.0
 20
0.0
 30
0.0
  0
INSERT
  5
528
  8
0
  2
*U161
 10
0.0
 20
0.0
 30
0.0
  0
INSERT
  5
529
  8
0
  2
*U162
 10
0.0
 20
0.0
 30
0.0
  0
INSERT
  5
52A
  8
0
  2
*U163
 10
0.0
 20
0.0
 30
0.0
  0
POLYLINE
  5
52B
  8
MM_4_0_050
  6
CONTINUOUS
 62
     7
 66
     1
 10
0.0
 20
0.0
 30
0.0
  0
VERTEX
  5
52C
  8
MM_4_0_050
  6
CONTINUOUS
 62
     7
 10
0.0
 20
750.9166717529295738
 30
0.0
  0
VERTEX
  5
52D
  8
MM_4_0_050
  6
CONTINUOUS
 62
     7
 10
3.899993896484375
 20
750.9166717529295738
 30
0.0
  0
SEQEND
  5
52E
  8
MM_4_0_050
  6
CONTINUOUS
 62
     7
  0
POLYLINE
  5
52F
  8
MM_4_0_050
  6
CONTINUOUS
 62
     7
 66
     1
 10
0.0
 20
0.0
 30
0.0
  0
VERTEX
  5
530
  8
MM_4_0_050
  6
CONTINUOUS
 62
     7
 10
-1149.0000152587890625
 20
750.9166717529295738
 30
0.0
  0
VERTEX
  5
531
  8
MM_4_0_050
  6
CONTINUOUS
 62
     7
 10
-1152.900015115737915
 20
750.9166717529295738
 30
0.0
  0
SEQEND
  5
532
  8
MM_4_0_050
  6
CONTINUOUS
 62
     7
  0
POLYLINE
  5
533
  8
MM_4_0_050
  6
CONTINUOUS
 62
     7
 66
     1
 10
0.0
 20
0.0
 30
0.0
  0
VERTEX
  5
534
  8
MM_4_0_050
  6
CONTINUOUS
 62
     7
 10
0.0
 20
680.8333587646484375
 30
0.0
  0
VERTEX
  5
535
  8
MM_4_0_050
  6
CONTINUOUS
 62
     7
 10
3.899993896484375
 20
680.8333587646484375
 30
0.0
  0
SEQEND
  5
536
  8
MM_4_0_050
  6
CONTINUOUS
 62
     7
  0
POLYLINE
  5
537
  8
MM_4_0_050
  6
CONTINUOUS
 62
     7
 66
     1
 10
0.0
 20
0.0
 30
0.0
  0
VERTEX
  5
538
  8
MM_4_0_050
  6
CONTINUOUS
 62
     7
 10
-1149.0000152587890625
 20
680.8333587646484375
 30
0.0
  0
VERTEX
  5
539
  8
MM_4_0_050
  6
CONTINUOUS
 62
     7
 10
-1152.900015115737915
 20
680.8333587646484375
 30
0.0
  0
SEQEND
  5
53A
  8
MM_4_0_050
  6
CONTINUOUS
 62
     7
  0
POLYLINE
  5
53B
  8
MM_4_0_050
  6
CONTINUOUS
 62
     7
 66
     1
 10
0.0
 20
0.0
 30
0.0
  0
VERTEX
  5
53C
  8
MM_4_0_050
  6
CONTINUOUS
 62
     7
 10
0.0
 20
610.7500076293945313
 30
0.0
  0
VERTEX
  5
53D
  8
MM_4_0_050
  6
CONTINUOUS
 62
     7
 10
3.899993896484375
 20
610.7500076293945313
 30
0.0
  0
SEQEND
  5
53E
  8
MM_4_0_050
  6
CONTINUOUS
 62
     7
  0
POLYLINE
  5
53F
  8
MM_4_0_050
  6
CONTINUOUS
 62
     7
 66
     1
 10
0.0
 20
0.0
 30
0.0
  0
VERTEX
  5
540
  8
MM_4_0_050
  6
CONTINUOUS
 62
     7
 10
-1149.0000152587890625
 20
610.7500076293945313
 30
0.0
  0
VERTEX
  5
541
  8
MM_4_0_050
  6
CONTINUOUS
 62
     7
 10
-1152.900015115737915
 20
610.7500076293945313
 30
0.0
  0
SEQEND
  5
542
  8
MM_4_0_050
  6
CONTINUOUS
 62
     7
  0
POLYLINE
  5
543
  8
MM_4_0_050
  6
CONTINUOUS
 62
     7
 66
     1
 10
0.0
 20
0.0
 30
0.0
  0
VERTEX
  5
544
  8
MM_4_0_050
  6
CONTINUOUS
 62
     7
 10
0.0
 20
540.666656494140625
 30
0.0
  0
VERTEX
  5
545
  8
MM_4_0_050
  6
CONTINUOUS
 62
     7
 10
3.899993896484375
 20
540.666656494140625
 30
0.0
  0
SEQEND
  5
546
  8
MM_4_0_050
  6
CONTINUOUS
 62
     7
  0
POLYLINE
  5
547
  8
MM_4_0_050
  6
CONTINUOUS
 62
     7
 66
     1
 10
0.0
 20
0.0
 30
0.0
  0
VERTEX
  5
548
  8
MM_4_0_050
  6
CONTINUOUS
 62
     7
 10
-1149.0000152587890625
 20
540.666656494140625
 30
0.0
  0
VERTEX
  5
549
  8
MM_4_0_050
  6
CONTINUOUS
 62
     7
 10
-1152.900015115737915
 20
540.666656494140625
 30
0.0
  0
SEQEND
  5
54A
  8
MM_4_0_050
  6
CONTINUOUS
 62
     7
  0
POLYLINE
  5
54B
  8
MM_4_0_050
  6
CONTINUOUS
 62
     7
 66
     1
 10
0.0
 20
0.0
 30
0.0
  0
VERTEX
  5
54C
  8
MM_4_0_050
  6
CONTINUOUS
 62
     7
 10
0.0
 20
470.5833435058593182
 30
0.0
  0
VERTEX
  5
54D
  8
MM_4_0_050
  6
CONTINUOUS
 62
     7
 10
3.899993896484375
 20
470.5833435058593182
 30
0.0
  0
SEQEND
  5
54E
  8
MM_4_0_050
  6
CONTINUOUS
 62
     7
  0
POLYLINE
  5
54F
  8
MM_4_0_050
  6
CONTINUOUS
 62
     7
 66
     1
 10
0.0
 20
0.0
 30
0.0
  0
VERTEX
  5
550
  8
MM_4_0_050
  6
CONTINUOUS
 62
     7
 10
-1149.0000152587890625
 20
470.5833435058593182
 30
0.0
  0
VERTEX
  5
551
  8
MM_4_0_050
  6
CONTINUOUS
 62
     7
 10
-1152.900015115737915
 20
470.5833435058593182
 30
0.0
  0
SEQEND
  5
552
  8
MM_4_0_050
  6
CONTINUOUS
 62
     7
  0
POLYLINE
  5
553
  8
MM_4_0_050
  6
CONTINUOUS
 62
     7
 66
     1
 10
0.0
 20
0.0
 30
0.0
  0
VERTEX
  5
554
  8
MM_4_0_050
  6
CONTINUOUS
 62
     7
 10
0.0
 20
400.4999923706054119
 30
0.0
  0
VERTEX
  5
555
  8
MM_4_0_050
  6
CONTINUOUS
 62
     7
 10
3.899993896484375
 20
400.4999923706054119
 30
0.0
  0
SEQEND
  5
556
  8
MM_4_0_050
  6
CONTINUOUS
 62
     7
  0
POLYLINE
  5
557
  8
MM_4_0_050
  6
CONTINUOUS
 62
     7
 66
     1
 10
0.0
 20
0.0
 30
0.0
  0
VERTEX
  5
558
  8
MM_4_0_050
  6
CONTINUOUS
 62
     7
 10
-1149.0000152587890625
 20
400.4999923706054119
 30
0.0
  0
VERTEX
  5
559
  8
MM_4_0_050
  6
CONTINUOUS
 62
     7
 10
-1152.900015115737915
 20
400.4999923706054119
 30
0.0
  0
SEQEND
  5
55A
  8
MM_4_0_050
  6
CONTINUOUS
 62
     7
  0
POLYLINE
  5
55B
  8
MM_4_0_050
  6
CONTINUOUS
 62
     7
 66
     1
 10
0.0
 20
0.0
 30
0.0
  0
VERTEX
  5
55C
  8
MM_4_0_050
  6
CONTINUOUS
 62
     7
 10
0.0
 20
330.4166793823242188
 30
0.0
  0
VERTEX
  5
55D
  8
MM_4_0_050
  6
CONTINUOUS
 62
     7
 10
3.899993896484375
 20
330.4166793823242188
 30
0.0
  0
SEQEND
  5
55E
  8
MM_4_0_050
  6
CONTINUOUS
 62
     7
  0
POLYLINE
  5
55F
  8
MM_4_0_050
  6
CONTINUOUS
 62
     7
 66
     1
 10
0.0
 20
0.0
 30
0.0
  0
VERTEX
  5
560
  8
MM_4_0_050
  6
CONTINUOUS
 62
     7
 10
-1149.0000152587890625
 20
330.4166793823242188
 30
0.0
  0
VERTEX
  5
561
  8
MM_4_0_050
  6
CONTINUOUS
 62
     7
 10
-1152.900015115737915
 20
330.4166793823242188
 30
0.0
  0
SEQEND
  5
562
  8
MM_4_0_050
  6
CONTINUOUS
 62
     7
  0
POLYLINE
  5
563
  8
MM_4_0_050
  6
CONTINUOUS
 62
     7
 66
     1
 10
0.0
 20
0.0
 30
0.0
  0
VERTEX
  5
564
  8
MM_4_0_050
  6
CONTINUOUS
 62
     7
 10
0.0
 20
260.3333282470703125
 30
0.0
  0
VERTEX
  5
565
  8
MM_4_0_050
  6
CONTINUOUS
 62
     7
 10
3.899993896484375
 20
260.3333282470703125
 30
0.0
  0
SEQEND
  5
566
  8
MM_4_0_050
  6
CONTINUOUS
 62
     7
  0
POLYLINE
  5
567
  8
MM_4_0_050
  6
CONTINUOUS
 62
     7
 66
     1
 10
0.0
 20
0.0
 30
0.0
  0
VERTEX
  5
568
  8
MM_4_0_050
  6
CONTINUOUS
 62
     7
 10
-1149.0000152587890625
 20
260.3333282470703125
 30
0.0
  0
VERTEX
  5
569
  8
MM_4_0_050
  6
CONTINUOUS
 62
     7
 10
-1152.900015115737915
 20
260.3333282470703125
 30
0.0
  0
SEQEND
  5
56A
  8
MM_4_0_050
  6
CONTINUOUS
 62
     7
  0
POLYLINE
  5
56B
  8
MM_4_0_050
  6
CONTINUOUS
 62
     7
 66
     1
 10
0.0
 20
0.0
 30
0.0
  0
VERTEX
  5
56C
  8
MM_4_0_050
  6
CONTINUOUS
 62
     7
 10
0.0
 20
190.249996185302706
 30
0.0
  0
VERTEX
  5
56D
  8
MM_4_0_050
  6
CONTINUOUS
 62
     7
 10
3.899993896484375
 20
190.249996185302706
 30
0.0
  0
SEQEND
  5
56E
  8
MM_4_0_050
  6
CONTINUOUS
 62
     7
  0
POLYLINE
  5
56F
  8
MM_4_0_050
  6
CONTINUOUS
 62
     7
 66
     1
 10
0.0
 20
0.0
 30
0.0
  0
VERTEX
  5
570
  8
MM_4_0_050
  6
CONTINUOUS
 62
     7
 10
-1149.0000152587890625
 20
190.249996185302706
 30
0.0
  0
VERTEX
  5
571
  8
MM_4_0_050
  6
CONTINUOUS
 62
     7
 10
-1152.900015115737915
 20
190.249996185302706
 30
0.0
  0
SEQEND
  5
572
  8
MM_4_0_050
  6
CONTINUOUS
 62
     7
  0
POLYLINE
  5
573
  8
MM_4_0_050
  6
CONTINUOUS
 62
     7
 66
     1
 10
0.0
 20
0.0
 30
0.0
  0
VERTEX
  5
574
  8
MM_4_0_050
  6
CONTINUOUS
 62
     7
 10
0.0
 20
120.1666641235350994
 30
0.0
  0
VERTEX
  5
575
  8
MM_4_0_050
  6
CONTINUOUS
 62
     7
 10
3.899993896484375
 20
120.1666641235350994
 30
0.0
  0
SEQEND
  5
576
  8
MM_4_0_050
  6
CONTINUOUS
 62
     7
  0
POLYLINE
  5
577
  8
MM_4_0_050
  6
CONTINUOUS
 62
     7
 66
     1
 10
0.0
 20
0.0
 30
0.0
  0
VERTEX
  5
578
  8
MM_4_0_050
  6
CONTINUOUS
 62
     7
 10
-1149.0000152587890625
 20
120.1666641235350994
 30
0.0
  0
VERTEX
  5
579
  8
MM_4_0_050
  6
CONTINUOUS
 62
     7
 10
-1152.900015115737915
 20
120.1666641235350994
 30
0.0
  0
SEQEND
  5
57A
  8
MM_4_0_050
  6
CONTINUOUS
 62
     7
  0
POLYLINE
  5
57B
  8
MM_4_0_050
  6
CONTINUOUS
 62
     7
 66
     1
 10
0.0
 20
0.0
 30
0.0
  0
VERTEX
  5
57C
  8
MM_4_0_050
  6
CONTINUOUS
 62
     7
 10
0.0
 20
50.083332061767571
 30
0.0
  0
VERTEX
  5
57D
  8
MM_4_0_050
  6
CONTINUOUS
 62
     7
 10
3.899993896484375
 20
50.083332061767571
 30
0.0
  0
SEQEND
  5
57E
  8
MM_4_0_050
  6
CONTINUOUS
 62
     7
  0
POLYLINE
  5
57F
  8
MM_4_0_050
  6
CONTINUOUS
 62
     7
 66
     1
 10
0.0
 20
0.0
 30
0.0
  0
VERTEX
  5
580
  8
MM_4_0_050
  6
CONTINUOUS
 62
     7
 10
-1149.0000152587890625
 20
50.083332061767571
 30
0.0
  0
VERTEX
  5
581
  8
MM_4_0_050
  6
CONTINUOUS
 62
     7
 10
-1152.900015115737915
 20
50.083332061767571
 30
0.0
  0
SEQEND
  5
582
  8
MM_4_0_050
  6
CONTINUOUS
 62
     7
  0
INSERT
  5
583
  8
0
  2
*U164
 10
0.0
 20
0.0
 30
0.0
  0
INSERT
  5
584
  8
0
  2
*U165
 10
0.0
 20
0.0
 30
0.0
  0
INSERT
  5
585
  8
0
  2
*U166
 10
0.0
 20
0.0
 30
0.0
  0
INSERT
  5
586
  8
0
  2
*U167
 10
0.0
 20
0.0
 30
0.0
  0
INSERT
  5
587
  8
0
  2
*U168
 10
0.0
 20
0.0
 30
0.0
  0
INSERT
  5
588
  8
0
  2
*U169
 10
0.0
 20
0.0
 30
0.0
  0
INSERT
  5
589
  8
0
  2
*U170
 10
0.0
 20
0.0
 30
0.0
  0
INSERT
  5
58A
  8
0
  2
*U171
 10
0.0
 20
0.0
 30
0.0
  0
INSERT
  5
58B
  8
0
  2
*U172
 10
0.0
 20
0.0
 30
0.0
  0
INSERT
  5
58C
  8
0
  2
*U173
 10
0.0
 20
0.0
 30
0.0
  0
INSERT
  5
58D
  8
0
  2
*U174
 10
0.0
 20
0.0
 30
0.0
  0
INSERT
  5
58E
  8
0
  2
*U175
 10
0.0
 20
0.0
 30
0.0
  0
INSERT
  5
58F
  8
0
  2
*U176
 10
0.0
 20
0.0
 30
0.0
  0
INSERT
  5
590
  8
0
  2
*U177
 10
0.0
 20
0.0
 30
0.0
  0
INSERT
  5
591
  8
0
  2
*U178
 10
0.0
 20
0.0
 30
0.0
  0
INSERT
  5
592
  8
0
  2
*U179
 10
0.0
 20
0.0
 30
0.0
  0
INSERT
  5
593
  8
0
  2
*U180
 10
0.0
 20
0.0
 30
0.0
  0
INSERT
  5
594
  8
0
  2
*U181
 10
0.0
 20
0.0
 30
0.0
  0
INSERT
  5
595
  8
0
  2
*U182
 10
0.0
 20
0.0
 30
0.0
  0
INSERT
  5
596
  8
0
  2
*U183
 10
0.0
 20
0.0
 30
0.0
  0
INSERT
  5
597
  8
0
  2
*U184
 10
0.0
 20
0.0
 30
0.0
  0
INSERT
  5
598
  8
0
  2
*U185
 10
0.0
 20
0.0
 30
0.0
  0
INSERT
  5
599
  8
0
  2
*U186
 10
0.0
 20
0.0
 30
0.0
  0
INSERT
  5
59A
  8
0
  2
*U187
 10
0.0
 20
0.0
 30
0.0
  0
INSERT
  5
59B
  8
0
  2
*U188
 10
0.0
 20
0.0
 30
0.0
  0
INSERT
  5
59C
  8
0
  2
*U189
 10
0.0
 20
0.0
 30
0.0
  0
INSERT
  5
59D
  8
0
  2
*U190
 10
0.0
 20
0.0
 30
0.0
  0
INSERT
  5
59E
  8
0
  2
*U191
 10
0.0
 20
0.0
 30
0.0
  0
INSERT
  5
59F
  8
0
  2
*U192
 10
0.0
 20
0.0
 30
0.0
  0
INSERT
  5
5A0
  8
0
  2
*U193
 10
0.0
 20
0.0
 30
0.0
  0
INSERT
  5
5A1
  8
0
  2
*U194
 10
0.0
 20
0.0
 30
0.0
  0
INSERT
  5
5A2
  8
0
  2
*U195
 10
0.0
 20
0.0
 30
0.0
  0
POLYLINE
  5
5A3
  8
MM_4_0_050
  6
CONTINUOUS
 62
     7
 66
     1
 10
0.0
 20
0.0
 30
0.0
  0
VERTEX
  5
5A4
  8
MM_4_0_050
  6
CONTINUOUS
 62
     7
 10
-54.3125152587890625
 20
800.9999847412109375
 30
0.0
  0
VERTEX
  5
5A5
  8
MM_4_0_050
  6
CONTINUOUS
 62
     7
 10
-54.3125152587890625
 20
804.8999786376953125
 30
0.0
  0
SEQEND
  5
5A6
  8
MM_4_0_050
  6
CONTINUOUS
 62
     7
  0
POLYLINE
  5
5A7
  8
MM_4_0_050
  6
CONTINUOUS
 62
     7
 66
     1
 10
0.0
 20
0.0
 30
0.0
  0
VERTEX
  5
5A8
  8
MM_4_0_050
  6
CONTINUOUS
 62
     7
 10
-54.3125152587890625
 20
0.0
 30
0.0
  0
VERTEX
  5
5A9
  8
MM_4_0_050
  6
CONTINUOUS
 62
     7
 10
-54.3125152587890625
 20
-3.8999998569488521
 30
0.0
  0
SEQEND
  5
5AA
  8
MM_4_0_050
  6
CONTINUOUS
 62
     7
  0
POLYLINE
  5
5AB
  8
MM_4_0_050
  6
CONTINUOUS
 62
     7
 66
     1
 10
0.0
 20
0.0
 30
0.0
  0
VERTEX
  5
5AC
  8
MM_4_0_050
  6
CONTINUOUS
 62
     7
 10
-128.6250305175780966
 20
800.9999847412109375
 30
0.0
  0
VERTEX
  5
5AD
  8
MM_4_0_050
  6
CONTINUOUS
 62
     7
 10
-128.6250305175780966
 20
804.8999786376953125
 30
0.0
  0
SEQEND
  5
5AE
  8
MM_4_0_050
  6
CONTINUOUS
 62
     7
  0
POLYLINE
  5
5AF
  8
MM_4_0_050
  6
CONTINUOUS
 62
     7
 66
     1
 10
0.0
 20
0.0
 30
0.0
  0
VERTEX
  5
5B0
  8
MM_4_0_050
  6
CONTINUOUS
 62
     7
 10
-128.6250305175780966
 20
0.0
 30
0.0
  0
VERTEX
  5
5B1
  8
MM_4_0_050
  6
CONTINUOUS
 62
     7
 10
-128.6250305175780966
 20
-3.8999998569488521
 30
0.0
  0
SEQEND
  5
5B2
  8
MM_4_0_050
  6
CONTINUOUS
 62
     7
  0
POLYLINE
  5
5B3
  8
MM_4_0_050
  6
CONTINUOUS
 62
     7
 66
     1
 10
0.0
 20
0.0
 30
0.0
  0
VERTEX
  5
5B4
  8
MM_4_0_050
  6
CONTINUOUS
 62
     7
 10
-202.9375457763671875
 20
800.9999847412109375
 30
0.0
  0
VERTEX
  5
5B5
  8
MM_4_0_050
  6
CONTINUOUS
 62
     7
 10
-202.9375457763671875
 20
804.8999786376953125
 30
0.0
  0
SEQEND
  5
5B6
  8
MM_4_0_050
  6
CONTINUOUS
 62
     7
  0
POLYLINE
  5
5B7
  8
MM_4_0_050
  6
CONTINUOUS
 62
     7
 66
     1
 10
0.0
 20
0.0
 30
0.0
  0
VERTEX
  5
5B8
  8
MM_4_0_050
  6
CONTINUOUS
 62
     7
 10
-202.9375457763671875
 20
0.0
 30
0.0
  0
VERTEX
  5
5B9
  8
MM_4_0_050
  6
CONTINUOUS
 62
     7
 10
-202.9375457763671875
 20
-3.8999998569488521
 30
0.0
  0
SEQEND
  5
5BA
  8
MM_4_0_050
  6
CONTINUOUS
 62
     7
  0
POLYLINE
  5
5BB
  8
MM_4_0_050
  6
CONTINUOUS
 62
     7
 66
     1
 10
0.0
 20
0.0
 30
0.0
  0
VERTEX
  5
5BC
  8
MM_4_0_050
  6
CONTINUOUS
 62
     7
 10
-277.2499847412109943
 20
800.9999847412109375
 30
0.0
  0
VERTEX
  5
5BD
  8
MM_4_0_050
  6
CONTINUOUS
 62
     7
 10
-277.2499847412109943
 20
804.8999786376953125
 30
0.0
  0
SEQEND
  5
5BE
  8
MM_4_0_050
  6
CONTINUOUS
 62
     7
  0
POLYLINE
  5
5BF
  8
MM_4_0_050
  6
CONTINUOUS
 62
     7
 66
     1
 10
0.0
 20
0.0
 30
0.0
  0
VERTEX
  5
5C0
  8
MM_4_0_050
  6
CONTINUOUS
 62
     7
 10
-277.2499847412109943
 20
0.0
 30
0.0
  0
VERTEX
  5
5C1
  8
MM_4_0_050
  6
CONTINUOUS
 62
     7
 10
-277.2499847412109943
 20
-3.8999998569488521
 30
0.0
  0
SEQEND
  5
5C2
  8
MM_4_0_050
  6
CONTINUOUS
 62
     7
  0
POLYLINE
  5
5C3
  8
MM_4_0_050
  6
CONTINUOUS
 62
     7
 66
     1
 10
0.0
 20
0.0
 30
0.0
  0
VERTEX
  5
5C4
  8
MM_4_0_050
  6
CONTINUOUS
 62
     7
 10
-351.5625
 20
800.9999847412109375
 30
0.0
  0
VERTEX
  5
5C5
  8
MM_4_0_050
  6
CONTINUOUS
 62
     7
 10
-351.5625
 20
804.8999786376953125
 30
0.0
  0
SEQEND
  5
5C6
  8
MM_4_0_050
  6
CONTINUOUS
 62
     7
  0
POLYLINE
  5
5C7
  8
MM_4_0_050
  6
CONTINUOUS
 62
     7
 66
     1
 10
0.0
 20
0.0
 30
0.0
  0
VERTEX
  5
5C8
  8
MM_4_0_050
  6
CONTINUOUS
 62
     7
 10
-351.5625
 20
0.0
 30
0.0
  0
VERTEX
  5
5C9
  8
MM_4_0_050
  6
CONTINUOUS
 62
     7
 10
-351.5625
 20
-3.8999998569488521
 30
0.0
  0
SEQEND
  5
5CA
  8
MM_4_0_050
  6
CONTINUOUS
 62
     7
  0
POLYLINE
  5
5CB
  8
MM_4_0_050
  6
CONTINUOUS
 62
     7
 66
     1
 10
0.0
 20
0.0
 30
0.0
  0
VERTEX
  5
5CC
  8
MM_4_0_050
  6
CONTINUOUS
 62
     7
 10
-425.8750152587890057
 20
800.9999847412109375
 30
0.0
  0
VERTEX
  5
5CD
  8
MM_4_0_050
  6
CONTINUOUS
 62
     7
 10
-425.8750152587890057
 20
804.8999786376953125
 30
0.0
  0
SEQEND
  5
5CE
  8
MM_4_0_050
  6
CONTINUOUS
 62
     7
  0
POLYLINE
  5
5CF
  8
MM_4_0_050
  6
CONTINUOUS
 62
     7
 66
     1
 10
0.0
 20
0.0
 30
0.0
  0
VERTEX
  5
5D0
  8
MM_4_0_050
  6
CONTINUOUS
 62
     7
 10
-425.8750152587890057
 20
0.0
 30
0.0
  0
VERTEX
  5
5D1
  8
MM_4_0_050
  6
CONTINUOUS
 62
     7
 10
-425.8750152587890057
 20
-3.8999998569488521
 30
0.0
  0
SEQEND
  5
5D2
  8
MM_4_0_050
  6
CONTINUOUS
 62
     7
  0
POLYLINE
  5
5D3
  8
MM_4_0_050
  6
CONTINUOUS
 62
     7
 66
     1
 10
0.0
 20
0.0
 30
0.0
  0
VERTEX
  5
5D4
  8
MM_4_0_050
  6
CONTINUOUS
 62
     7
 10
-500.187530517578125
 20
800.9999847412109375
 30
0.0
  0
VERTEX
  5
5D5
  8
MM_4_0_050
  6
CONTINUOUS
 62
     7
 10
-500.187530517578125
 20
804.8999786376953125
 30
0.0
  0
SEQEND
  5
5D6
  8
MM_4_0_050
  6
CONTINUOUS
 62
     7
  0
POLYLINE
  5
5D7
  8
MM_4_0_050
  6
CONTINUOUS
 62
     7
 66
     1
 10
0.0
 20
0.0
 30
0.0
  0
VERTEX
  5
5D8
  8
MM_4_0_050
  6
CONTINUOUS
 62
     7
 10
-500.187530517578125
 20
0.0
 30
0.0
  0
VERTEX
  5
5D9
  8
MM_4_0_050
  6
CONTINUOUS
 62
     7
 10
-500.187530517578125
 20
-3.8999998569488521
 30
0.0
  0
SEQEND
  5
5DA
  8
MM_4_0_050
  6
CONTINUOUS
 62
     7
  0
POLYLINE
  5
5DB
  8
MM_4_0_050
  6
CONTINUOUS
 62
     7
 66
     1
 10
0.0
 20
0.0
 30
0.0
  0
VERTEX
  5
5DC
  8
MM_4_0_050
  6
CONTINUOUS
 62
     7
 10
-574.5000076293945313
 20
800.9999847412109375
 30
0.0
  0
VERTEX
  5
5DD
  8
MM_4_0_050
  6
CONTINUOUS
 62
     7
 10
-574.5000076293945313
 20
804.8999786376953125
 30
0.0
  0
SEQEND
  5
5DE
  8
MM_4_0_050
  6
CONTINUOUS
 62
     7
  0
POLYLINE
  5
5DF
  8
MM_4_0_050
  6
CONTINUOUS
 62
     7
 66
     1
 10
0.0
 20
0.0
 30
0.0
  0
VERTEX
  5
5E0
  8
MM_4_0_050
  6
CONTINUOUS
 62
     7
 10
-574.5000076293945313
 20
0.0
 30
0.0
  0
VERTEX
  5
5E1
  8
MM_4_0_050
  6
CONTINUOUS
 62
     7
 10
-574.5000076293945313
 20
-3.8999998569488521
 30
0.0
  0
SEQEND
  5
5E2
  8
MM_4_0_050
  6
CONTINUOUS
 62
     7
  0
POLYLINE
  5
5E3
  8
MM_4_0_050
  6
CONTINUOUS
 62
     7
 66
     1
 10
0.0
 20
0.0
 30
0.0
  0
VERTEX
  5
5E4
  8
MM_4_0_050
  6
CONTINUOUS
 62
     7
 10
-648.8125228881835938
 20
800.9999847412109375
 30
0.0
  0
VERTEX
  5
5E5
  8
MM_4_0_050
  6
CONTINUOUS
 62
     7
 10
-648.8125228881835938
 20
804.8999786376953125
 30
0.0
  0
SEQEND
  5
5E6
  8
MM_4_0_050
  6
CONTINUOUS
 62
     7
  0
POLYLINE
  5
5E7
  8
MM_4_0_050
  6
CONTINUOUS
 62
     7
 66
     1
 10
0.0
 20
0.0
 30
0.0
  0
VERTEX
  5
5E8
  8
MM_4_0_050
  6
CONTINUOUS
 62
     7
 10
-648.8125228881835938
 20
0.0
 30
0.0
  0
VERTEX
  5
5E9
  8
MM_4_0_050
  6
CONTINUOUS
 62
     7
 10
-648.8125228881835938
 20
-3.8999998569488521
 30
0.0
  0
SEQEND
  5
5EA
  8
MM_4_0_050
  6
CONTINUOUS
 62
     7
  0
POLYLINE
  5
5EB
  8
MM_4_0_050
  6
CONTINUOUS
 62
     7
 66
     1
 10
0.0
 20
0.0
 30
0.0
  0
VERTEX
  5
5EC
  8
MM_4_0_050
  6
CONTINUOUS
 62
     7
 10
-723.125
 20
800.9999847412109375
 30
0.0
  0
VERTEX
  5
5ED
  8
MM_4_0_050
  6
CONTINUOUS
 62
     7
 10
-723.125
 20
804.8999786376953125
 30
0.0
  0
SEQEND
  5
5EE
  8
MM_4_0_050
  6
CONTINUOUS
 62
     7
  0
POLYLINE
  5
5EF
  8
MM_4_0_050
  6
CONTINUOUS
 62
     7
 66
     1
 10
0.0
 20
0.0
 30
0.0
  0
VERTEX
  5
5F0
  8
MM_4_0_050
  6
CONTINUOUS
 62
     7
 10
-723.125
 20
0.0
 30
0.0
  0
VERTEX
  5
5F1
  8
MM_4_0_050
  6
CONTINUOUS
 62
     7
 10
-723.125
 20
-3.8999998569488521
 30
0.0
  0
SEQEND
  5
5F2
  8
MM_4_0_050
  6
CONTINUOUS
 62
     7
  0
POLYLINE
  5
5F3
  8
MM_4_0_050
  6
CONTINUOUS
 62
     7
 66
     1
 10
0.0
 20
0.0
 30
0.0
  0
VERTEX
  5
5F4
  8
MM_4_0_050
  6
CONTINUOUS
 62
     7
 10
-797.4375152587889488
 20
800.9999847412109375
 30
0.0
  0
VERTEX
  5
5F5
  8
MM_4_0_050
  6
CONTINUOUS
 62
     7
 10
-797.4375152587889488
 20
804.8999786376953125
 30
0.0
  0
SEQEND
  5
5F6
  8
MM_4_0_050
  6
CONTINUOUS
 62
     7
  0
POLYLINE
  5
5F7
  8
MM_4_0_050
  6
CONTINUOUS
 62
     7
 66
     1
 10
0.0
 20
0.0
 30
0.0
  0
VERTEX
  5
5F8
  8
MM_4_0_050
  6
CONTINUOUS
 62
     7
 10
-797.4375152587889488
 20
0.0
 30
0.0
  0
VERTEX
  5
5F9
  8
MM_4_0_050
  6
CONTINUOUS
 62
     7
 10
-797.4375152587889488
 20
-3.8999998569488521
 30
0.0
  0
SEQEND
  5
5FA
  8
MM_4_0_050
  6
CONTINUOUS
 62
     7
  0
POLYLINE
  5
5FB
  8
MM_4_0_050
  6
CONTINUOUS
 62
     7
 66
     1
 10
0.0
 20
0.0
 30
0.0
  0
VERTEX
  5
5FC
  8
MM_4_0_050
  6
CONTINUOUS
 62
     7
 10
-871.7500114440917969
 20
800.9999847412109375
 30
0.0
  0
VERTEX
  5
5FD
  8
MM_4_0_050
  6
CONTINUOUS
 62
     7
 10
-871.7500114440917969
 20
804.8999786376953125
 30
0.0
  0
SEQEND
  5
5FE
  8
MM_4_0_050
  6
CONTINUOUS
 62
     7
  0
POLYLINE
  5
5FF
  8
MM_4_0_050
  6
CONTINUOUS
 62
     7
 66
     1
 10
0.0
 20
0.0
 30
0.0
  0
VERTEX
  5
600
  8
MM_4_0_050
  6
CONTINUOUS
 62
     7
 10
-871.7500114440917969
 20
0.0
 30
0.0
  0
VERTEX
  5
601
  8
MM_4_0_050
  6
CONTINUOUS
 62
     7
 10
-871.7500114440917969
 20
-3.8999998569488521
 30
0.0
  0
SEQEND
  5
602
  8
MM_4_0_050
  6
CONTINUOUS
 62
     7
  0
POLYLINE
  5
603
  8
MM_4_0_050
  6
CONTINUOUS
 62
     7
 66
     1
 10
0.0
 20
0.0
 30
0.0
  0
VERTEX
  5
604
  8
MM_4_0_050
  6
CONTINUOUS
 62
     7
 10
-946.0625076293945313
 20
800.9999847412109375
 30
0.0
  0
VERTEX
  5
605
  8
MM_4_0_050
  6
CONTINUOUS
 62
     7
 10
-946.0625076293945313
 20
804.8999786376953125
 30
0.0
  0
SEQEND
  5
606
  8
MM_4_0_050
  6
CONTINUOUS
 62
     7
  0
POLYLINE
  5
607
  8
MM_4_0_050
  6
CONTINUOUS
 62
     7
 66
     1
 10
0.0
 20
0.0
 30
0.0
  0
VERTEX
  5
608
  8
MM_4_0_050
  6
CONTINUOUS
 62
     7
 10
-946.0625076293945313
 20
0.0
 30
0.0
  0
VERTEX
  5
609
  8
MM_4_0_050
  6
CONTINUOUS
 62
     7
 10
-946.0625076293945313
 20
-3.8999998569488521
 30
0.0
  0
SEQEND
  5
60A
  8
MM_4_0_050
  6
CONTINUOUS
 62
     7
  0
POLYLINE
  5
60B
  8
MM_4_0_050
  6
CONTINUOUS
 62
     7
 66
     1
 10
0.0
 20
0.0
 30
0.0
  0
VERTEX
  5
60C
  8
MM_4_0_050
  6
CONTINUOUS
 62
     7
 10
-1020.3750133514399749
 20
800.9999847412109375
 30
0.0
  0
VERTEX
  5
60D
  8
MM_4_0_050
  6
CONTINUOUS
 62
     7
 10
-1020.3750133514399749
 20
804.8999786376953125
 30
0.0
  0
SEQEND
  5
60E
  8
MM_4_0_050
  6
CONTINUOUS
 62
     7
  0
POLYLINE
  5
60F
  8
MM_4_0_050
  6
CONTINUOUS
 62
     7
 66
     1
 10
0.0
 20
0.0
 30
0.0
  0
VERTEX
  5
610
  8
MM_4_0_050
  6
CONTINUOUS
 62
     7
 10
-1020.3750133514399749
 20
0.0
 30
0.0
  0
VERTEX
  5
611
  8
MM_4_0_050
  6
CONTINUOUS
 62
     7
 10
-1020.3750133514399749
 20
-3.8999998569488521
 30
0.0
  0
SEQEND
  5
612
  8
MM_4_0_050
  6
CONTINUOUS
 62
     7
  0
POLYLINE
  5
613
  8
MM_4_0_050
  6
CONTINUOUS
 62
     7
 66
     1
 10
0.0
 20
0.0
 30
0.0
  0
VERTEX
  5
614
  8
MM_4_0_050
  6
CONTINUOUS
 62
     7
 10
-1094.6875143051149735
 20
800.9999847412109375
 30
0.0
  0
VERTEX
  5
615
  8
MM_4_0_050
  6
CONTINUOUS
 62
     7
 10
-1094.6875143051149735
 20
804.8999786376953125
 30
0.0
  0
SEQEND
  5
616
  8
MM_4_0_050
  6
CONTINUOUS
 62
     7
  0
POLYLINE
  5
617
  8
MM_4_0_050
  6
CONTINUOUS
 62
     7
 66
     1
 10
0.0
 20
0.0
 30
0.0
  0
VERTEX
  5
618
  8
MM_4_0_050
  6
CONTINUOUS
 62
     7
 10
-1094.6875143051149735
 20
0.0
 30
0.0
  0
VERTEX
  5
619
  8
MM_4_0_050
  6
CONTINUOUS
 62
     7
 10
-1094.6875143051149735
 20
-3.8999998569488521
 30
0.0
  0
SEQEND
  5
61A
  8
MM_4_0_050
  6
CONTINUOUS
 62
     7
  0
POLYLINE
  5
61B
  8
MM_4_0_050
  6
CONTINUOUS
 62
     7
 66
     1
 10
0.0
 20
0.0
 30
0.0
  0
VERTEX
  5
61C
  8
MM_4_0_050
  6
CONTINUOUS
 62
     7
 10
-1149.0000152587890625
 20
0.0
 30
0.0
  0
VERTEX
  5
61D
  8
MM_4_0_050
  6
CONTINUOUS
 62
     7
 10
-1149.0000152587890625
 20
800.9999847412109375
 30
0.0
  0
VERTEX
  5
61E
  8
MM_4_0_050
  6
CONTINUOUS
 62
     7
 10
0.0
 20
800.9999847412109375
 30
0.0
  0
VERTEX
  5
61F
  8
MM_4_0_050
  6
CONTINUOUS
 62
     7
 10
0.0
 20
0.0
 30
0.0
  0
VERTEX
  5
620
  8
MM_4_0_050
  6
CONTINUOUS
 62
     7
 10
-1149.0000152587890625
 20
0.0
 30
0.0
  0
SEQEND
  5
621
  8
MM_4_0_050
  6
CONTINUOUS
 62
     7
  0
INSERT
  5
622
  8
0
  2
*U196
 10
0.0
 20
0.0
 30
0.0
  0
ENDBLK
  5
623
  8
0
  0
BLOCK
  8
0
  2
FORMAT_A4L
 70
     0
 10
0.0
 20
0.0
 30
0.0
  3
FORMAT_A4L
  1

  0
POLYLINE
  5
824
  8
MM_4_0_050
  6
CONTINUOUS
 66
     1
 10
0.0
 20
0.0
 30
0.0
  0
VERTEX
  5
825
  8
MM_4_0_050
  6
CONTINUOUS
 10
-277.0000076293944744
 20
0.0
 30
0.0
  0
VERTEX
  5
826
  8
MM_4_0_050
  6
CONTINUOUS
 10
-277.0000076293944744
 20
190.0
 30
0.0
  0
VERTEX
  5
827
  8
MM_4_0_050
  6
CONTINUOUS
 10
0.0
 20
190.0
 30
0.0
  0
VERTEX
  5
828
  8
MM_4_0_050
  6
CONTINUOUS
 10
0.0
 20
0.0
 30
0.0
  0
VERTEX
  5
829
  8
MM_4_0_050
  6
CONTINUOUS
 10
-277.0000076293944744
 20
0.0
 30
0.0
  0
SEQEND
  5
82A
  8
MM_4_0_050
  6
CONTINUOUS
  0
INSERT
  5
82B
  8
0
  2
*U197
 10
0.0
 20
0.0
 30
0.0
  0
ENDBLK
  5
82C
  8
0
  0
BLOCK
  8
0
  2
FORMAT_A4P
 70
     0
 10
0.0
 20
0.0
 30
0.0
  3
FORMAT_A4P
  1

  0
INSERT
  5
97B
  8
0
  2
*U198
 10
0.0
 20
0.0
 30
0.0
  0
POLYLINE
  5
97C
  8
MM_4_0_050
  6
CONTINUOUS
 66
     1
 10
0.0
 20
0.0
 30
0.0
  0
VERTEX
  5
97D
  8
MM_4_0_050
  6
CONTINUOUS
 10
-190.0
 20
0.0
 30
0.0
  0
VERTEX
  5
97E
  8
MM_4_0_050
  6
CONTINUOUS
 10
-190.0
 20
277.0000076293944744
 30
0.0
  0
VERTEX
  5
97F
  8
MM_4_0_050
  6
CONTINUOUS
 10
0.0
 20
277.0000076293944744
 30
0.0
  0
VERTEX
  5
980
  8
MM_4_0_050
  6
CONTINUOUS
 10
0.0
 20
0.0
 30
0.0
  0
VERTEX
  5
981
  8
MM_4_0_050
  6
CONTINUOUS
 10
-190.0
 20
0.0
 30
0.0
  0
SEQEND
  5
982
  8
MM_4_0_050
  6
CONTINUOUS
  0
ENDBLK
  5
983
  8
0
  0
BLOCK
  8
0
  2
_CLOSEDBLANK
 70
     0
 10
0.0
 20
0.0
 30
0.0
  3
_CLOSEDBLANK
  1

  0
LINE
  5
B34
  8
0
  6
BYBLOCK
 62
     0
 10
-1.0
 20
0.1666666666666666
 30
0.0
 11
0.0
 21
0.0
 31
0.0
  0
LINE
  5
B35
  8
0
  6
BYBLOCK
 62
     0
 10
0.0
 20
0.0
 30
0.0
 11
-1.0
 21
-0.1666666666666666
 31
0.0
  0
LINE
  5
B36
  8
0
  6
BYBLOCK
 62
     0
 10
-1.0
 20
0.1666666666666666
 30
0.0
 11
-1.0
 21
-0.1666666666666666
 31
0.0
  0
ENDBLK
  5
B37
  8
0
  0
BLOCK
  8
0
  2
_DOTBLANK
 70
     0
 10
0.0
 20
0.0
 30
0.0
  3
_DOTBLANK
  1

  0
CIRCLE
  5
B3A
  8
0
  6
BYBLOCK
 62
     0
 10
0.0
 20
0.0
 30
0.0
 40
0.5
  0
LINE
  5
B3B
  8
0
  6
BYBLOCK
 62
     0
 10
-0.5
 20
0.0
 30
0.0
 11
-1.0
 21
0.0
 31
0.0
  0
ENDBLK
  5
B3C
  8
0
  0
BLOCK
  8
0
  2
_ARCHTICK
 70
     0
 10
0.0
 20
0.0
 30
0.0
  3
_ARCHTICK
  1

  0
POLYLINE
  5
B3F
  8
0
  6
BYBLOCK
 62
     0
 66
     1
 10
0.0
 20
0.0
 30
0.0
 40
0.15
 41
0.15
  0
VERTEX
  5
541F
  8
0
  6
BYBLOCK
 62
     0
 10
-0.5
 20
-0.5
 30
0.0
  0
VERTEX
  5
5420
  8
0
  6
BYBLOCK
 62
     0
 10
0.5
 20
0.5
 30
0.0
  0
SEQEND
  5
5421
  8
0
  6
BYBLOCK
 62
     0
  0
ENDBLK
  5
B40
  8
0
  0
BLOCK
  8
0
  2
_OBLIQUE
 70
     0
 10
0.0
 20
0.0
 30
0.0
  3
_OBLIQUE
  1

  0
LINE
  5
B43
  8
0
  6
BYBLOCK
 62
     0
 10
-0.5
 20
-0.5
 30
0.0
 11
0.5
 21
0.5
 31
0.0
  0
ENDBLK
  5
B44
  8
0
  0
BLOCK
  8
0
  2
_SMALL
 70
     0
 10
0.0
 20
0.0
 30
0.0
  3
_SMALL
  1

  0
CIRCLE
  5
B52
  8
0
 62
     0
 10
0.0
 20
0.0
 30
0.0
 40
0.25
  0
ENDBLK
  5
B53
  8
0
  0
BLOCK
  8
0
  2
MMISOMC
 70
     0
 10
0.0
 20
0.0
 30
0.0
  3
MMISOMC
  1

  0
ENDBLK
  5
B5E
  8
0
  0
BLOCK
  8
0
  2
GENAXEH
 70
     0
 10
0.0
 20
0.0
 30
0.0
  3
GENAXEH
  1

  0
LINE
  5
28FE
  8
0
 10
-1.0
 20
0.0
 30
0.0
 11
1.0
 21
0.0
 31
0.0
  0
ENDBLK
  5
2900
  8
0
  0
BLOCK
  8
0
  2
CLIPTOP
 70
     0
 10
0.9647446295021246
 20
1.3421447187102671
 30
0.0
  3
CLIPTOP
  1

  0
LINE
  5
347E
  8
0
 10
0.9647446295021246
 20
1.3421447187102671
 30
0.0
 11
3.0897446295021238
 21
1.3421447187102671
 31
0.0
  0
LINE
  5
347F
  8
0
 10
3.0897446295021238
 20
1.3421447187102671
 30
0.0
 11
3.0897446295021238
 21
1.654144718710268
 31
0.0
  0
LINE
  5
3480
  8
0
 10
3.0897446295021238
 20
1.654144718710268
 30
0.0
 11
2.2147446295021238
 21
1.654144718710268
 31
0.0
  0
LINE
  5
3481
  8
0
 10
2.2147446295021238
 20
1.654144718710268
 30
0.0
 11
2.2147446295021238
 21
1.378144718710268
 31
0.0
  0
LINE
  5
3482
  8
0
 10
2.2147446295021238
 20
1.378144718710268
 30
0.0
 11
1.839744629502124
 21
1.378144718710268
 31
0.0
  0
LINE
  5
3483
  8
0
 10
1.839744629502124
 20
1.378144718710268
 30
0.0
 11
1.839744629502124
 21
1.654144718710268
 31
0.0
  0
LINE
  5
3484
  8
0
 10
1.839744629502124
 20
1.654144718710268
 30
0.0
 11
0.9647446295021246
 21
1.654144718710268
 31
0.0
  0
LINE
  5
3485
  8
0
 10
0.9647446295021246
 20
1.654144718710268
 30
0.0
 11
0.9647446295021246
 21
1.3421447187102671
 31
0.0
  0
ARC
  5
3486
  8
0
 10
2.6522446295021238
 20
1.4716447187102679
 30
0.0
 40
0.0675
 50
180.0
 51
0.0
  0
LINE
  5
3487
  8
0
 10
2.7197446295021241
 20
1.654144718710268
 30
0.0
 11
2.7197446295021241
 21
1.4716447187102679
 31
0.0
  0
LINE
  5
3488
  8
0
 10
2.5847446295021239
 20
1.654144718710268
 30
0.0
 11
2.5847446295021239
 21
1.4716447187102679
 31
0.0
  0
LINE
  5
3489
  8
0
 10
1.3347446295021239
 20
1.654144718710268
 30
0.0
 11
1.3347446295021239
 21
1.4716447187102679
 31
0.0
  0
LINE
  5
348A
  8
0
 10
1.4697446295021239
 20
1.654144718710268
 30
0.0
 11
1.4697446295021239
 21
1.4716447187102679
 31
0.0
  0
ARC
  5
348B
  8
0
 10
1.402244629502124
 20
1.4716447187102679
 30
0.0
 40
0.0675
 50
180.0
 51
0.0
  0
LINE
  5
348C
  8
0
 10
2.5856328088619298
 20
1.62141843158641
 30
0.0
 11
2.7210453592905979
 21
1.62141843158641
 31
0.0
  0
LINE
  5
348D
  8
0
 10
1.333757597756092
 20
1.62141843158641
 30
0.0
 11
1.469170148184759
 21
1.62141843158641
 31
0.0
  0
LINE
  5
348E
  8
0
 10
2.882744629502124
 20
1.568842602181088
 30
0.0
 11
2.9221947982380359
 21
1.568842602181088
 31
0.0
  0
LINE
  5
348F
  8
0
 10
2.882744629502124
 20
1.4280759561145611
 30
0.0
 11
2.9221947982380359
 21
1.4280759561145611
 31
0.0
  0
LINE
  5
3490
  8
0
 10
2.922744629502124
 20
1.6541447187102689
 30
0.0
 11
2.922744629502124
 21
1.3421447187102671
 31
0.0
  0
LINE
  5
3491
  8
0
 10
2.882744629502124
 20
1.654144718710268
 30
0.0
 11
2.882744629502124
 21
1.3421447187102671
 31
0.0
  0
LINE
  5
3492
  8
0
 10
2.9221947982380359
 20
1.4280759561145611
 30
0.0
 11
2.9319702597704338
 21
1.3415631215528401
 31
0.0
  0
LINE
  5
3493
  8
0
 10
2.882744629502124
 20
1.4280759561145611
 30
0.0
 11
2.8733174905760479
 21
1.3415631215528401
 31
0.0
  0
LINE
  5
3494
  8
0
 10
2.9221947982380359
 20
1.568842602181088
 30
0.0
 11
2.9331921924619841
 21
1.653889117512948
 31
0.0
  0
LINE
  5
3495
  8
0
 10
2.882744629502124
 20
1.568842602181088
 30
0.0
 11
2.872095557884498
 21
1.653889117512948
 31
0.0
  0
LINE
  5
3496
  8
0
 10
2.3826329581522061
 20
1.568842602181088
 30
0.0
 11
2.371983886534581
 21
1.653889117512948
 31
0.0
  0
LINE
  5
3497
  8
0
 10
2.4220831268881189
 20
1.568842602181088
 30
0.0
 11
2.4330805211120659
 21
1.653889117512948
 31
0.0
  0
LINE
  5
3498
  8
0
 10
2.3826329581522061
 20
1.4280759561145611
 30
0.0
 11
2.3732058192261301
 21
1.3415631215528401
 31
0.0
  0
LINE
  5
3499
  8
0
 10
2.4220831268881189
 20
1.4280759561145611
 30
0.0
 11
2.4318585884205159
 21
1.3415631215528401
 31
0.0
  0
LINE
  5
349A
  8
0
 10
2.3826329581522061
 20
1.654144718710268
 30
0.0
 11
2.3826329581522061
 21
1.3421447187102671
 31
0.0
  0
LINE
  5
349B
  8
0
 10
2.4226329581522061
 20
1.6541447187102689
 30
0.0
 11
2.4226329581522061
 21
1.3421447187102671
 31
0.0
  0
LINE
  5
349C
  8
0
 10
2.3826329581522061
 20
1.4280759561145611
 30
0.0
 11
2.4220831268881189
 21
1.4280759561145611
 31
0.0
  0
LINE
  5
349D
  8
0
 10
2.3826329581522061
 20
1.568842602181088
 30
0.0
 11
2.4220831268881189
 21
1.568842602181088
 31
0.0
  0
LINE
  5
349E
  8
0
 10
1.632744629502124
 20
1.568842602181088
 30
0.0
 11
1.622095557884498
 21
1.653889117512948
 31
0.0
  0
LINE
  5
349F
  8
0
 10
1.672194798238037
 20
1.568842602181088
 30
0.0
 11
1.6831921924619839
 21
1.653889117512948
 31
0.0
  0
LINE
  5
34A0
  8
0
 10
1.632744629502124
 20
1.4280759561145611
 30
0.0
 11
1.6233174905760479
 21
1.3415631215528401
 31
0.0
  0
LINE
  5
34A1
  8
0
 10
1.672194798238037
 20
1.4280759561145611
 30
0.0
 11
1.681970259770434
 21
1.3415631215528401
 31
0.0
  0
LINE
  5
34A2
  8
0
 10
1.632744629502124
 20
1.654144718710268
 30
0.0
 11
1.632744629502124
 21
1.3421447187102671
 31
0.0
  0
LINE
  5
34A3
  8
0
 10
1.672744629502124
 20
1.6541447187102689
 30
0.0
 11
1.672744629502124
 21
1.3421447187102671
 31
0.0
  0
LINE
  5
34A4
  8
0
 10
1.632744629502124
 20
1.4280759561145611
 30
0.0
 11
1.672194798238037
 21
1.4280759561145611
 31
0.0
  0
LINE
  5
34A5
  8
0
 10
1.632744629502124
 20
1.568842602181088
 30
0.0
 11
1.672194798238037
 21
1.568842602181088
 31
0.0
  0
LINE
  5
34A6
  8
0
 10
1.1326329581522061
 20
1.568842602181088
 30
0.0
 11
1.1720831268881191
 21
1.568842602181088
 31
0.0
  0
LINE
  5
34A7
  8
0
 10
1.1326329581522061
 20
1.4280759561145611
 30
0.0
 11
1.1720831268881191
 21
1.4280759561145611
 31
0.0
  0
LINE
  5
34A8
  8
0
 10
1.172632958152207
 20
1.6541447187102689
 30
0.0
 11
1.172632958152207
 21
1.3421447187102671
 31
0.0
  0
LINE
  5
34A9
  8
0
 10
1.1326329581522061
 20
1.654144718710268
 30
0.0
 11
1.1326329581522061
 21
1.3421447187102671
 31
0.0
  0
LINE
  5
34AA
  8
0
 10
1.1720831268881191
 20
1.4280759561145611
 30
0.0
 11
1.1818585884205159
 21
1.3415631215528401
 31
0.0
  0
LINE
  5
34AB
  8
0
 10
1.1326329581522061
 20
1.4280759561145611
 30
0.0
 11
1.1232058192261301
 21
1.3415631215528401
 31
0.0
  0
LINE
  5
34AC
  8
0
 10
1.1720831268881191
 20
1.568842602181088
 30
0.0
 11
1.1830805211120661
 21
1.653889117512948
 31
0.0
  0
LINE
  5
34AD
  8
0
 10
1.1326329581522061
 20
1.568842602181088
 30
0.0
 11
1.121983886534581
 21
1.653889117512948
 31
0.0
  0
ENDBLK
  5
34AE
  8
0
  0
BLOCK
  8
0
  2
CLIPSID2
 70
     0
 10
17.3850389688424407
 20
17.1006513869144392
 30
0.0
  3
CLIPSID2
  1

  0
ARC
  5
34B1
  8
HL
 10
17.2290389688438985
 20
18.0646511549505
 30
0.0
 40
0.3124999999984026
 50
13.1190560673243493
 51
66.2342512126675871
  0
ARC
  5
34B2
  8
0
 10
17.2290389688438985
 20
18.0646511549505
 30
0.0
 40
0.3124999999984026
 50
3.241571045427039
 51
3.2415710454271358
  0
ARC
  5
34B3
  8
0
 10
17.2290389688424384
 20
18.0646511549494093
 30
0.0
 40
0.2765
 50
64.7102693261752648
 51
64.7102693261772117
  0
ARC
  5
34B4
  8
HL
 10
17.2290389688437209
 20
18.0646511549503899
 30
0.0
 40
0.2764999999985674
 50
14.8640953791161401
 51
64.7102693263280742
  0
LINE
  5
34B5
  8
0
 10
17.2290389688424384
 20
17.1306513869144403
 30
0.0
 11
17.2290389688424384
 21
17.4756513869144392
 31
0.0
  0
LINE
  5
34B6
  8
0
 10
17.2290389688424384
 20
17.5006513869144413
 30
0.0
 11
17.2650389688424504
 21
17.5006513869144413
 31
0.0
  0
LINE
  5
34B7
  8
0
 10
17.2650389688424504
 20
17.4756513869144392
 30
0.0
 11
17.2650389688424504
 21
17.1366513869144406
 31
0.0
  0
LINE
  5
34B8
  8
0
 10
17.2650389688424504
 20
17.1366513869144406
 30
0.0
 11
17.5050389688424488
 21
17.1366513869144406
 31
0.0
  0
LINE
  5
34B9
  8
0
 10
17.5410389688424502
 20
17.7886513869144416
 30
0.0
 11
17.5410389688424502
 21
17.1306513869144403
 31
0.0
  0
ARC
  5
34BA
  8
0
 10
17.5110389688424384
 20
17.1306513869144403
 30
0.0
 40
0.03
 50
270.0
 51
0.0
  0
LINE
  5
34BB
  8
0
 10
17.5110389688424384
 20
17.1006513869144392
 30
0.0
 11
17.2590389688424501
 21
17.1006513869144392
 31
0.0
  0
ARC
  5
34BC
  8
0
 10
17.2590389688424501
 20
17.1306513869144403
 30
0.0
 40
0.03
 50
180.0
 51
269.9999999999998863
  0
LINE
  5
34BD
  8
0
 10
17.5410389688424502
 20
18.0386513869144416
 30
0.0
 11
17.5410389688424502
 21
18.0823217519963002
 31
0.0
  0
LINE
  5
34BE
  8
HL
 10
17.3549759265472616
 20
18.3506513869144285
 30
0.0
 11
17.3471586115780916
 21
18.3146511549494093
 31
0.0
  0
LINE
  5
34BF
  8
0
 10
17.5050389688424488
 20
17.1366513869144406
 30
0.0
 11
17.5050389688424488
 21
17.8312719250879788
 31
0.0
  0
ARC
  5
34C0
  8
0
 10
17.2290389688424384
 20
18.0646511549494093
 30
0.0
 40
0.2765
 50
3.4462004238924502
 51
14.8640953792376393
  0
ARC
  5
34C1
  8
0
 10
17.2290389688424384
 20
18.0646511549494093
 30
0.0
 40
0.3125
 50
3.241571045611118
 51
13.1190560674578496
  0
LINE
  5
34C2
  8
0
 10
17.3800448988383813
 20
17.1616513869144391
 30
0.0
 11
17.47581030402322
 21
17.1616513869144391
 31
0.0
  0
LINE
  5
34C3
  8
0
 10
17.3800448988383813
 20
17.1616513869144391
 30
0.0
 11
17.2945139644366499
 21
17.1616513869144391
 31
0.0
  0
LINE
  5
34C4
  8
0
 10
17.5050389688424488
 20
17.1907906836939297
 30
0.0
 11
17.47581030402322
 21
17.1616751149546687
 31
0.0
  0
LINE
  5
34C5
  8
0
 10
17.2945139644366499
 20
17.1616513869144391
 30
0.0
 11
17.2650389688424504
 21
17.1909255992404901
 31
0.0
  0
LINE
  5
34C6
  8
0
 10
17.5410389688424502
 20
18.0386513869144416
 30
0.0
 11
17.5410389688424502
 21
17.7886513869144416
 31
0.0
  0
LINE
  5
34C7
  8
0
 10
17.5050389688424488
 20
18.0812719250879717
 30
0.0
 11
17.5050389688424488
 21
17.8312719250879788
 31
0.0
  0
LINE
  5
34C8
  8
0
 10
17.2650389688424504
 20
17.5006513869144413
 30
0.0
 11
17.2650389688424504
 21
17.4756513869144392
 31
0.0
  0
LINE
  5
34C9
  8
0
 10
17.2290389688424384
 20
17.5006513869144413
 30
0.0
 11
17.2290389688424384
 21
17.4756513869144392
 31
0.0
  0
ENDBLK
  5
34CA
  8
0
  0
BLOCK
  8
0
  2
DRAINPS
 70
     0
 10
5.7472693004061632
 20
5.8331711086567308
 30
0.0
  3
DRAINPS
  1

  0
LINE
  5
34CD
  8
0
 10
5.7472693004061641
 20
8.0946711086567316
 30
0.0
 11
5.7472693004061632
 21
3.5716711086567319
 31
0.0
  0
LINE
  5
34CE
  8
0
 10
5.7472693004061632
 20
3.5716711086567319
 30
0.0
 11
5.8722693004061632
 21
3.5716711086567319
 31
0.0
  0
LINE
  5
34CF
  8
0
 10
5.8722693004061632
 20
3.5716711086567319
 30
0.0
 11
5.9809959646229176
 21
4.0831898468340286
 31
0.0
  0
LINE
  5
34D0
  8
0
 10
5.7472693004061641
 20
8.0946711086567316
 30
0.0
 11
5.8722693004061641
 21
8.0946711086567316
 31
0.0
  0
LINE
  5
34D1
  8
0
 10
5.8722693004061641
 20
8.0946711086567316
 30
0.0
 11
5.9809959646229194
 21
7.583152370479433
 31
0.0
  0
LINE
  5
34D2
  8
0
 10
5.9809959646229176
 20
4.0831898468340269
 30
0.0
 11
5.9809959646229194
 21
7.5831898468340269
 31
0.0
  0
LINE
  5
34D3
  8
0
 10
5.8722693004061632
 20
3.5716711086567332
 30
0.0
 11
5.8722693004061641
 21
8.0946711086567316
 31
0.0
  0
ENDBLK
  5
34D4
  8
0
  0
BLOCK
  8
0
  2
DRAINP
 70
     0
 10
5.9749363477737036
 20
5.8633508992706398
 30
0.0
  3
DRAINP
  1

  0
CIRCLE
  5
34D7
  8
0
 10
5.9749363477737036
 20
5.8633508992706398
 30
0.0
 40
1.75
  0
CIRCLE
  5
34D8
  8
0
 10
5.9749363477737036
 20
5.8633508992706398
 30
0.0
 40
2.261499999999999
  0
ENDBLK
  5
34D9
  8
0
  0
BLOCK
  8
0
  2
CLIPEDGE
 70
     0
 10
19.9629130709649516
 20
19.7453937393996206
 30
0.0
  3
CLIPEDGE
  1

  0
LINE
  5
34DC
  8
0
 10
22.0879130709649516
 20
20.7260142775731602
 30
0.0
 11
21.2129130709649587
 21
20.7260142775731602
 31
0.0
  0
LINE
  5
34DD
  8
0
 10
20.8409442291612912
 20
20.7260142775731602
 30
0.0
 11
19.9629130709649516
 21
20.7260142775731602
 31
0.0
  0
LINE
  5
34DE
  8
0
 10
21.2129130709649587
 20
20.7453937393996206
 30
0.0
 11
21.2129130709649587
 21
20.4953937393996206
 31
0.0
  0
LINE
  5
34DF
  8
0
 10
20.8379130709649516
 20
20.7453937393996206
 30
0.0
 11
20.8379130709649516
 21
20.4953937393996206
 31
0.0
  0
LINE
  5
34E0
  8
HL
 10
19.9629130709649516
 20
20.9953937393996206
 30
0.0
 11
19.9629130709649516
 21
20.7803232670135394
 31
0.0
  0
ARC
  5
34E1
  8
0
 10
20.1099130709649607
 20
19.7653937393996202
 30
0.0
 40
0.02
 50
270.0000000000002274
 51
0.0
  0
ARC
  5
34E2
  8
0
 10
20.1899130709649484
 20
19.7653937393996202
 30
0.0
 40
0.02
 50
180.0
 51
269.9999999999997158
  0
ARC
  5
34E3
  8
0
 10
20.6109130709649584
 20
19.7653937393996202
 30
0.0
 40
0.02
 50
269.9999999999998863
 51
0.0
  0
ARC
  5
34E4
  8
0
 10
20.6909130709649602
 20
19.7653937393996202
 30
0.0
 40
0.02
 50
180.0
 51
269.9999999999998863
  0
ARC
  5
34E5
  8
0
 10
21.8609130709649584
 20
19.7653937393996202
 30
0.0
 40
0.02
 50
269.9999999999998863
 51
0.0
  0
ARC
  5
34E6
  8
0
 10
21.9409130709649602
 20
19.7653937393996202
 30
0.0
 40
0.02
 50
180.0
 51
269.9999999999998863
  0
ARC
  5
34E7
  8
0
 10
21.3599130709649607
 20
19.7653937393996202
 30
0.0
 40
0.02
 50
270.0000000000002274
 51
0.0
  0
ARC
  5
34E8
  8
0
 10
21.4399130709649484
 20
19.7653937393996202
 30
0.0
 40
0.02
 50
180.0
 51
269.9999999999997726
  0
LINE
  5
34E9
  8
DIM
 10
21.2129130709649587
 20
20.2453937393996206
 30
0.0
 11
21.2131912929627298
 21
20.2453937393996206
 31
0.0
  0
LINE
  5
34EA
  8
0
 10
20.4686605218611817
 20
19.7806135676572588
 30
0.0
 11
20.3326289678531111
 21
19.7806135676572588
 31
0.0
  0
LINE
  5
34EB
  8
0
 10
21.7189931033821715
 20
19.7806135676572588
 30
0.0
 11
21.5829615493741009
 21
19.7806135676572588
 31
0.0
  0
LINE
  5
34EC
  8
0
 10
20.8379130709649516
 20
19.9953937393996206
 30
0.0
 11
20.8379130709649516
 21
20.2453937393996206
 31
0.0
  0
LINE
  5
34ED
  8
0
 10
21.2129130709649587
 20
19.9953937393996206
 30
0.0
 11
21.2129130709649587
 21
20.2453937393996206
 31
0.0
  0
ARC
  5
34EE
  8
0
 10
20.7129130709649587
 20
20.0203937393996192
 30
0.0
 40
0.125
 50
0.0
 51
90.0
  0
ARC
  5
34EF
  8
0
 10
21.3379130709649587
 20
20.0203937393996192
 30
0.0
 40
0.125
 50
90.0
 51
179.9999999999998863
  0
LINE
  5
34F0
  8
0
 10
22.0879130709649516
 20
19.9953937393996206
 30
0.0
 11
22.0879130709649516
 21
20.7453937393996206
 31
0.0
  0
LINE
  5
34F1
  8
0
 10
19.9629130709649516
 20
19.9953937393996206
 30
0.0
 11
19.9629130709649516
 21
20.7453937393996206
 31
0.0
  0
ARC
  5
34F2
  8
0
 10
20.0879130709649587
 20
20.0203937393996192
 30
0.0
 40
0.125
 50
90.0
 51
179.9999999999998863
  0
LINE
  5
34F3
  8
0
 10
19.9629130709649516
 20
19.7453937393996206
 30
0.0
 11
19.9629130709649516
 21
19.9953937393996206
 31
0.0
  0
ARC
  5
34F4
  8
0
 10
21.9629130709649587
 20
20.0203937393996192
 30
0.0
 40
0.125
 50
0.0
 51
90.0
  0
LINE
  5
34F5
  8
0
 10
22.0879130709649516
 20
19.7453937393996206
 30
0.0
 11
22.0879130709649516
 21
19.9953937393996206
 31
0.0
  0
LINE
  5
34F6
  8
HL
 10
20.8379130709649516
 20
20.9593935074346085
 30
0.0
 11
19.9612376298785286
 21
20.9593935074346085
 31
0.0
  0
LINE
  5
34F7
  8
HL
 10
22.0879130709649516
 20
20.9593935074346085
 30
0.0
 11
21.2129130709649587
 21
20.9593935074346085
 31
0.0
  0
ARC
  5
34F8
  8
0
 10
20.1449130709649502
 20
19.85539373939962
 30
0.0
 40
0.015
 50
90.0
 51
179.9999999999998863
  0
ARC
  5
34F9
  8
0
 10
20.1549130709649589
 20
19.85539373939962
 30
0.0
 40
0.015
 50
0.0
 51
90.0
  0
ARC
  5
34FA
  8
0
 10
20.6459130709649514
 20
19.85539373939962
 30
0.0
 40
0.015
 50
90.0
 51
179.9999999999998863
  0
ARC
  5
34FB
  8
0
 10
20.6559130709649601
 20
19.85539373939962
 30
0.0
 40
0.015
 50
0.0
 51
90.0
  0
ARC
  5
34FC
  8
0
 10
21.3949130709649502
 20
19.85539373939962
 30
0.0
 40
0.015
 50
90.0
 51
179.9999999999998863
  0
ARC
  5
34FD
  8
0
 10
21.4049130709649589
 20
19.85539373939962
 30
0.0
 40
0.015
 50
0.0
 51
90.0
  0
ARC
  5
34FE
  8
0
 10
21.8959130709649514
 20
19.85539373939962
 30
0.0
 40
0.015
 50
89.9999999999979678
 51
179.9999999999998863
  0
ARC
  5
34FF
  8
0
 10
21.9059130709649601
 20
19.85539373939962
 30
0.0
 40
0.015
 50
0.0000000000003053
 51
89.9999999999974563
  0
LINE
  5
3500
  8
0
 10
21.4399130709649484
 20
19.7453937393996206
 30
0.0
 11
21.8609130709649584
 21
19.7453937393996206
 31
0.0
  0
LINE
  5
3501
  8
0
 10
21.9409130709649602
 20
19.7453937393996206
 30
0.0
 11
22.0879130709649516
 21
19.7453937393996206
 31
0.0
  0
LINE
  5
3502
  8
0
 10
21.9209130709649607
 20
19.7703937393996192
 30
0.0
 11
21.8809130709649615
 21
19.7703937393996192
 31
0.0
  0
LINE
  5
3503
  8
0
 10
21.9209130709649607
 20
19.7703937393996192
 30
0.0
 11
21.9209130709649607
 21
19.85539373939962
 31
0.0
  0
LINE
  5
3504
  8
0
 10
21.8809130709649615
 20
19.7703937393996192
 30
0.0
 11
21.8809130709649615
 21
19.85539373939962
 31
0.0
  0
LINE
  5
3505
  8
0
 10
21.9059130709649601
 20
19.8703937393996206
 30
0.0
 11
21.8959130709649585
 21
19.8703937393996206
 31
0.0
  0
LINE
  5
3506
  8
0
 10
21.9209130709649607
 20
19.7653937393996202
 30
0.0
 11
21.9209130709649607
 21
19.7703937393996192
 31
0.0
  0
LINE
  5
3507
  8
0
 10
21.8809130709649615
 20
19.7653937393996202
 30
0.0
 11
21.8809130709649615
 21
19.7703937393996192
 31
0.0
  0
LINE
  5
3508
  8
0
 10
21.4199130709649594
 20
19.7703937393996192
 30
0.0
 11
21.3799130709649603
 21
19.7703937393996192
 31
0.0
  0
LINE
  5
3509
  8
0
 10
21.4199130709649594
 20
19.7703937393996192
 30
0.0
 11
21.4199130709649594
 21
19.85539373939962
 31
0.0
  0
LINE
  5
350A
  8
0
 10
21.3799130709649603
 20
19.7703937393996192
 30
0.0
 11
21.3799130709649496
 21
19.85539373939962
 31
0.0
  0
LINE
  5
350B
  8
0
 10
21.4049130709649589
 20
19.8703937393996206
 30
0.0
 11
21.3949130709649502
 21
19.8703937393996206
 31
0.0
  0
LINE
  5
350C
  8
0
 10
21.4199130709649594
 20
19.7653937393996202
 30
0.0
 11
21.4199130709649594
 21
19.7703937393996192
 31
0.0
  0
LINE
  5
350D
  8
0
 10
21.3799130709649603
 20
19.7653937393996202
 30
0.0
 11
21.3799130709649603
 21
19.7703937393996192
 31
0.0
  0
LINE
  5
350E
  8
0
 10
20.1299130709649603
 20
19.7653937393996202
 30
0.0
 11
20.1299130709649603
 21
19.7703937393996192
 31
0.0
  0
LINE
  5
350F
  8
0
 10
20.1699130709649594
 20
19.7653937393996202
 30
0.0
 11
20.1699130709649594
 21
19.7703937393996192
 31
0.0
  0
LINE
  5
3510
  8
0
 10
20.6309130709649615
 20
19.7653937393996202
 30
0.0
 11
20.6309130709649509
 21
19.7703937393996192
 31
0.0
  0
LINE
  5
3511
  8
0
 10
20.6709130709649607
 20
19.7653937393996202
 30
0.0
 11
20.6709130709649607
 21
19.7703937393996192
 31
0.0
  0
LINE
  5
3512
  8
0
 10
20.1549130709649589
 20
19.8703937393996206
 30
0.0
 11
20.1449130709649502
 21
19.8703937393996206
 31
0.0
  0
LINE
  5
3513
  8
0
 10
20.6559130709649601
 20
19.8703937393996206
 30
0.0
 11
20.6459130709649514
 21
19.8703937393996206
 31
0.0
  0
LINE
  5
3514
  8
0
 10
20.1299130709649603
 20
19.7703937393996192
 30
0.0
 11
20.1299130709649603
 21
19.85539373939962
 31
0.0
  0
LINE
  5
3515
  8
0
 10
20.1699130709649594
 20
19.7703937393996192
 30
0.0
 11
20.1699130709649594
 21
19.85539373939962
 31
0.0
  0
LINE
  5
3516
  8
0
 10
20.6309130709649509
 20
19.7703937393996192
 30
0.0
 11
20.6309130709649509
 21
19.85539373939962
 31
0.0
  0
LINE
  5
3517
  8
0
 10
20.6709130709649607
 20
19.7703937393996192
 30
0.0
 11
20.6709130709649607
 21
19.85539373939962
 31
0.0
  0
LINE
  5
3518
  8
0
 10
20.1699130709649594
 20
19.7703937393996192
 30
0.0
 11
20.1299130709649603
 21
19.7703937393996192
 31
0.0
  0
LINE
  5
3519
  8
0
 10
20.6309130709649509
 20
19.7703937393996192
 30
0.0
 11
20.6709130709649607
 21
19.7703937393996192
 31
0.0
  0
LINE
  5
351A
  8
0
 10
20.1899130709649484
 20
19.7453937393996206
 30
0.0
 11
20.6109130709649584
 21
19.7453937393996206
 31
0.0
  0
LINE
  5
351B
  8
0
 10
20.6909130709649602
 20
19.7453937393996206
 30
0.0
 11
20.8379130709649516
 21
19.7453937393996206
 31
0.0
  0
ARC
  5
351C
  8
0
 10
21.6504130709649587
 20
19.9323937393996182
 30
0.0
 40
0.125
 50
302.6836388462581908
 51
237.3163611537418092
  0
ARC
  5
351D
  8
0
 10
20.4004130709649587
 20
19.9323937393996182
 30
0.0
 40
0.125
 50
302.6836388462583045
 51
237.3163611537416955
  0
LINE
  5
351E
  8
0
 10
20.332913070964949
 20
19.8271856123371215
 30
0.0
 11
20.332913070964949
 21
19.7453937393996206
 31
0.0
  0
LINE
  5
351F
  8
0
 10
20.4679130709649613
 20
19.8271856123371215
 30
0.0
 11
20.4679130709649613
 21
19.7434970907249898
 31
0.0
  0
LINE
  5
3520
  8
0
 10
21.582913070964949
 20
19.8271856123371215
 30
0.0
 11
21.582913070964949
 21
19.7453937393996206
 31
0.0
  0
LINE
  5
3521
  8
0
 10
21.7179130709649613
 20
19.8271856123371215
 30
0.0
 11
21.7179130709649613
 21
19.7453937393996206
 31
0.0
  0
LINE
  5
3522
  8
0
 10
21.9629130709649587
 20
20.1453937393996192
 30
0.0
 11
21.3379130709649587
 21
20.1453937393996192
 31
0.0
  0
LINE
  5
3523
  8
0
 10
20.7129130709649587
 20
20.1453937393996192
 30
0.0
 11
20.0879130709649587
 21
20.1453937393996192
 31
0.0
  0
LINE
  5
3524
  8
HL
 10
20.8379130709649516
 20
20.9953937393996206
 30
0.0
 11
19.9629130709649516
 21
20.9953937393996206
 31
0.0
  0
LINE
  5
3525
  8
0
 10
21.2129130709649587
 20
20.4953937393996206
 30
0.0
 11
20.8379130709649516
 21
20.4953937393996206
 31
0.0
  0
LINE
  5
3526
  8
HL
 10
21.2129130709649587
 20
20.9953937393996206
 30
0.0
 11
21.2129130709649587
 21
20.7803232670135394
 31
0.0
  0
LINE
  5
3527
  8
HL
 10
22.0879130709649516
 20
20.9953937393996206
 30
0.0
 11
21.2129130709649587
 21
20.9953937393996206
 31
0.0
  0
LINE
  5
3528
  8
0
 10
21.2129130709649587
 20
19.7453937393996206
 30
0.0
 11
21.3599130709649607
 21
19.7453937393996206
 31
0.0
  0
LINE
  5
3529
  8
0
 10
21.2129130709649587
 20
19.9953937393996206
 30
0.0
 11
21.2129130709649587
 21
19.7453937393996206
 31
0.0
  0
LINE
  5
352A
  8
0
 10
20.8379130709649516
 20
20.2453937393996206
 30
0.0
 11
21.2129130709649587
 21
20.2453937393996206
 31
0.0
  0
LINE
  5
352B
  8
0
 10
20.8379130709649516
 20
19.7453937393996206
 30
0.0
 11
20.8379130709649516
 21
19.9953937393996206
 31
0.0
  0
LINE
  5
352C
  8
0
 10
19.9629130709649516
 20
19.7453937393996206
 30
0.0
 11
20.1099130709649607
 21
19.7453937393996206
 31
0.0
  0
LINE
  5
352D
  8
HL
 10
22.0879130709649516
 20
20.7803232670135394
 30
0.0
 11
22.0879130709649516
 21
20.9953937393996206
 31
0.0
  0
LINE
  5
352E
  8
HL
 10
20.8379130709649516
 20
20.7803232670135394
 30
0.0
 11
20.8379130709649516
 21
20.9953937393996206
 31
0.0
  0
LINE
  5
352F
  8
0
 10
22.0879130709649516
 20
20.7453937393996206
 30
0.0
 11
22.0879130709649587
 21
20.7803232670135394
 31
0.0
  0
LINE
  5
3530
  8
0
 10
21.2129130709649587
 20
20.7453937393996206
 30
0.0
 11
21.2129130709649587
 21
20.7803232670135394
 31
0.0
  0
LINE
  5
3531
  8
0
 10
20.8379130709649516
 20
20.7453937393996206
 30
0.0
 11
20.8379130709649587
 21
20.7803232670135394
 31
0.0
  0
LINE
  5
3532
  8
0
 10
19.9629130709649516
 20
20.7453937393996206
 30
0.0
 11
19.9629130709649587
 21
20.7803232670135394
 31
0.0
  0
ENDBLK
  5
3533
  8
0
  0
BLOCK
  8
0
  2
BRACLIPT
 70
     0
 10
4.9627886604459182
 20
5.4117129800835491
 30
0.0
  3
BRACLIPT
  1

  0
LINE
  5
3536
  8
H
 10
5.4127886604459183
 20
5.6617129800835491
 30
0.0
 11
5.6877886604459178
 21
5.6617129800835491
 31
0.0
  0
LINE
  5
3537
  8
H
 10
4.7002886604459171
 20
5.4117129800835491
 30
0.0
 11
5.2252886604459183
 21
5.4117129800835491
 31
0.0
  0
LINE
  5
3538
  8
H
 10
4.2377886604459167
 20
5.6617129800835491
 30
0.0
 11
4.5127886604459171
 21
5.6617129800835491
 31
0.0
  0
ARC
  5
3539
  8
H
 10
4.5127886604459171
 20
5.5367129800835491
 30
0.0
 40
0.125
 50
0.0
 51
90.0
  0
ARC
  5
353A
  8
H
 10
4.7002886604459171
 20
5.4742129800835491
 30
0.0
 40
0.0625
 50
180.0
 51
270.0
  0
LINE
  5
353B
  8
H
 10
4.6377886604459171
 20
5.5367129800835491
 30
0.0
 11
4.6377886604459171
 21
5.4742129800835491
 31
0.0
  0
LINE
  5
353C
  8
H
 10
5.2877886604459183
 20
5.5367129800835491
 30
0.0
 11
5.2877886604459183
 21
5.4742129800835491
 31
0.0
  0
ARC
  5
353D
  8
H
 10
5.2252886604459183
 20
5.4742129800835491
 30
0.0
 40
0.0625
 50
270.0
 51
0.0
  0
ARC
  5
353E
  8
H
 10
5.4127886604459183
 20
5.5367129800835491
 30
0.0
 40
0.125
 50
90.0
 51
180.0
  0
ENDBLK
  5
353F
  8
0
  0
BLOCK
  8
0
  2
BRACK
 70
     0
 10
5.9000000000000004
 20
6.75
 30
0.0
  3
BRACK
  1

  0
LINE
  5
3542
  8
0
 10
2.5
 20
6.25
 30
0.0
 11
3.3999999999999999
 21
6.25
 31
0.0
  0
LINE
  5
3543
  8
0
 10
2.5
 20
6.75
 30
0.0
 11
2.5
 21
6.25
 31
0.0
  0
LINE
  5
3544
  8
0
 10
3.3999999999999999
 20
6.25
 30
0.0
 11
3.399999999999999
 21
6.75
 31
0.0
  0
LINE
  5
3545
  8
0
 10
5.4000000000000004
 20
6.25
 30
0.0
 11
3.3999999999999999
 21
6.25
 31
0.0
  0
LINE
  5
3546
  8
0
 10
6.4000000000000004
 20
6.75
 30
0.0
 11
5.4000000000000004
 21
6.75
 31
0.0
  0
LINE
  5
3547
  8
0
 10
8.4000000000000004
 20
6.25
 30
0.0
 11
6.4000000000000004
 21
6.25
 31
0.0
  0
LINE
  5
3548
  8
0
 10
9.3000000000000007
 20
6.75
 30
0.0
 11
8.4000000000000004
 21
6.75
 31
0.0
  0
LINE
  5
3549
  8
0
 10
9.3000000000000007
 20
6.25
 30
0.0
 11
9.3000000000000007
 21
6.75
 31
0.0
  0
LINE
  5
354A
  8
0
 10
8.4000000000000004
 20
6.25
 30
0.0
 11
9.3000000000000007
 21
6.25
 31
0.0
  0
LINE
  5
354B
  8
0
 10
8.4000000000000004
 20
6.75
 30
0.0
 11
8.4000000000000004
 21
6.25
 31
0.0
  0
LINE
  5
354C
  8
0
 10
6.4000000000000004
 20
6.75
 30
0.0
 11
8.4000000000000004
 21
6.75
 31
0.0
  0
LINE
  5
354D
  8
0
 10
6.4000000000000004
 20
6.25
 30
0.0
 11
6.4000000000000004
 21
6.75
 31
0.0
  0
LINE
  5
354E
  8
0
 10
5.4000000000000004
 20
6.25
 30
0.0
 11
6.4000000000000004
 21
6.25
 31
0.0
  0
LINE
  5
354F
  8
0
 10
5.4000000000000004
 20
6.75
 30
0.0
 11
5.4000000000000004
 21
6.25
 31
0.0
  0
LINE
  5
3550
  8
0
 10
3.399999999999999
 20
6.75
 30
0.0
 11
5.4000000000000004
 21
6.75
 31
0.0
  0
LINE
  5
3551
  8
0
 10
2.5
 20
6.75
 30
0.0
 11
3.399999999999999
 21
6.75
 31
0.0
  0
ENDBLK
  5
3552
  8
0
  0
BLOCK
  8
0
  2
BRACLIPS
 70
     0
 10
70.6039186962094902
 20
31.5588771732284599
 30
0.0
  3
BRACLIPS
  1

  0
LINE
  5
3555
  8
0
 10
70.8529573338216494
 20
31.1826739805440312
 30
0.0
 11
70.3539186962094902
 21
31.1826739805440205
 31
0.0
  0
LINE
  5
3556
  8
0
 10
70.3539186962094902
 20
31.4338771732284599
 30
0.0
 11
70.8539186962094902
 21
31.4338771732284599
 31
0.0
  0
LINE
  5
3557
  8
0
 10
70.8539186962094902
 20
31.4338771732284599
 30
0.0
 11
70.8539186962094902
 21
30.8838771732284592
 31
0.0
  0
LINE
  5
3558
  8
0
 10
70.8539186962094902
 20
30.8838771732284592
 30
0.0
 11
70.3539186962094902
 21
30.8838771732284592
 31
0.0
  0
LINE
  5
3559
  8
0
 10
70.3539186962094902
 20
30.8838771732284592
 30
0.0
 11
70.3539186962094902
 21
31.4338771732284599
 31
0.0
  0
LINE
  5
355A
  8
0
 10
70.8539186962094902
 20
31.4338771732284599
 30
0.0
 11
70.7789186962094732
 21
31.4338771732284599
 31
0.0
  0
LINE
  5
355B
  8
0
 10
70.8039186962094931
 20
31.4338771732284599
 30
0.0
 11
70.8039186962094931
 21
31.5588771732284599
 31
0.0
  0
LINE
  5
355C
  8
0
 10
70.8039186962094931
 20
31.5588771732284599
 30
0.0
 11
70.4039186962094874
 21
31.5588771732284599
 31
0.0
  0
LINE
  5
355D
  8
0
 10
70.4039186962094874
 20
31.5588771732284599
 30
0.0
 11
70.4039186962094874
 21
31.4338771732284599
 31
0.0
  0
LINE
  5
355E
  8
H
 10
70.8039186962094931
 20
31.4391125589448812
 30
0.0
 11
70.8039186962094931
 21
31.3141125589448812
 31
0.0
  0
LINE
  5
355F
  8
H
 10
70.8039186962094931
 20
31.3141125589448812
 30
0.0
 11
70.4039186962094874
 21
31.3141125589448812
 31
0.0
  0
LINE
  5
3560
  8
H
 10
70.4039186962094874
 20
31.3141125589448812
 30
0.0
 11
70.4039186962094874
 21
31.4391125589448812
 31
0.0
  0
LINE
  5
3561
  8
0
 10
70.8539186962094902
 20
31.4338771732284599
 30
0.0
 11
70.8539186962094902
 21
31.1838771732284599
 31
0.0
  0
LINE
  5
3562
  8
0
 10
70.8539186962094902
 20
30.8838771732284592
 30
0.0
 11
70.8539186962094902
 21
31.1338771732284592
 31
0.0
  0
LINE
  5
3563
  8
H
 10
70.8539186962094902
 20
31.1338771732284592
 30
0.0
 11
70.3539186962094902
 21
31.1338771732284592
 31
0.0
  0
ENDBLK
  5
3564
  8
0
  0
BLOCK
  8
0
  2
_DOT
 70
     0
 10
0.0
 20
0.0
 30
0.0
  3
_DOT
  1

  0
POLYLINE
  5
3667
  8
0
  6
BYBLOCK
 62
     0
 66
     1
 10
0.0
 20
0.0
 30
0.0
 70
     1
 40
0.5
 41
0.5
  0
VERTEX
  5
54CC
  8
0
  6
BYBLOCK
 62
     0
 10
-0.25
 20
0.0
 30
0.0
 42
1.0
  0
VERTEX
  5
54CD
  8
0
  6
BYBLOCK
 62
     0
 10
0.25
 20
0.0
 30
0.0
 42
1.0
  0
SEQEND
  5
54CE
  8
0
  6
BYBLOCK
 62
     0
  0
LINE
  5
3668
  8
0
  6
BYBLOCK
 62
     0
 10
-0.5
 20
0.0
 30
0.0
 11
-1.0
 21
0.0
 31
0.0
  0
ENDBLK
  5
3669
  8
0
  0
BLOCK
  8
0
  2
A
 70
     0
 10
51.8021221599766335
 20
63.9445566541577577
 30
0.0
  3
A
  1

  0
LINE
  5
3C66
  8
LEGEND
 10
52.2510535946767831
 20
65.0555110507195593
 30
0.0
 11
51.7080742270577076
 21
63.7916617846694365
 31
0.0
  0
LINE
  5
3C67
  8
LEGEND
 10
52.2510535946767831
 20
65.0555110507195593
 30
0.0
 11
52.7305114578653118
 21
63.7916617846694365
 31
0.0
  0
TEXT
  5
3C68
  8
LEGEND
 10
51.9619113147004086
 20
63.9826030376016632
 30
0.0
 40
0.75
  1
A
  7
SX
  0
LINE
  5
3C69
  8
LEGEND
 10
51.7080742270577076
 20
63.7916617846694365
 30
0.0
 11
52.7305114578653118
 21
63.7916617846694365
 31
0.0
  0
ENDBLK
  5
3C6A
  8
0
  0
BLOCK
  8
0
  2
B
 70
     0
 10
51.920061774177519
 20
62.7232677456086734
 30
0.0
  3
B
  1

  0
TEXT
  5
3C6D
  8
LEGEND
 10
51.9619113147004086
 20
62.6968887518873714
 30
0.0
 40
0.75
  1
B
  7
SX
  0
CIRCLE
  5
3C6E
  8
LEGEND
 10
52.1836213378064926
 20
63.0765969690812511
 30
0.0
 40
0.6064823292437282
  0
ENDBLK
  5
3C6F
  8
0
  0
BLOCK
  8
0
  2
2_MAWH
 70
     0
 10
0.0
 20
0.0
 30
0.0
  3
2_MAWH
  1

  0
TEXT
  5
3D46
  8
DIM
 10
-11.1885976850433906
 20
-1.810921389599577
 30
0.0
 40
0.75
  1
WASTE HOLE
  7
SX
 72
     1
 11
-7.6885976850433897
 21
-1.810921389599577
 31
0.0
  0
TEXT
  5
3D47
  8
DIM
 10
-11.67074054218625
 20
-0.5252071038852933
 30
0.0
 40
0.75
  1
MEASURED AT
  7
SX
 72
     1
 11
-7.6885976850433897
 21
-0.5252071038852933
 31
0.0
  0
ENDBLK
  5
3D48
  8
0
  0
BLOCK
  8
0
  2
*D26
 70
     1
 10
0.0
 20
0.0
 30
0.0
  3
*D26
  1

  0
LINE
  5
4EF6
  8
DIM
 62
     1
 10
153.7384412379552998
 20
313.9285232944060908
 30
0.0
 11
156.5091476497408962
 21
313.9285232944060908
 31
0.0
  0
LINE
  5
4EF7
  8
DIM
 62
     1
 10
152.3634412379552998
 20
304.9285232944060908
 30
0.0
 11
156.5091476497408962
 21
304.9285232944060908
 31
0.0
  0
LINE
  5
4EF8
  8
DIM
 62
     1
 10
156.2591476497408962
 20
313.6785232944060908
 30
0.0
 11
156.2591476497408962
 21
310.1785232944060908
 31
0.0
  0
LINE
  5
4EF9
  8
DIM
 62
     1
 10
156.2591476497408962
 20
305.1785232944060908
 30
0.0
 11
156.2591476497408962
 21
308.6785232944060908
 31
0.0
  0
SOLID
  5
4EFA
  8
DIM
 62
     1
 10
156.2174809830742106
 20
313.6785232944060908
 30
0.0
 11
156.3008143164076102
 21
313.6785232944060908
 31
0.0
 12
156.2591476497408962
 22
313.9285232944060908
 32
0.0
 13
156.2591476497408962
 23
313.9285232944060908
 33
0.0
  0
SOLID
  5
4EFB
  8
DIM
 62
     1
 10
156.2174809830742106
 20
305.1785232944060908
 30
0.0
 11
156.3008143164076102
 21
305.1785232944060908
 31
0.0
 12
156.2591476497408962
 22
304.9285232944060908
 32
0.0
 13
156.2591476497408962
 23
304.9285232944060908
 33
0.0
  0
INSERT
  5
4EFC
  8
0
  2
*U243
 10
0.0
 20
0.0
 30
0.0
  0
POINT
  5
4EFD
  8
DEFPOINTS
 62
     0
 10
153.4884412379552998
 20
313.9285232944060908
 30
0.0
  0
POINT
  5
4EFE
  8
DEFPOINTS
 62
     0
 10
152.1134412379552998
 20
304.9285232944060908
 30
0.0
  0
POINT
  5
4EFF
  8
DEFPOINTS
 62
     0
 10
156.2591476497408962
 20
304.9285232944060908
 30
0.0
  0
ENDBLK
  5
4E0F
  8
0
  0
BLOCK
  8
0
  2
*D27
 70
     1
 10
0.0
 20
0.0
 30
0.0
  3
*D27
  1

  0
LINE
  5
4F00
  8
DIM
 62
     1
 10
121.4884412379552998
 20
305.0535232944059771
 30
0.0
 11
121.4884412379552998
 21
300.5715385289703931
 31
0.0
  0
LINE
  5
4F01
  8
DIM
 62
     1
 10
129.9884412379551861
 20
301.8819274029298754
 30
0.0
 11
129.9884412379551861
 21
300.5715385289703931
 31
0.0
  0
LINE
  5
4F02
  8
DIM
 62
     1
 10
121.7384412379552003
 20
300.8215385289703931
 30
0.0
 11
123.2826566578628018
 21
300.8215385289703931
 31
0.0
  0
LINE
  5
4F03
  8
DIM
 62
     1
 10
129.7384412379552998
 20
300.8215385289703931
 30
0.0
 11
128.115989991196102
 21
300.8215385289703931
 31
0.0
  0
SOLID
  5
4F04
  8
DIM
 62
     1
 10
121.7384412379552003
 20
300.8632051956370219
 30
0.0
 11
121.7384412379552003
 21
300.7798718623035938
 31
0.0
 12
121.4884412379552998
 22
300.8215385289703931
 32
0.0
 13
121.4884412379552998
 23
300.8215385289703931
 33
0.0
  0
SOLID
  5
4F05
  8
DIM
 62
     1
 10
129.7384412379552998
 20
300.8632051956370219
 30
0.0
 11
129.7384412379552998
 21
300.7798718623035938
 31
0.0
 12
129.9884412379551861
 22
300.8215385289703931
 32
0.0
 13
129.9884412379551861
 23
300.8215385289703931
 33
0.0
  0
INSERT
  5
4F06
  8
0
  2
*U244
 10
0.0
 20
0.0
 30
0.0
  0
POINT
  5
4F07
  8
DEFPOINTS
 62
     0
 10
121.4884412379552998
 20
305.3035232944059771
 30
0.0
  0
POINT
  5
4F08
  8
DEFPOINTS
 62
     0
 10
129.9884412379551861
 20
302.1319274029298754
 30
0.0
  0
POINT
  5
4F09
  8
DEFPOINTS
 62
     0
 10
129.9884412379551861
 20
300.8215385289703931
 30
0.0
  0
ENDBLK
  5
4E1C
  8
0
  0
BLOCK
  8
0
  2
*D28
 70
     1
 10
0.0
 20
0.0
 30
0.0
  3
*D28
  1

  0
LINE
  5
4F0A
  8
DIM
 62
     1
 10
152.4884412379552998
 20
305.0535232944059771
 30
0.0
 11
152.4884412379552998
 21
300.5715385289703931
 31
0.0
  0
LINE
  5
4F0B
  8
DIM
 62
     1
 10
145.9884412379552998
 20
301.7558423787734228
 30
0.0
 11
145.9884412379552998
 21
300.5715385289703931
 31
0.0
  0
LINE
  5
4F0C
  8
DIM
 62
     1
 10
152.2384412379551861
 20
300.8215385289703931
 30
0.0
 11
151.6438529121504075
 21
300.8215385289703931
 31
0.0
  0
LINE
  5
4F0D
  8
DIM
 62
     1
 10
146.2384412379552998
 20
300.8215385289703931
 30
0.0
 11
146.8105195788170931
 21
300.8215385289703931
 31
0.0
  0
SOLID
  5
4F0E
  8
DIM
 62
     1
 10
152.2384412379551861
 20
300.8632051956370219
 30
0.0
 11
152.2384412379551861
 21
300.7798718623035938
 31
0.0
 12
152.4884412379552998
 22
300.8215385289703931
 32
0.0
 13
152.4884412379552998
 23
300.8215385289703931
 33
0.0
  0
SOLID
  5
4F0F
  8
DIM
 62
     1
 10
146.2384412379552998
 20
300.8632051956370219
 30
0.0
 11
146.2384412379552998
 21
300.7798718623035938
 31
0.0
 12
145.9884412379552998
 22
300.8215385289703931
 32
0.0
 13
145.9884412379552998
 23
300.8215385289703931
 33
0.0
  0
INSERT
  5
4F10
  8
0
  2
*U245
 10
0.0
 20
0.0
 30
0.0
  0
POINT
  5
4F11
  8
DEFPOINTS
 62
     0
 10
152.4884412379552998
 20
305.3035232944059771
 30
0.0
  0
POINT
  5
4F12
  8
DEFPOINTS
 62
     0
 10
145.9884412379552998
 20
302.0058423787734228
 30
0.0
  0
POINT
  5
4F13
  8
DEFPOINTS
 62
     0
 10
145.9884412379552998
 20
300.8215385289703931
 30
0.0
  0
ENDBLK
  5
4E29
  8
0
  0
BLOCK
  8
0
  2
*D29
 70
     1
 10
0.0
 20
0.0
 30
0.0
  3
*D29
  1

  0
LINE
  5
4F14
  8
DIM
 62
     1
 10
120.4884412379552998
 20
326.5455924788838047
 30
0.0
 11
120.4884412379552998
 21
324.083103034144699
 31
0.0
  0
LINE
  5
4F15
  8
DIM
 62
     1
 10
121.4884412379552998
 20
326.9205924788838047
 30
0.0
 11
121.4884412379552998
 21
324.083103034144699
 31
0.0
  0
LINE
  5
4F16
  8
DIM
 62
     1
 10
120.2384412379552998
 20
324.333103034144699
 30
0.0
 11
119.9884412379552003
 21
324.333103034144699
 31
0.0
  0
LINE
  5
4F17
  8
DIM
 62
     1
 10
121.7384412379552003
 20
324.333103034144699
 30
0.0
 11
121.9884412379552003
 21
324.333103034144699
 31
0.0
  0
SOLID
  5
4F18
  8
DIM
 62
     1
 10
120.2384412379552998
 20
324.3747697008113278
 30
0.0
 11
120.2384412379552998
 21
324.2914363674778997
 31
0.0
 12
120.4884412379552998
 22
324.333103034144699
 32
0.0
 13
120.4884412379552998
 23
324.333103034144699
 33
0.0
  0
SOLID
  5
4F19
  8
DIM
 62
     1
 10
121.7384412379552003
 20
324.3747697008113278
 30
0.0
 11
121.7384412379552003
 21
324.2914363674778997
 31
0.0
 12
121.4884412379552998
 22
324.333103034144699
 32
0.0
 13
121.4884412379552998
 23
324.333103034144699
 33
0.0
  0
INSERT
  5
4F1A
  8
0
  2
*U246
 10
0.0
 20
0.0
 30
0.0
  0
POINT
  5
4F1B
  8
DEFPOINTS
 62
     0
 10
120.4884412379552998
 20
326.7955924788838047
 30
0.0
  0
POINT
  5
4F1C
  8
DEFPOINTS
 62
     0
 10
121.4884412379552998
 20
327.1705924788838047
 30
0.0
  0
POINT
  5
4F1D
  8
DEFPOINTS
 62
     0
 10
121.4884412379552998
 20
324.333103034144699
 30
0.0
  0
ENDBLK
  5
4E36
  8
0
  0
BLOCK
  8
0
  2
*D30
 70
     1
 10
0.0
 20
0.0
 30
0.0
  3
*D30
  1

  0
LINE
  5
4F1E
  8
DIM
 62
     1
 10
152.4884412379552998
 20
326.9205924788838047
 30
0.0
 11
152.4884412379552998
 21
323.7419101021516781
 31
0.0
  0
LINE
  5
4F1F
  8
DIM
 62
     1
 10
153.4884412379551861
 20
326.9205924788838047
 30
0.0
 11
153.4884412379551861
 21
323.7419101021516781
 31
0.0
  0
LINE
  5
4F20
  8
DIM
 62
     1
 10
152.2384412379551861
 20
323.9919101021516781
 30
0.0
 11
151.9884412379551861
 21
323.9919101021516781
 31
0.0
  0
LINE
  5
4F21
  8
DIM
 62
     1
 10
153.7384412379552998
 20
323.9919101021516781
 30
0.0
 11
153.9884412379551861
 21
323.9919101021516781
 31
0.0
  0
SOLID
  5
4F22
  8
DIM
 62
     1
 10
152.2384412379551861
 20
324.0335767688184205
 30
0.0
 11
152.2384412379551861
 21
323.9502434354849925
 31
0.0
 12
152.4884412379552998
 22
323.9919101021516781
 32
0.0
 13
152.4884412379552998
 23
323.9919101021516781
 33
0.0
  0
SOLID
  5
4F23
  8
DIM
 62
     1
 10
153.7384412379552998
 20
324.0335767688184205
 30
0.0
 11
153.7384412379552998
 21
323.9502434354849925
 31
0.0
 12
153.4884412379551861
 22
323.9919101021516781
 32
0.0
 13
153.4884412379551861
 23
323.9919101021516781
 33
0.0
  0
INSERT
  5
4F24
  8
0
  2
*U247
 10
0.0
 20
0.0
 30
0.0
  0
POINT
  5
4F25
  8
DEFPOINTS
 62
     0
 10
152.4884412379552998
 20
327.1705924788838047
 30
0.0
  0
POINT
  5
4F26
  8
DEFPOINTS
 62
     0
 10
153.4884412379551861
 20
327.1705924788838047
 30
0.0
  0
POINT
  5
4F27
  8
DEFPOINTS
 62
     0
 10
153.4884412379551861
 20
323.9919101021516781
 30
0.0
  0
ENDBLK
  5
4E43
  8
0
  0
BLOCK
  8
0
  2
*D31
 70
     1
 10
0.0
 20
0.0
 30
0.0
  3
*D31
  1

  0
LINE
  5
4F28
  8
DIM
 62
     1
 10
120.2384412379552998
 20
342.9205924788839184
 30
0.0
 11
117.7252910021274062
 21
342.9205924788839184
 31
0.0
  0
LINE
  5
4F29
  8
DIM
 62
     1
 10
121.2384412379552998
 20
343.9205924788839184
 30
0.0
 11
117.7252910021274062
 21
343.9205924788839184
 31
0.0
  0
LINE
  5
4F2A
  8
DIM
 62
     1
 10
117.9752910021274062
 20
342.6705924788839184
 30
0.0
 11
117.9752910021274062
 21
342.4205924788839184
 31
0.0
  0
LINE
  5
4F2B
  8
DIM
 62
     1
 10
117.9752910021274062
 20
344.1705924788839184
 30
0.0
 11
117.9752910021274062
 21
344.4205924788839184
 31
0.0
  0
LINE
  5
4F2C
  8
DIM
 62
     1
 10
117.9752910021274062
 20
344.4205924788839184
 30
0.0
 11
118.2252910021275056
 21
344.4205924788839184
 31
0.0
  0
SOLID
  5
4F2D
  8
DIM
 62
     1
 10
117.9336243354608058
 20
342.6705924788839184
 30
0.0
 11
118.016957668794106
 21
342.6705924788839184
 31
0.0
 12
117.9752910021274062
 22
342.9205924788839184
 32
0.0
 13
117.9752910021274062
 23
342.9205924788839184
 33
0.0
  0
SOLID
  5
4F2E
  8
DIM
 62
     1
 10
117.9336243354608058
 20
344.1705924788839184
 30
0.0
 11
118.016957668794106
 21
344.1705924788839184
 31
0.0
 12
117.9752910021274062
 22
343.9205924788839184
 32
0.0
 13
117.9752910021274062
 23
343.9205924788839184
 33
0.0
  0
INSERT
  5
4F2F
  8
0
  2
*U248
 10
0.0
 20
0.0
 30
0.0
  0
POINT
  5
4F30
  8
DEFPOINTS
 62
     0
 10
120.4884412379552998
 20
342.9205924788839184
 30
0.0
  0
POINT
  5
4F31
  8
DEFPOINTS
 62
     0
 10
121.4884412379552998
 20
343.9205924788839184
 30
0.0
  0
POINT
  5
4F32
  8
DEFPOINTS
 62
     0
 10
117.9752910021274062
 20
343.9205924788839184
 30
0.0
  0
ENDBLK
  5
4E50
  8
0
  0
BLOCK
  8
0
  2
*D32
 70
     1
 10
0.0
 20
0.0
 30
0.0
  3
*D32
  1

  0
LINE
  5
4F33
  8
DIM
 62
     1
 10
120.4884412379552998
 20
343.1705924788838047
 30
0.0
 11
120.4884412379552998
 21
346.3793910599533206
 31
0.0
  0
LINE
  5
4F34
  8
DIM
 62
     1
 10
121.4884412379552998
 20
344.1705924788838047
 30
0.0
 11
121.4884412379552998
 21
346.3793910599533206
 31
0.0
  0
LINE
  5
4F35
  8
DIM
 62
     1
 10
120.2384412379552998
 20
346.1293910599533206
 30
0.0
 11
119.9884412379552003
 21
346.1293910599533206
 31
0.0
  0
LINE
  5
4F36
  8
DIM
 62
     1
 10
121.7384412379552003
 20
346.1293910599533206
 30
0.0
 11
121.9884412379552003
 21
346.1293910599533206
 31
0.0
  0
SOLID
  5
4F37
  8
DIM
 62
     1
 10
120.2384412379552998
 20
346.1710577266198925
 30
0.0
 11
120.2384412379552998
 21
346.0877243932865781
 31
0.0
 12
120.4884412379552998
 22
346.1293910599533206
 32
0.0
 13
120.4884412379552998
 23
346.1293910599533206
 33
0.0
  0
SOLID
  5
4F38
  8
DIM
 62
     1
 10
121.7384412379552003
 20
346.1710577266198925
 30
0.0
 11
121.7384412379552003
 21
346.0877243932865781
 31
0.0
 12
121.4884412379552998
 22
346.1293910599533206
 32
0.0
 13
121.4884412379552998
 23
346.1293910599533206
 33
0.0
  0
INSERT
  5
4F39
  8
0
  2
*U249
 10
0.0
 20
0.0
 30
0.0
  0
POINT
  5
4F3A
  8
DEFPOINTS
 62
     0
 10
120.4884412379552998
 20
342.9205924788838047
 30
0.0
  0
POINT
  5
4F3B
  8
DEFPOINTS
 62
     0
 10
121.4884412379552998
 20
343.9205924788838047
 30
0.0
  0
POINT
  5
4F3C
  8
DEFPOINTS
 62
     0
 10
121.4884412379552998
 20
346.1293910599533206
 30
0.0
  0
ENDBLK
  5
4E5E
  8
0
  0
BLOCK
  8
0
  2
*D33
 70
     1
 10
0.0
 20
0.0
 30
0.0
  3
*D33
  1

  0
LINE
  5
4F3D
  8
0
 62
     1
 10
121.4330397085050066
 20
326.7747508489396751
 30
0.0
 11
117.7238426138160037
 21
323.3084281524592143
 31
0.0
  0
LINE
  5
4F3E
  8
0
 62
     1
 10
117.7238426138160037
 20
323.3084281524592143
 30
0.0
 11
117.4738426138160037
 21
323.3084281524592143
 31
0.0
  0
SOLID
  5
4F3F
  8
0
 62
     1
 10
121.404590463514694
 20
326.8051934436153942
 30
0.0
 11
121.4614889534953051
 21
326.7443082542640127
 31
0.0
 12
121.615695276559407
 22
326.9454463188818067
 32
0.0
 13
121.615695276559407
 23
326.9454463188818067
 33
0.0
  0
INSERT
  5
4F40
  8
0
  2
*U250
 10
0.0
 20
0.0
 30
0.0
  0
LINE
  5
4F41
  8
0
 62
     1
 10
121.7108412379549947
 20
327.2679924788841959
 30
0.0
 11
122.2108412379549947
 21
327.2679924788841959
 31
0.0
  0
LINE
  5
4F42
  8
0
 62
     1
 10
121.9608412379549947
 20
327.0179924788841959
 30
0.0
 11
121.9608412379549947
 21
327.5179924788841959
 31
0.0
  0
POINT
  5
4F43
  8
DEFPOINTS
 62
     0
 10
121.615695276559407
 20
326.9454463188818067
 30
0.0
  0
POINT
  5
4F44
  8
DEFPOINTS
 62
     0
 10
121.9608412379549947
 20
327.2679924788841959
 30
0.0
  0
ENDBLK
  5
4E6B
  8
0
  0
BLOCK
  8
0
  2
*D34
 70
     1
 10
0.0
 20
0.0
 30
0.0
  3
*D34
  1

  0
LINE
  5
4F45
  8
0
 62
     0
 10
165.0664185883966013
 20
305.7445842359575181
 30
0.0
 11
165.0664185883966013
 21
305.8620842359575249
 31
0.0
  0
LINE
  5
4F46
  8
0
 62
     0
 10
196.0664185883966866
 20
305.7445842359575181
 30
0.0
 11
196.0664185883966866
 21
305.8620842359575249
 31
0.0
  0
LINE
  5
4F47
  8
0
 62
     0
 10
165.2464185883966934
 20
305.6820842359575181
 30
0.0
 11
176.8182734661897086
 21
305.6820842359575181
 31
0.0
  0
LINE
  5
4F48
  8
0
 62
     0
 10
195.8864185883967082
 20
305.6820842359575181
 30
0.0
 11
177.8682734661896916
 21
305.6820842359575181
 31
0.0
  0
SOLID
  5
4F49
  8
0
 62
     0
 10
165.2464185883966934
 20
305.7120842359574908
 30
0.0
 11
165.2464185883966934
 21
305.6520842359574885
 31
0.0
 12
165.0664185883966013
 22
305.6820842359575181
 32
0.0
 13
165.0664185883966013
 23
305.6820842359575181
 33
0.0
  0
SOLID
  5
4F4A
  8
0
 62
     0
 10
195.8864185883967082
 20
305.7120842359574908
 30
0.0
 11
195.8864185883967082
 21
305.6520842359574885
 31
0.0
 12
196.0664185883966866
 22
305.6820842359575181
 32
0.0
 13
196.0664185883966866
 23
305.6820842359575181
 33
0.0
  0
INSERT
  5
4F4B
  8
0
  2
*U251
 10
0.0
 20
0.0
 30
0.0
  0
POINT
  5
4F4C
  8
DEFPOINTS
 62
     0
 10
165.0664185883966013
 20
305.6820842359575181
 30
0.0
  0
POINT
  5
4F4D
  8
DEFPOINTS
 62
     0
 10
196.0664185883966866
 20
305.6820842359575181
 30
0.0
  0
POINT
  5
4F4E
  8
DEFPOINTS
 62
     0
 10
196.0664185883966866
 20
305.6820842359575181
 30
0.0
  0
ENDBLK
  5
4E76
  8
0
  0
BLOCK
  8
0
  2
*D35
 70
     1
 10
0.0
 20
0.0
 30
0.0
  3
*D35
  1

  0
LINE
  5
4F4F
  8
0
 62
     0
 10
193.2627697639526048
 20
319.5402371131701216
 30
0.0
 11
193.3802697639538053
 21
319.5402371131701216
 31
0.0
  0
LINE
  5
4F50
  8
0
 62
     0
 10
193.2627697639526048
 20
303.4152371131701784
 30
0.0
 11
193.3802697639538053
 21
303.4152371131701784
 31
0.0
  0
LINE
  5
4F51
  8
0
 62
     0
 10
193.2002697639537985
 20
319.3602371131701148
 30
0.0
 11
193.2002697639537985
 21
311.6577371131701284
 31
0.0
  0
LINE
  5
4F52
  8
0
 62
     0
 10
193.2002697639537985
 20
303.5952371131701852
 30
0.0
 11
193.2002697639537985
 21
311.2977371131701148
 31
0.0
  0
SOLID
  5
4F53
  8
0
 62
     0
 10
193.1702697639537973
 20
319.3602371131701148
 30
0.0
 11
193.2302697639537996
 21
319.3602371131701148
 31
0.0
 12
193.2002697639537985
 22
319.5402371131701216
 32
0.0
 13
193.2002697639537985
 23
319.5402371131701216
 33
0.0
  0
SOLID
  5
4F54
  8
0
 62
     0
 10
193.1702697639537973
 20
303.5952371131701852
 30
0.0
 11
193.2302697639537996
 21
303.5952371131701852
 31
0.0
 12
193.2002697639537985
 22
303.4152371131701784
 32
0.0
 13
193.2002697639537985
 23
303.4152371131701784
 33
0.0
  0
INSERT
  5
4F55
  8
0
  2
*U252
 10
0.0
 20
0.0
 30
0.0
  0
POINT
  5
4F56
  8
DEFPOINTS
 62
     0
 10
193.2002697639526048
 20
319.5402371131701216
 30
0.0
  0
POINT
  5
4F57
  8
DEFPOINTS
 62
     0
 10
193.2002697639526048
 20
303.4152371131701784
 30
0.0
  0
POINT
  5
4F58
  8
DEFPOINTS
 62
     0
 10
193.2002697639537985
 20
303.4152371131701784
 30
0.0
  0
ENDBLK
  5
4E83
  8
0
  0
BLOCK
  8
0
  2
*D36
 70
     1
 10
0.0
 20
0.0
 30
0.0
  3
*D36
  1

  0
LINE
  5
4F59
  8
DIM
 62
     1
 10
121.4884412379552998
 20
326.9205924788838047
 30
0.0
 11
121.4884412379552998
 21
322.7116914108192987
 31
0.0
  0
LINE
  5
4F5A
  8
DIM
 62
     1
 10
138.4884412379551861
 20
326.9205924788838047
 30
0.0
 11
138.4884412379551861
 21
322.7116914108192987
 31
0.0
  0
LINE
  5
4F5B
  8
DIM
 62
     1
 10
121.7384412379552003
 20
322.9616914108192987
 30
0.0
 11
129.0241555236694921
 21
322.9616914108192987
 31
0.0
  0
LINE
  5
4F5C
  8
DIM
 62
     1
 10
138.2384412379551861
 20
322.9616914108192987
 30
0.0
 11
130.9527269522409938
 21
322.9616914108192987
 31
0.0
  0
SOLID
  5
4F5D
  8
DIM
 62
     1
 10
121.7384412379552003
 20
323.0033580774859843
 30
0.0
 11
121.7384412379552003
 21
322.920024744152613
 31
0.0
 12
121.4884412379552998
 22
322.9616914108192987
 32
0.0
 13
121.4884412379552998
 23
322.9616914108192987
 33
0.0
  0
SOLID
  5
4F5E
  8
DIM
 62
     1
 10
138.2384412379551861
 20
323.0033580774859843
 30
0.0
 11
138.2384412379551861
 21
322.920024744152613
 31
0.0
 12
138.4884412379551861
 22
322.9616914108192987
 32
0.0
 13
138.4884412379551861
 23
322.9616914108192987
 33
0.0
  0
INSERT
  5
4F5F
  8
0
  2
*U253
 10
0.0
 20
0.0
 30
0.0
  0
POINT
  5
4F60
  8
DEFPOINTS
 62
     0
 10
121.4884412379552998
 20
327.1705924788838047
 30
0.0
  0
POINT
  5
4F61
  8
DEFPOINTS
 62
     0
 10
138.4884412379551861
 20
327.1705924788838047
 30
0.0
  0
POINT
  5
4F62
  8
DEFPOINTS
 62
     0
 10
138.4884412379551861
 20
322.9616914108192987
 30
0.0
  0
ENDBLK
  5
4E90
  8
0
  0
BLOCK
  8
0
  2
*D37
 70
     1
 10
0.0
 20
0.0
 30
0.0
  3
*D37
  1

  0
LINE
  5
4F63
  8
DIM
 62
     1
 10
139.4884412379551861
 20
326.9205924788838047
 30
0.0
 11
139.4884412379551861
 21
322.7116914108192987
 31
0.0
  0
LINE
  5
4F64
  8
DIM
 62
     1
 10
152.4884412379552998
 20
326.9205924788838047
 30
0.0
 11
152.4884412379552998
 21
322.7116914108192987
 31
0.0
  0
LINE
  5
4F65
  8
DIM
 62
     1
 10
139.7384412379551861
 20
322.9616914108192987
 30
0.0
 11
145.0241555236694921
 21
322.9616914108192987
 31
0.0
  0
LINE
  5
4F66
  8
DIM
 62
     1
 10
152.2384412379551861
 20
322.9616914108192987
 30
0.0
 11
146.9527269522409938
 21
322.9616914108192987
 31
0.0
  0
SOLID
  5
4F67
  8
DIM
 62
     1
 10
139.7384412379551861
 20
323.0033580774859843
 30
0.0
 11
139.7384412379551861
 21
322.920024744152613
 31
0.0
 12
139.4884412379551861
 22
322.9616914108192987
 32
0.0
 13
139.4884412379551861
 23
322.9616914108192987
 33
0.0
  0
SOLID
  5
4F68
  8
DIM
 62
     1
 10
152.2384412379551861
 20
323.0033580774859843
 30
0.0
 11
152.2384412379551861
 21
322.920024744152613
 31
0.0
 12
152.4884412379552998
 22
322.9616914108192987
 32
0.0
 13
152.4884412379552998
 23
322.9616914108192987
 33
0.0
  0
INSERT
  5
4F69
  8
0
  2
*U254
 10
0.0
 20
0.0
 30
0.0
  0
POINT
  5
4F6A
  8
DEFPOINTS
 62
     0
 10
139.4884412379551861
 20
327.1705924788838047
 30
0.0
  0
POINT
  5
4F6B
  8
DEFPOINTS
 62
     0
 10
152.4884412379552998
 20
327.1705924788838047
 30
0.0
  0
POINT
  5
4F6C
  8
DEFPOINTS
 62
     0
 10
152.4884412379552998
 20
322.9616914108192987
 30
0.0
  0
ENDBLK
  5
4E9D
  8
0
  0
BLOCK
  8
0
  2
*D38
 70
     1
 10
0.0
 20
0.0
 30
0.0
  3
*D38
  1

  0
LINE
  5
4F6D
  8
DIM
 62
     1
 10
138.4884412379551861
 20
326.9205924788838047
 30
0.0
 11
138.4884412379551861
 21
321.9358309054085225
 31
0.0
  0
LINE
  5
4F6E
  8
DIM
 62
     1
 10
139.4884412379551861
 20
326.9205924788838047
 30
0.0
 11
139.4884412379551861
 21
321.9358309054085225
 31
0.0
  0
LINE
  5
4F6F
  8
DIM
 62
     1
 10
138.2384412379551861
 20
322.1858309054085225
 30
0.0
 11
137.9884412379552998
 21
322.1858309054085225
 31
0.0
  0
LINE
  5
4F70
  8
DIM
 62
     1
 10
139.7384412379551861
 20
322.1858309054085225
 30
0.0
 11
139.9884412379551861
 21
322.1858309054085225
 31
0.0
  0
SOLID
  5
4F71
  8
DIM
 62
     1
 10
138.2384412379551861
 20
322.2274975720750945
 30
0.0
 11
138.2384412379551861
 21
322.1441642387417801
 31
0.0
 12
138.4884412379551861
 22
322.1858309054085225
 32
0.0
 13
138.4884412379551861
 23
322.1858309054085225
 33
0.0
  0
SOLID
  5
4F72
  8
DIM
 62
     1
 10
139.7384412379551861
 20
322.2274975720750945
 30
0.0
 11
139.7384412379551861
 21
322.1441642387417801
 31
0.0
 12
139.4884412379551861
 22
322.1858309054085225
 32
0.0
 13
139.4884412379551861
 23
322.1858309054085225
 33
0.0
  0
INSERT
  5
4F73
  8
0
  2
*U255
 10
0.0
 20
0.0
 30
0.0
  0
POINT
  5
4F74
  8
DEFPOINTS
 62
     0
 10
138.4884412379551861
 20
327.1705924788838047
 30
0.0
  0
POINT
  5
4F75
  8
DEFPOINTS
 62
     0
 10
139.4884412379551861
 20
327.1705924788838047
 30
0.0
  0
POINT
  5
4F76
  8
DEFPOINTS
 62
     0
 10
139.4884412379551861
 20
322.1858309054085225
 30
0.0
  0
ENDBLK
  5
4EAA
  8
0
  0
BLOCK
  8
0
  2
*D39
 70
     1
 10
0.0
 20
0.0
 30
0.0
  3
*D39
  1

  0
LINE
  5
4F77
  8
DIM
 62
     1
 10
120.4884412379552998
 20
326.5455924788838047
 30
0.0
 11
120.4884412379552998
 21
319.8668700074119897
 31
0.0
  0
LINE
  5
4F78
  8
DIM
 62
     1
 10
153.4884412379551861
 20
326.5455924788838047
 30
0.0
 11
153.4884412379551861
 21
319.8668700074119897
 31
0.0
  0
LINE
  5
4F79
  8
DIM
 62
     1
 10
120.7384412379552003
 20
320.1168700074119897
 30
0.0
 11
135.9289174284313901
 21
320.1168700074119897
 31
0.0
  0
LINE
  5
4F7A
  8
DIM
 62
     1
 10
153.2384412379551861
 20
320.1168700074119897
 30
0.0
 11
138.0479650474790105
 21
320.1168700074119897
 31
0.0
  0
SOLID
  5
4F7B
  8
DIM
 62
     1
 10
120.7384412379552003
 20
320.1585366740786753
 30
0.0
 11
120.7384412379552003
 21
320.0752033407453041
 31
0.0
 12
120.4884412379552998
 22
320.1168700074119897
 32
0.0
 13
120.4884412379552998
 23
320.1168700074119897
 33
0.0
  0
SOLID
  5
4F7C
  8
DIM
 62
     1
 10
153.2384412379551861
 20
320.1585366740786753
 30
0.0
 11
153.2384412379551861
 21
320.0752033407453041
 31
0.0
 12
153.4884412379551861
 22
320.1168700074119897
 32
0.0
 13
153.4884412379551861
 23
320.1168700074119897
 33
0.0
  0
INSERT
  5
4F7D
  8
0
  2
*U256
 10
0.0
 20
0.0
 30
0.0
  0
POINT
  5
4F7E
  8
DEFPOINTS
 62
     0
 10
120.4884412379552998
 20
326.7955924788838047
 30
0.0
  0
POINT
  5
4F7F
  8
DEFPOINTS
 62
     0
 10
153.4884412379551861
 20
326.7955924788838047
 30
0.0
  0
POINT
  5
4F80
  8
DEFPOINTS
 62
     0
 10
153.4884412379551861
 20
320.1168700074119897
 30
0.0
  0
ENDBLK
  5
4EB7
  8
0
  0
BLOCK
  8
0
  2
*D40
 70
     1
 10
0.0
 20
0.0
 30
0.0
  3
*D40
  1

  0
LINE
  5
4F81
  8
DIM
 62
     1
 10
152.2660412379553065
 20
342.9205924788839184
 30
0.0
 11
157.204948123482211
 21
342.9205924788839184
 31
0.0
  0
LINE
  5
4F82
  8
DIM
 62
     1
 10
152.3634412379552998
 20
326.7955924788839184
 30
0.0
 11
157.204948123482211
 21
326.7955924788839184
 31
0.0
  0
LINE
  5
4F83
  8
DIM
 62
     1
 10
156.954948123482211
 20
342.6705924788839184
 30
0.0
 11
156.954948123482211
 21
335.8699972407886776
 31
0.0
  0
LINE
  5
4F84
  8
DIM
 62
     1
 10
156.954948123482211
 20
327.0455924788839184
 30
0.0
 11
156.954948123482211
 21
333.846187716979216
 31
0.0
  0
SOLID
  5
4F85
  8
DIM
 62
     1
 10
156.913281456815497
 20
342.6705924788839184
 30
0.0
 11
156.9966147901488114
 21
342.6705924788839184
 31
0.0
 12
156.954948123482211
 22
342.9205924788839184
 32
0.0
 13
156.954948123482211
 23
342.9205924788839184
 33
0.0
  0
SOLID
  5
4F86
  8
DIM
 62
     1
 10
156.913281456815497
 20
327.0455924788839184
 30
0.0
 11
156.9966147901488114
 21
327.0455924788839184
 31
0.0
 12
156.954948123482211
 22
326.7955924788839184
 32
0.0
 13
156.954948123482211
 23
326.7955924788839184
 33
0.0
  0
INSERT
  5
4F87
  8
0
  2
*U257
 10
0.0
 20
0.0
 30
0.0
  0
POINT
  5
4F88
  8
DEFPOINTS
 62
     0
 10
152.0160412379553065
 20
342.9205924788839184
 30
0.0
  0
POINT
  5
4F89
  8
DEFPOINTS
 62
     0
 10
152.1134412379552998
 20
326.7955924788839184
 30
0.0
  0
POINT
  5
4F8A
  8
DEFPOINTS
 62
     0
 10
156.954948123482211
 20
326.7955924788839184
 30
0.0
  0
ENDBLK
  5
4EC4
  8
0
  0
BLOCK
  8
0
  2
*D41
 70
     1
 10
0.0
 20
0.0
 30
0.0
  3
*D41
  1

  0
LINE
  5
4F8B
  8
DIM
 62
     1
 10
152.7384412379552998
 20
343.9205924788839184
 30
0.0
 11
161.421247529768408
 21
343.9205924788839184
 31
0.0
  0
LINE
  5
4F8C
  8
DIM
 62
     1
 10
152.7384412379552998
 20
325.7955924788839184
 30
0.0
 11
161.421247529768408
 21
325.7955924788839184
 31
0.0
  0
LINE
  5
4F8D
  8
DIM
 62
     1
 10
161.171247529768408
 20
343.6705924788839184
 30
0.0
 11
161.171247529768408
 21
333.2513899846074992
 31
0.0
  0
LINE
  5
4F8E
  8
DIM
 62
     1
 10
161.171247529768408
 20
326.0455924788839184
 30
0.0
 11
161.171247529768408
 21
331.2275804607979239
 31
0.0
  0
SOLID
  5
4F8F
  8
DIM
 62
     1
 10
161.1295808631018076
 20
343.6705924788839184
 30
0.0
 11
161.2129141964350936
 21
343.6705924788839184
 31
0.0
 12
161.171247529768408
 22
343.9205924788839184
 32
0.0
 13
161.171247529768408
 23
343.9205924788839184
 33
0.0
  0
SOLID
  5
4F90
  8
DIM
 62
     1
 10
161.1295808631018076
 20
326.0455924788839184
 30
0.0
 11
161.2129141964350936
 21
326.0455924788839184
 31
0.0
 12
161.171247529768408
 22
325.7955924788839184
 32
0.0
 13
161.171247529768408
 23
325.7955924788839184
 33
0.0
  0
INSERT
  5
4F91
  8
0
  2
*U258
 10
0.0
 20
0.0
 30
0.0
  0
POINT
  5
4F92
  8
DEFPOINTS
 62
     0
 10
152.4884412379552998
 20
343.9205924788839184
 30
0.0
  0
POINT
  5
4F93
  8
DEFPOINTS
 62
     0
 10
152.4884412379552998
 20
325.7955924788839184
 30
0.0
  0
POINT
  5
4F94
  8
DEFPOINTS
 62
     0
 10
161.171247529768408
 20
325.7955924788839184
 30
0.0
  0
ENDBLK
  5
4ED1
  8
0
  0
BLOCK
  8
0
  2
*D42
 70
     1
 10
0.0
 20
0.0
 30
0.0
  3
*D42
  1

  0
LINE
  5
4F95
  8
DIM
 62
     1
 10
185.377612684655503
 20
342.9205924788839184
 30
0.0
 11
191.3500671518901015
 21
342.9205924788839184
 31
0.0
  0
LINE
  5
4F96
  8
DIM
 62
     1
 10
188.3356534938255891
 20
338.7955924788839184
 30
0.0
 11
191.3500671518901015
 21
338.7955924788839184
 31
0.0
  0
LINE
  5
4F97
  8
DIM
 62
     1
 10
191.1000671518901015
 20
342.6705924788839184
 30
0.0
 11
191.1000671518901015
 21
341.8699972407886776
 31
0.0
  0
LINE
  5
4F98
  8
DIM
 62
     1
 10
191.1000671518901015
 20
339.0455924788839184
 30
0.0
 11
191.1000671518901015
 21
339.846187716979216
 31
0.0
  0
SOLID
  5
4F99
  8
DIM
 62
     1
 10
191.0584004852233875
 20
342.6705924788839184
 30
0.0
 11
191.1417338185567019
 21
342.6705924788839184
 31
0.0
 12
191.1000671518901015
 22
342.9205924788839184
 32
0.0
 13
191.1000671518901015
 23
342.9205924788839184
 33
0.0
  0
SOLID
  5
4F9A
  8
DIM
 62
     1
 10
191.0584004852233875
 20
339.0455924788839184
 30
0.0
 11
191.1417338185567019
 21
339.0455924788839184
 31
0.0
 12
191.1000671518901015
 22
338.7955924788839184
 32
0.0
 13
191.1000671518901015
 23
338.7955924788839184
 33
0.0
  0
INSERT
  5
4F9B
  8
0
  2
*U259
 10
0.0
 20
0.0
 30
0.0
  0
POINT
  5
4F9C
  8
DEFPOINTS
 62
     0
 10
185.127612684655503
 20
342.9205924788839184
 30
0.0
  0
POINT
  5
4F9D
  8
DEFPOINTS
 62
     0
 10
188.0856534938255038
 20
338.7955924788839184
 30
0.0
  0
POINT
  5
4F9E
  8
DEFPOINTS
 62
     0
 10
191.1000671518901015
 20
338.7955924788839184
 30
0.0
  0
ENDBLK
  5
4EDE
  8
0
  0
BLOCK
  8
0
  2
*D43
 70
     1
 10
0.0
 20
0.0
 30
0.0
  3
*D43
  1

  0
LINE
  5
4F9F
  8
DIM
 62
     1
 10
120.2384412379552998
 20
313.9285232944060908
 30
0.0
 11
116.4021820812887995
 21
313.9285232944060908
 31
0.0
  0
LINE
  5
4FA0
  8
DIM
 62
     1
 10
121.6134412379552998
 20
304.9285232944060908
 30
0.0
 11
116.4021820812887995
 21
304.9285232944060908
 31
0.0
  0
LINE
  5
4FA1
  8
DIM
 62
     1
 10
116.6521820812887995
 20
313.6785232944060908
 30
0.0
 11
116.6521820812887995
 21
310.1785232944060908
 31
0.0
  0
LINE
  5
4FA2
  8
DIM
 62
     1
 10
116.6521820812887995
 20
305.1785232944060908
 30
0.0
 11
116.6521820812887995
 21
308.6785232944060908
 31
0.0
  0
SOLID
  5
4FA3
  8
DIM
 62
     1
 10
116.6105154146220997
 20
313.6785232944060908
 30
0.0
 11
116.6938487479553999
 21
313.6785232944060908
 31
0.0
 12
116.6521820812887995
 22
313.9285232944060908
 32
0.0
 13
116.6521820812887995
 23
313.9285232944060908
 33
0.0
  0
SOLID
  5
4FA4
  8
DIM
 62
     1
 10
116.6105154146220997
 20
305.1785232944060908
 30
0.0
 11
116.6938487479553999
 21
305.1785232944060908
 31
0.0
 12
116.6521820812887995
 22
304.9285232944060908
 32
0.0
 13
116.6521820812887995
 23
304.9285232944060908
 33
0.0
  0
INSERT
  5
4FA5
  8
0
  2
*U260
 10
0.0
 20
0.0
 30
0.0
  0
POINT
  5
4FA6
  8
DEFPOINTS
 62
     0
 10
120.4884412379552998
 20
313.9285232944060908
 30
0.0
  0
POINT
  5
4FA7
  8
DEFPOINTS
 62
     0
 10
121.8634412379552998
 20
304.9285232944060908
 30
0.0
  0
POINT
  5
4FA8
  8
DEFPOINTS
 62
     0
 10
116.6521820812887995
 20
304.9285232944060908
 30
0.0
  0
ENDBLK
  5
4EEB
  8
0
  0
BLOCK
  8
0
  2
*D44
 70
     1
 10
0.0
 20
0.0
 30
0.0
  3
*D44
  1

  0
LINE
  5
4FF9
  8
0
 62
     0
 10
165.0664185883966013
 20
305.7445842359575181
 30
0.0
 11
165.0664185883966013
 21
305.8620842359575249
 31
0.0
  0
LINE
  5
4FFA
  8
0
 62
     0
 10
196.0664185883966866
 20
305.7445842359575181
 30
0.0
 11
196.0664185883966866
 21
305.8620842359575249
 31
0.0
  0
LINE
  5
4FFB
  8
0
 62
     0
 10
165.2464185883966934
 20
305.6820842359575181
 30
0.0
 11
176.8182734661897086
 21
305.6820842359575181
 31
0.0
  0
LINE
  5
4FFC
  8
0
 62
     0
 10
195.8864185883967082
 20
305.6820842359575181
 30
0.0
 11
177.8682734661896916
 21
305.6820842359575181
 31
0.0
  0
SOLID
  5
4FFD
  8
0
 62
     0
 10
165.2464185883966934
 20
305.7120842359574908
 30
0.0
 11
165.2464185883966934
 21
305.6520842359574885
 31
0.0
 12
165.0664185883966013
 22
305.6820842359575181
 32
0.0
 13
165.0664185883966013
 23
305.6820842359575181
 33
0.0
  0
SOLID
  5
4FFE
  8
0
 62
     0
 10
195.8864185883967082
 20
305.7120842359574908
 30
0.0
 11
195.8864185883967082
 21
305.6520842359574885
 31
0.0
 12
196.0664185883966866
 22
305.6820842359575181
 32
0.0
 13
196.0664185883966866
 23
305.6820842359575181
 33
0.0
  0
INSERT
  5
4FFF
  8
0
  2
*U261
 10
0.0
 20
0.0
 30
0.0
  0
POINT
  5
5000
  8
DEFPOINTS
 62
     0
 10
165.0664185883966013
 20
305.6820842359575181
 30
0.0
  0
POINT
  5
5001
  8
DEFPOINTS
 62
     0
 10
196.0664185883966866
 20
305.6820842359575181
 30
0.0
  0
POINT
  5
5002
  8
DEFPOINTS
 62
     0
 10
196.0664185883966866
 20
305.6820842359575181
 30
0.0
  0
ENDBLK
  5
5003
  8
0
  0
BLOCK
  8
0
  2
*D45
 70
     1
 10
0.0
 20
0.0
 30
0.0
  3
*D45
  1

  0
LINE
  5
5006
  8
0
 62
     0
 10
193.2627697639526048
 20
319.5402371131701216
 30
0.0
 11
193.3802697639538053
 21
319.5402371131701216
 31
0.0
  0
LINE
  5
5007
  8
0
 62
     0
 10
193.2627697639526048
 20
303.4152371131701784
 30
0.0
 11
193.3802697639538053
 21
303.4152371131701784
 31
0.0
  0
LINE
  5
5008
  8
0
 62
     0
 10
193.2002697639537985
 20
319.3602371131701148
 30
0.0
 11
193.2002697639537985
 21
311.6577371131701284
 31
0.0
  0
LINE
  5
5009
  8
0
 62
     0
 10
193.2002697639537985
 20
303.5952371131701852
 30
0.0
 11
193.2002697639537985
 21
311.2977371131701148
 31
0.0
  0
SOLID
  5
500A
  8
0
 62
     0
 10
193.1702697639537973
 20
319.3602371131701148
 30
0.0
 11
193.2302697639537996
 21
319.3602371131701148
 31
0.0
 12
193.2002697639537985
 22
319.5402371131701216
 32
0.0
 13
193.2002697639537985
 23
319.5402371131701216
 33
0.0
  0
SOLID
  5
500B
  8
0
 62
     0
 10
193.1702697639537973
 20
303.5952371131701852
 30
0.0
 11
193.2302697639537996
 21
303.5952371131701852
 31
0.0
 12
193.2002697639537985
 22
303.4152371131701784
 32
0.0
 13
193.2002697639537985
 23
303.4152371131701784
 33
0.0
  0
INSERT
  5
500C
  8
0
  2
*U262
 10
0.0
 20
0.0
 30
0.0
  0
POINT
  5
500D
  8
DEFPOINTS
 62
     0
 10
193.2002697639526048
 20
319.5402371131701216
 30
0.0
  0
POINT
  5
500E
  8
DEFPOINTS
 62
     0
 10
193.2002697639526048
 20
303.4152371131701784
 30
0.0
  0
POINT
  5
500F
  8
DEFPOINTS
 62
     0
 10
193.2002697639537985
 20
303.4152371131701784
 30
0.0
  0
ENDBLK
  5
5010
  8
0
  0
BLOCK
  8
0
  2
*D47
 70
     1
 10
0.0
 20
0.0
 30
0.0
  3
*D47
  1

  0
LINE
  5
517B
  8
0
 62
     0
 10
512.589218858470872
 20
385.3961168046657804
 30
0.0
 11
512.589218858470872
 21
385.5136168046657872
 31
0.0
  0
LINE
  5
517C
  8
0
 62
     0
 10
543.5892188584707583
 20
385.3961168046657804
 30
0.0
 11
543.5892188584707583
 21
385.5136168046657872
 31
0.0
  0
LINE
  5
517D
  8
0
 62
     0
 10
512.7692188584708219
 20
385.3336168046657804
 30
0.0
 11
524.3410737362639793
 21
385.3336168046657804
 31
0.0
  0
LINE
  5
517E
  8
0
 62
     0
 10
543.409218858470922
 20
385.3336168046657804
 30
0.0
 11
525.3910737362639338
 21
385.3336168046657804
 31
0.0
  0
SOLID
  5
517F
  8
0
 62
     0
 10
512.7692188584708219
 20
385.3636168046658099
 30
0.0
 11
512.7692188584708219
 21
385.3036168046658076
 31
0.0
 12
512.589218858470872
 22
385.3336168046657804
 32
0.0
 13
512.589218858470872
 23
385.3336168046657804
 33
0.0
  0
SOLID
  5
5180
  8
0
 62
     0
 10
543.409218858470922
 20
385.3636168046658099
 30
0.0
 11
543.409218858470922
 21
385.3036168046658076
 31
0.0
 12
543.5892188584707583
 22
385.3336168046657804
 32
0.0
 13
543.5892188584707583
 23
385.3336168046657804
 33
0.0
  0
INSERT
  5
5181
  8
0
  2
*U267
 10
0.0
 20
0.0
 30
0.0
  0
POINT
  5
5182
  8
DEFPOINTS
 62
     0
 10
512.589218858470872
 20
385.3336168046657804
 30
0.0
  0
POINT
  5
5183
  8
DEFPOINTS
 62
     0
 10
543.5892188584707583
 20
385.3336168046657804
 30
0.0
  0
POINT
  5
5184
  8
DEFPOINTS
 62
     0
 10
543.5892188584707583
 20
385.3336168046657804
 30
0.0
  0
ENDBLK
  5
5163
  8
0
  0
BLOCK
  8
0
  2
*D48
 70
     1
 10
0.0
 20
0.0
 30
0.0
  3
*D48
  1

  0
LINE
  5
5185
  8
0
 62
     0
 10
540.7855700340269323
 20
399.1917696818783838
 30
0.0
 11
540.9030700340282465
 21
399.1917696818783838
 31
0.0
  0
LINE
  5
5186
  8
0
 62
     0
 10
540.7855700340269323
 20
383.0667696818783838
 30
0.0
 11
540.9030700340282465
 21
383.0667696818783838
 31
0.0
  0
LINE
  5
5187
  8
0
 62
     0
 10
540.7230700340281828
 20
399.0117696818784907
 30
0.0
 11
540.7230700340281828
 21
391.3092696818785043
 31
0.0
  0
LINE
  5
5188
  8
0
 62
     0
 10
540.7230700340281828
 20
383.2467696818785043
 30
0.0
 11
540.7230700340281828
 21
390.9492696818784907
 31
0.0
  0
SOLID
  5
5189
  8
0
 62
     0
 10
540.6930700340283238
 20
399.0117696818784907
 30
0.0
 11
540.7530700340282692
 21
399.0117696818784907
 31
0.0
 12
540.7230700340281828
 22
399.1917696818783838
 32
0.0
 13
540.7230700340281828
 23
399.1917696818783838
 33
0.0
  0
SOLID
  5
518A
  8
0
 62
     0
 10
540.6930700340283238
 20
383.2467696818785043
 30
0.0
 11
540.7530700340282692
 21
383.2467696818785043
 31
0.0
 12
540.7230700340281828
 22
383.0667696818783838
 32
0.0
 13
540.7230700340281828
 23
383.0667696818783838
 33
0.0
  0
INSERT
  5
518B
  8
0
  2
*U268
 10
0.0
 20
0.0
 30
0.0
  0
POINT
  5
518C
  8
DEFPOINTS
 62
     0
 10
540.7230700340269323
 20
399.1917696818783838
 30
0.0
  0
POINT
  5
518D
  8
DEFPOINTS
 62
     0
 10
540.7230700340269323
 20
383.0667696818783838
 30
0.0
  0
POINT
  5
518E
  8
DEFPOINTS
 62
     0
 10
540.7230700340281828
 20
383.0667696818783838
 30
0.0
  0
ENDBLK
  5
5170
  8
0
  0
BLOCK
  8
0
  2
*U49
 70
     1
 10
0.0
 20
0.0
 30
0.0
  3
*U49
  1

  0
TEXT
  5
51C1
  8
MM_4_0_050
 62
     7
 10
-26.8915856156960693
 20
277.3999999999999773
 30
0.0
 40
3.4999999403953548
  1
1
  7
TEXT_STYLE10
  0
ENDBLK
  5
51C3
  8
0
  0
BLOCK
  8
0
  2
*U50
 70
     1
 10
0.0
 20
0.0
 30
0.0
  3
*U50
  1

  0
TEXT
  5
51C5
  8
MM_4_0_050
 62
     7
 10
-26.8915856156960693
 20
-3.8999999403953529
 30
0.0
 40
3.4999999403953548
  1
1
  7
TEXT_STYLE10
  0
ENDBLK
  5
51C7
  8
0
  0
BLOCK
  8
0
  2
*U51
 70
     1
 10
0.0
 20
0.0
 30
0.0
  3
*U51
  1

  0
TEXT
  5
51C9
  8
MM_4_0_050
 62
     7
 10
-96.5024314613410752
 20
277.3999999999999773
 30
0.0
 40
3.4999999403953548
  1
2
  7
TEXT_STYLE10
  0
ENDBLK
  5
51CB
  8
0
  0
BLOCK
  8
0
  2
*U52
 70
     1
 10
0.0
 20
0.0
 30
0.0
  3
*U52
  1

  0
TEXT
  5
51CD
  8
MM_4_0_050
 62
     7
 10
-96.5024314613410752
 20
-3.8999999403953529
 30
0.0
 40
3.4999999403953548
  1
2
  7
TEXT_STYLE10
  0
ENDBLK
  5
51CF
  8
0
  0
BLOCK
  8
0
  2
*U53
 70
     1
 10
0.0
 20
0.0
 30
0.0
  3
*U53
  1

  0
TEXT
  5
51D1
  8
MM_4_0_050
 62
     7
 10
-166.5645051301337958
 20
277.4620736687928115
 30
0.0
 40
3.4999999403953548
  1
3
  7
TEXT_STYLE10
  0
ENDBLK
  5
51D3
  8
0
  0
BLOCK
  8
0
  2
*U54
 70
     1
 10
0.0
 20
0.0
 30
0.0
  3
*U54
  1

  0
TEXT
  5
51D5
  8
MM_4_0_050
 62
     7
 10
-166.5645051301337958
 20
-3.8379262716025302
 30
0.0
 40
3.4999999403953548
  1
3
  7
TEXT_STYLE10
  0
ENDBLK
  5
51D7
  8
0
  0
BLOCK
  8
0
  2
*U55
 70
     1
 10
0.0
 20
0.0
 30
0.0
  3
*U55
  1

  0
TEXT
  5
51D9
  8
MM_4_0_050
 62
     7
 10
-236.4212582021503977
 20
277.3999999999999773
 30
0.0
 40
3.4999999403953548
  1
4
  7
TEXT_STYLE10
  0
ENDBLK
  5
51DB
  8
0
  0
BLOCK
  8
0
  2
*U56
 70
     1
 10
0.0
 20
0.0
 30
0.0
  3
*U56
  1

  0
TEXT
  5
51DD
  8
MM_4_0_050
 62
     7
 10
-236.4212582021503977
 20
-3.8999999403953529
 30
0.0
 40
3.4999999403953548
  1
4
  7
TEXT_STYLE10
  0
ENDBLK
  5
51DF
  8
0
  0
BLOCK
  8
0
  2
*U57
 70
     1
 10
0.0
 20
0.0
 30
0.0
  3
*U57
  1

  0
TEXT
  5
51E1
  8
MM_4_0_050
 62
     7
 10
-306.5621176813340867
 20
277.4596862199932161
 30
0.0
 40
3.4999999403953548
  1
5
  7
TEXT_STYLE10
  0
ENDBLK
  5
51E3
  8
0
  0
BLOCK
  8
0
  2
*U58
 70
     1
 10
0.0
 20
0.0
 30
0.0
  3
*U58
  1

  0
TEXT
  5
51E5
  8
MM_4_0_050
 62
     7
 10
-306.5621176813340867
 20
-3.8403137204022539
 30
0.0
 40
3.4999999403953548
  1
5
  7
TEXT_STYLE10
  0
ENDBLK
  5
51E7
  8
0
  0
BLOCK
  8
0
  2
*U59
 70
     1
 10
0.0
 20
0.0
 30
0.0
  3
*U59
  1

  0
TEXT
  5
51E9
  8
MM_4_0_050
 62
     7
 10
-376.543018090936414
 20
277.4596862199931024
 30
0.0
 40
3.4999999403953548
  1
6
  7
TEXT_STYLE10
  0
ENDBLK
  5
51EB
  8
0
  0
BLOCK
  8
0
  2
*U60
 70
     1
 10
0.0
 20
0.0
 30
0.0
  3
*U60
  1

  0
TEXT
  5
51ED
  8
MM_4_0_050
 62
     7
 10
-376.543018090936414
 20
-3.8403137204022539
 30
0.0
 40
3.4999999403953548
  1
6
  7
TEXT_STYLE10
  0
ENDBLK
  5
51EF
  8
0
  0
BLOCK
  8
0
  2
*U61
 70
     1
 10
0.0
 20
0.0
 30
0.0
  3
*U61
  1

  0
TEXT
  5
51F1
  8
MM_4_0_050
 62
     7
 10
-403.7879573643206754
 20
25.3750000298023295
 30
0.0
 40
3.4999999403953548
  1
A
  7
TEXT_STYLE10
  0
ENDBLK
  5
51F3
  8
0
  0
BLOCK
  8
0
  2
*U62
 70
     1
 10
0.0
 20
0.0
 30
0.0
  3
*U62
  1

  0
TEXT
  5
51F5
  8
MM_4_0_050
 62
     7
 10
0.5120425760745775
 20
25.3750000298023295
 30
0.0
 40
3.4999999403953548
  1
A
  7
TEXT_STYLE10
  0
ENDBLK
  5
51F7
  8
0
  0
BLOCK
  8
0
  2
*U63
 70
     1
 10
0.0
 20
0.0
 30
0.0
  3
*U63
  1

  0
TEXT
  5
51F9
  8
MM_4_0_050
 62
     7
 10
-404.1394053715637256
 20
99.6250000298023366
 30
0.0
 40
3.4999999403953548
  1
B
  7
TEXT_STYLE10
  0
ENDBLK
  5
51FB
  8
0
  0
BLOCK
  8
0
  2
*U64
 70
     1
 10
0.0
 20
0.0
 30
0.0
  3
*U64
  1

  0
TEXT
  5
51FD
  8
MM_4_0_050
 62
     7
 10
0.1605945688315108
 20
99.6250000298023366
 30
0.0
 40
3.4999999403953548
  1
B
  7
TEXT_STYLE10
  0
ENDBLK
  5
51FF
  8
0
  0
BLOCK
  8
0
  2
*U65
 70
     1
 10
0.0
 20
0.0
 30
0.0
  3
*U65
  1

  0
TEXT
  5
5201
  8
MM_4_0_050
 62
     7
 10
-404.1595259492751211
 20
173.9346862497953907
 30
0.0
 40
3.4999999403953548
  1
C
  7
TEXT_STYLE10
  0
ENDBLK
  5
5203
  8
0
  0
BLOCK
  8
0
  2
*U66
 70
     1
 10
0.0
 20
0.0
 30
0.0
  3
*U66
  1

  0
TEXT
  5
5205
  8
MM_4_0_050
 62
     7
 10
0.1404739911201478
 20
173.9346862497953907
 30
0.0
 40
3.4999999403953548
  1
C
  7
TEXT_STYLE10
  0
ENDBLK
  5
5207
  8
0
  0
BLOCK
  8
0
  2
*U67
 70
     1
 10
0.0
 20
0.0
 30
0.0
  3
*U67
  1

  0
TEXT
  5
5209
  8
MM_4_0_050
 62
     7
 10
-404.293223082059626
 20
248.125000029802294
 30
0.0
 40
3.4999999403953548
  1
D
  7
TEXT_STYLE10
  0
ENDBLK
  5
520B
  8
0
  0
BLOCK
  8
0
  2
*U68
 70
     1
 10
0.0
 20
0.0
 30
0.0
  3
*U68
  1

  0
TEXT
  5
520D
  8
MM_4_0_050
 62
     7
 10
0.0067768583356049
 20
248.125000029802294
 30
0.0
 40
3.4999999403953548
  1
D
  7
TEXT_STYLE10
  0
ENDBLK
  5
520F
  8
0
  0
BLOCK
  8
0
  2
*U69
 70
     1
 10
0.0
 20
0.0
 30
0.0
  3
*U69
  1

  0
TEXT
  5
5211
  8
MM_4_0_050
 10
-87.9771299479281197
 20
1.465244146699338
 30
0.0
 40
5.0
  1
A3
 41
0.9
  7
TEXT__1_5MM
  0
ENDBLK
  5
5213
  8
0
  0
BLOCK
  8
0
  2
*U70
 70
     1
 10
0.0
 20
0.0
 30
0.0
  3
*U70
  1

  0
TEXT
  5
5216
  8
MM_4_0_050
 62
     7
 10
0.254990808610955
 20
373.2500000298023224
 30
0.0
 40
3.4999999403953548
  1
F
  7
TEXT_STYLE10
  0
ENDBLK
  5
5218
  8
0
  0
BLOCK
  8
0
  2
*U71
 70
     1
 10
0.0
 20
0.0
 30
0.0
  3
*U71
  1

  0
TEXT
  5
521A
  8
MM_4_0_050
 62
     7
 10
-578.0450091317843544
 20
373.2500000298023224
 30
0.0
 40
3.4999999403953548
  1
F
  7
TEXT_STYLE10
  0
ENDBLK
  5
521C
  8
0
  0
BLOCK
  8
0
  2
*U72
 70
     1
 10
0.0
 20
0.0
 30
0.0
  3
*U72
  1

  0
TEXT
  5
521E
  8
MM_4_0_050
 62
     7
 10
0.1319299244458742
 20
303.2500000298023224
 30
0.0
 40
3.4999999403953548
  1
E
  7
TEXT_STYLE10
  0
ENDBLK
  5
5220
  8
0
  0
BLOCK
  8
0
  2
*U73
 70
     1
 10
0.0
 20
0.0
 30
0.0
  3
*U73
  1

  0
TEXT
  5
5222
  8
MM_4_0_050
 62
     7
 10
-578.1680700159495245
 20
303.2500000298023224
 30
0.0
 40
3.4999999403953548
  1
E
  7
TEXT_STYLE10
  0
ENDBLK
  5
5224
  8
0
  0
BLOCK
  8
0
  2
*U74
 70
     1
 10
0.0
 20
0.0
 30
0.0
  3
*U74
  1

  0
TEXT
  5
5226
  8
MM_4_0_050
 62
     7
 10
0.0067615995466561
 20
233.250000029802294
 30
0.0
 40
3.4999999403953548
  1
D
  7
TEXT_STYLE10
  0
ENDBLK
  5
5228
  8
0
  0
BLOCK
  8
0
  2
*U75
 70
     1
 10
0.0
 20
0.0
 30
0.0
  3
*U75
  1

  0
TEXT
  5
522A
  8
MM_4_0_050
 62
     7
 10
-578.2932383408486885
 20
233.250000029802294
 30
0.0
 40
3.4999999403953548
  1
D
  7
TEXT_STYLE10
  0
ENDBLK
  5
522C
  8
0
  0
BLOCK
  8
0
  2
*U76
 70
     1
 10
0.0
 20
0.0
 30
0.0
  3
*U76
  1

  0
TEXT
  5
522E
  8
MM_4_0_050
 62
     7
 10
0.140458732331199
 20
163.3096862497953907
 30
0.0
 40
3.4999999403953548
  1
C
  7
TEXT_STYLE10
  0
ENDBLK
  5
5230
  8
0
  0
BLOCK
  8
0
  2
*U77
 70
     1
 10
0.0
 20
0.0
 30
0.0
  3
*U77
  1

  0
TEXT
  5
5232
  8
MM_4_0_050
 62
     7
 10
-578.1595412080640699
 20
163.3096862497953907
 30
0.0
 40
3.4999999403953548
  1
C
  7
TEXT_STYLE10
  0
ENDBLK
  5
5234
  8
0
  0
BLOCK
  8
0
  2
*U78
 70
     1
 10
0.0
 20
0.0
 30
0.0
  3
*U78
  1

  0
TEXT
  5
5236
  8
MM_4_0_050
 62
     7
 10
0.160579310042562
 20
93.2500000298023224
 30
0.0
 40
3.4999999403953548
  1
B
  7
TEXT_STYLE10
  0
ENDBLK
  5
5238
  8
0
  0
BLOCK
  8
0
  2
*U79
 70
     1
 10
0.0
 20
0.0
 30
0.0
  3
*U79
  1

  0
TEXT
  5
523A
  8
MM_4_0_050
 62
     7
 10
-578.1394206303529018
 20
93.2500000298023224
 30
0.0
 40
3.4999999403953548
  1
B
  7
TEXT_STYLE10
  0
ENDBLK
  5
523C
  8
0
  0
BLOCK
  8
0
  2
*U80
 70
     1
 10
0.0
 20
0.0
 30
0.0
  3
*U80
  1

  0
TEXT
  5
523E
  8
MM_4_0_050
 62
     7
 10
0.5120273172856287
 20
23.2500000298023188
 30
0.0
 40
3.4999999403953548
  1
A
  7
TEXT_STYLE10
  0
ENDBLK
  5
5240
  8
0
  0
BLOCK
  8
0
  2
*U81
 70
     1
 10
0.0
 20
0.0
 30
0.0
  3
*U81
  1

  0
TEXT
  5
5242
  8
MM_4_0_050
 62
     7
 10
-577.7879726231096811
 20
23.2500000298023188
 30
0.0
 40
3.4999999403953548
  1
A
  7
TEXT_STYLE10
  0
ENDBLK
  5
5244
  8
0
  0
BLOCK
  8
0
  2
*U82
 70
     1
 10
0.0
 20
0.0
 30
0.0
  3
*U82
  1

  0
TEXT
  5
5246
  8
MM_4_0_050
 62
     7
 10
-548.4323580425237878
 20
-3.8403137204022539
 30
0.0
 40
3.4999999403953548
  1
8
  7
TEXT_STYLE10
  0
ENDBLK
  5
5248
  8
0
  0
BLOCK
  8
0
  2
*U83
 70
     1
 10
0.0
 20
0.0
 30
0.0
  3
*U83
  1

  0
TEXT
  5
524A
  8
MM_4_0_050
 62
     7
 10
-548.4323580425237878
 20
400.4596862199929888
 30
0.0
 40
3.4999999403953548
  1
8
  7
TEXT_STYLE10
  0
ENDBLK
  5
524C
  8
0
  0
BLOCK
  8
0
  2
*U84
 70
     1
 10
0.0
 20
0.0
 30
0.0
  3
*U84
  1

  0
TEXT
  5
524E
  8
MM_4_0_050
 62
     7
 10
-474.2157823257198856
 20
-3.8999999403953529
 30
0.0
 40
3.4999999403953548
  1
7
  7
TEXT_STYLE10
  0
ENDBLK
  5
5250
  8
0
  0
BLOCK
  8
0
  2
*U85
 70
     1
 10
0.0
 20
0.0
 30
0.0
  3
*U85
  1

  0
TEXT
  5
5252
  8
MM_4_0_050
 62
     7
 10
-474.2157823257198856
 20
400.3999999999999204
 30
0.0
 40
3.4999999403953548
  1
7
  7
TEXT_STYLE10
  0
ENDBLK
  5
5254
  8
0
  0
BLOCK
  8
0
  2
*U86
 70
     1
 10
0.0
 20
0.0
 30
0.0
  3
*U86
  1

  0
TEXT
  5
5256
  8
MM_4_0_050
 62
     7
 10
-399.9180333497254196
 20
-3.8403137204022539
 30
0.0
 40
3.4999999403953548
  1
6
  7
TEXT_STYLE10
  0
ENDBLK
  5
5258
  8
0
  0
BLOCK
  8
0
  2
*U87
 70
     1
 10
0.0
 20
0.0
 30
0.0
  3
*U87
  1

  0
TEXT
  5
525A
  8
MM_4_0_050
 62
     7
 10
-399.9180333497254196
 20
400.4596862199929888
 30
0.0
 40
3.4999999403953548
  1
6
  7
TEXT_STYLE10
  0
ENDBLK
  5
525C
  8
0
  0
BLOCK
  8
0
  2
*U88
 70
     1
 10
0.0
 20
0.0
 30
0.0
  3
*U88
  1

  0
TEXT
  5
525E
  8
MM_4_0_050
 62
     7
 10
-325.687132940123206
 20
-3.8403137204022539
 30
0.0
 40
3.4999999403953548
  1
5
  7
TEXT_STYLE10
  0
ENDBLK
  5
5260
  8
0
  0
BLOCK
  8
0
  2
*U89
 70
     1
 10
0.0
 20
0.0
 30
0.0
  3
*U89
  1

  0
TEXT
  5
5262
  8
MM_4_0_050
 62
     7
 10
-325.687132940123206
 20
400.4596862199931024
 30
0.0
 40
3.4999999403953548
  1
5
  7
TEXT_STYLE10
  0
ENDBLK
  5
5264
  8
0
  0
BLOCK
  8
0
  2
*U90
 70
     1
 10
0.0
 20
0.0
 30
0.0
  3
*U90
  1

  0
TEXT
  5
5266
  8
MM_4_0_050
 62
     7
 10
-251.2962734609394033
 20
-3.8999999403953529
 30
0.0
 40
3.4999999403953548
  1
4
  7
TEXT_STYLE10
  0
ENDBLK
  5
5268
  8
0
  0
BLOCK
  8
0
  2
*U91
 70
     1
 10
0.0
 20
0.0
 30
0.0
  3
*U91
  1

  0
TEXT
  5
526A
  8
MM_4_0_050
 62
     7
 10
-251.2962734609394033
 20
400.3999999999999204
 30
0.0
 40
3.4999999403953548
  1
4
  7
TEXT_STYLE10
  0
ENDBLK
  5
526C
  8
0
  0
BLOCK
  8
0
  2
*U92
 70
     1
 10
0.0
 20
0.0
 30
0.0
  3
*U92
  1

  0
TEXT
  5
526E
  8
MM_4_0_050
 62
     7
 10
-177.1895203889228867
 20
-3.8379262716025302
 30
0.0
 40
3.4999999403953548
  1
3
  7
TEXT_STYLE10
  0
ENDBLK
  5
5270
  8
0
  0
BLOCK
  8
0
  2
*U93
 70
     1
 10
0.0
 20
0.0
 30
0.0
  3
*U93
  1

  0
TEXT
  5
5272
  8
MM_4_0_050
 62
     7
 10
-177.1895203889228867
 20
400.4620736687926978
 30
0.0
 40
3.4999999403953548
  1
3
  7
TEXT_STYLE10
  0
ENDBLK
  5
5274
  8
0
  0
BLOCK
  8
0
  2
*U94
 70
     1
 10
0.0
 20
0.0
 30
0.0
  3
*U94
  1

  0
TEXT
  5
5276
  8
MM_4_0_050
 62
     7
 10
-102.8774467201300951
 20
-3.8999999403953529
 30
0.0
 40
3.4999999403953548
  1
2
  7
TEXT_STYLE10
  0
ENDBLK
  5
5278
  8
0
  0
BLOCK
  8
0
  2
*U95
 70
     1
 10
0.0
 20
0.0
 30
0.0
  3
*U95
  1

  0
TEXT
  5
527A
  8
MM_4_0_050
 62
     7
 10
-102.8774467201300951
 20
400.3999999999999204
 30
0.0
 40
3.4999999403953548
  1
2
  7
TEXT_STYLE10
  0
ENDBLK
  5
527C
  8
0
  0
BLOCK
  8
0
  2
*U96
 70
     1
 10
0.0
 20
0.0
 30
0.0
  3
*U96
  1

  0
TEXT
  5
527E
  8
MM_4_0_050
 62
     7
 10
-29.0166008744849115
 20
-3.8999999403953529
 30
0.0
 40
3.4999999403953548
  1
1
  7
TEXT_STYLE10
  0
ENDBLK
  5
5280
  8
0
  0
BLOCK
  8
0
  2
*U97
 70
     1
 10
0.0
 20
0.0
 30
0.0
  3
*U97
  1

  0
TEXT
  5
5282
  8
MM_4_0_050
 62
     7
 10
-29.0166008744849115
 20
400.3999999999999204
 30
0.0
 40
3.4999999403953548
  1
1
  7
TEXT_STYLE10
  0
ENDBLK
  5
5284
  8
0
  0
BLOCK
  8
0
  2
*U98
 70
     1
 10
0.0
 20
0.0
 30
0.0
  3
*U98
  1

  0
TEXT
  5
5286
  8
MM_4_0_050
 10
-87.9771299479281197
 20
1.465244146699338
 30
0.0
 40
5.0
  1
A2
 41
0.9
  7
TEXT__1_5MM
  0
ENDBLK
  5
5288
  8
0
  0
BLOCK
  8
0
  2
*U99
 70
     1
 10
0.0
 20
0.0
 30
0.0
  3
*U99
  1

  0
TEXT
  5
528B
  8
MM_4_0_050
 62
     7
 10
-0.0075325756735627
 20
535.1250000298023224
 30
0.0
 40
3.4999999403953548
  1
H
  7
TEXT_STYLE10
  0
ENDBLK
  5
528D
  8
0
  0
BLOCK
  8
0
  2
*U100
 70
     1
 10
0.0
 20
0.0
 30
0.0
  3
*U100
  1

  0
TEXT
  5
528F
  8
MM_4_0_050
 62
     7
 10
-805.3075325160689317
 20
535.1250000298023224
 30
0.0
 40
3.4999999403953548
  1
H
  7
TEXT_STYLE10
  0
ENDBLK
  5
5291
  8
0
  0
BLOCK
  8
0
  2
*U101
 70
     1
 10
0.0
 20
0.0
 30
0.0
  3
*U101
  1

  0
TEXT
  5
5293
  8
MM_4_0_050
 62
     7
 10
-0.0122746657137072
 20
460.9346862497953907
 30
0.0
 40
3.4999999403953548
  1
G
  7
TEXT_STYLE10
  0
ENDBLK
  5
5295
  8
0
  0
BLOCK
  8
0
  2
*U102
 70
     1
 10
0.0
 20
0.0
 30
0.0
  3
*U102
  1

  0
TEXT
  5
5297
  8
MM_4_0_050
 62
     7
 10
-805.3122746061089856
 20
460.9346862497953907
 30
0.0
 40
3.4999999403953548
  1
G
  7
TEXT_STYLE10
  0
ENDBLK
  5
5299
  8
0
  0
BLOCK
  8
0
  2
*U103
 70
     1
 10
0.0
 20
0.0
 30
0.0
  3
*U103
  1

  0
TEXT
  5
529B
  8
MM_4_0_050
 62
     7
 10
0.25502132618908
 20
386.6250000298023792
 30
0.0
 40
3.4999999403953548
  1
F
  7
TEXT_STYLE10
  0
ENDBLK
  5
529D
  8
0
  0
BLOCK
  8
0
  2
*U104
 70
     1
 10
0.0
 20
0.0
 30
0.0
  3
*U104
  1

  0
TEXT
  5
529F
  8
MM_4_0_050
 62
     7
 10
-805.0449786142063431
 20
386.6250000298023792
 30
0.0
 40
3.4999999403953548
  1
F
  7
TEXT_STYLE10
  0
ENDBLK
  5
52A1
  8
0
  0
BLOCK
  8
0
  2
*U105
 70
     1
 10
0.0
 20
0.0
 30
0.0
  3
*U105
  1

  0
TEXT
  5
52A3
  8
MM_4_0_050
 62
     7
 10
0.1319604420239992
 20
312.3750000298023224
 30
0.0
 40
3.4999999403953548
  1
E
  7
TEXT_STYLE10
  0
ENDBLK
  5
52A5
  8
0
  0
BLOCK
  8
0
  2
*U106
 70
     1
 10
0.0
 20
0.0
 30
0.0
  3
*U106
  1

  0
TEXT
  5
52A7
  8
MM_4_0_050
 62
     7
 10
-805.1680394983713995
 20
312.3750000298023224
 30
0.0
 40
3.4999999403953548
  1
E
  7
TEXT_STYLE10
  0
ENDBLK
  5
52A9
  8
0
  0
BLOCK
  8
0
  2
*U107
 70
     1
 10
0.0
 20
0.0
 30
0.0
  3
*U107
  1

  0
TEXT
  5
52AB
  8
MM_4_0_050
 62
     7
 10
0.0067921171247811
 20
238.125000029802294
 30
0.0
 40
3.4999999403953548
  1
D
  7
TEXT_STYLE10
  0
ENDBLK
  5
52AD
  8
0
  0
BLOCK
  8
0
  2
*U108
 70
     1
 10
0.0
 20
0.0
 30
0.0
  3
*U108
  1

  0
TEXT
  5
52AF
  8
MM_4_0_050
 62
     7
 10
-805.2932078232706772
 20
238.125000029802294
 30
0.0
 40
3.4999999403953548
  1
D
  7
TEXT_STYLE10
  0
ENDBLK
  5
52B1
  8
0
  0
BLOCK
  8
0
  2
*U109
 70
     1
 10
0.0
 20
0.0
 30
0.0
  3
*U109
  1

  0
TEXT
  5
52B3
  8
MM_4_0_050
 62
     7
 10
0.140489249909324
 20
163.9346862497953907
 30
0.0
 40
3.4999999403953548
  1
C
  7
TEXT_STYLE10
  0
ENDBLK
  5
52B5
  8
0
  0
BLOCK
  8
0
  2
*U110
 70
     1
 10
0.0
 20
0.0
 30
0.0
  3
*U110
  1

  0
TEXT
  5
52B7
  8
MM_4_0_050
 62
     7
 10
-805.1595106904859449
 20
163.9346862497953907
 30
0.0
 40
3.4999999403953548
  1
C
  7
TEXT_STYLE10
  0
ENDBLK
  5
52B9
  8
0
  0
BLOCK
  8
0
  2
*U111
 70
     1
 10
0.0
 20
0.0
 30
0.0
  3
*U111
  1

  0
TEXT
  5
52BB
  8
MM_4_0_050
 62
     7
 10
0.160609827620687
 20
89.6250000298023366
 30
0.0
 40
3.4999999403953548
  1
B
  7
TEXT_STYLE10
  0
ENDBLK
  5
52BD
  8
0
  0
BLOCK
  8
0
  2
*U112
 70
     1
 10
0.0
 20
0.0
 30
0.0
  3
*U112
  1

  0
TEXT
  5
52BF
  8
MM_4_0_050
 62
     7
 10
-805.1393901127746631
 20
89.6250000298023366
 30
0.0
 40
3.4999999403953548
  1
B
  7
TEXT_STYLE10
  0
ENDBLK
  5
52C1
  8
0
  0
BLOCK
  8
0
  2
*U113
 70
     1
 10
0.0
 20
0.0
 30
0.0
  3
*U113
  1

  0
TEXT
  5
52C3
  8
MM_4_0_050
 62
     7
 10
0.5120578348637537
 20
15.3750000298023206
 30
0.0
 40
3.4999999403953548
  1
A
  7
TEXT_STYLE10
  0
ENDBLK
  5
52C5
  8
0
  0
BLOCK
  8
0
  2
*U114
 70
     1
 10
0.0
 20
0.0
 30
0.0
  3
*U114
  1

  0
TEXT
  5
52C7
  8
MM_4_0_050
 62
     7
 10
-804.7879421055315561
 20
15.3750000298023206
 30
0.0
 40
3.4999999403953548
  1
A
  7
TEXT_STYLE10
  0
ENDBLK
  5
52C9
  8
0
  0
BLOCK
  8
0
  2
*U115
 70
     1
 10
0.0
 20
0.0
 30
0.0
  3
*U115
  1

  0
TEXT
  5
52CB
  8
MM_4_0_050
 62
     7
 10
-789.209088223597746
 20
-3.8999999403953529
 30
0.0
 40
3.4999999403953548
  1
12
  7
TEXT_STYLE10
  0
ENDBLK
  5
52CD
  8
0
  0
BLOCK
  8
0
  2
*U116
 70
     1
 10
0.0
 20
0.0
 30
0.0
  3
*U116
  1

  0
TEXT
  5
52CF
  8
MM_4_0_050
 62
     7
 10
-789.209088223597746
 20
554.4000000000000909
 30
0.0
 40
3.4999999403953548
  1
12
  7
TEXT_STYLE10
  0
ENDBLK
  5
52D1
  8
0
  0
BLOCK
  8
0
  2
*U117
 70
     1
 10
0.0
 20
0.0
 30
0.0
  3
*U117
  1

  0
TEXT
  5
52D3
  8
MM_4_0_050
 62
     7
 10
-719.1257548902646022
 20
-3.8999999403953529
 30
0.0
 40
3.4999999403953548
  1
11
  7
TEXT_STYLE10
  0
ENDBLK
  5
52D5
  8
0
  0
BLOCK
  8
0
  2
*U118
 70
     1
 10
0.0
 20
0.0
 30
0.0
  3
*U118
  1

  0
TEXT
  5
52D7
  8
MM_4_0_050
 62
     7
 10
-719.1257548902646022
 20
554.4000000000000909
 30
0.0
 40
3.4999999403953548
  1
11
  7
TEXT_STYLE10
  0
ENDBLK
  5
52D9
  8
0
  0
BLOCK
  8
0
  2
*U119
 70
     1
 10
0.0
 20
0.0
 30
0.0
  3
*U119
  1

  0
TEXT
  5
52DB
  8
MM_4_0_050
 62
     7
 10
-649.042421556931231
 20
-3.8403137204022539
 30
0.0
 40
3.4999999403953548
  1
10
  7
TEXT_STYLE10
  0
ENDBLK
  5
52DD
  8
0
  0
BLOCK
  8
0
  2
*U120
 70
     1
 10
0.0
 20
0.0
 30
0.0
  3
*U120
  1

  0
TEXT
  5
52DF
  8
MM_4_0_050
 62
     7
 10
-649.042421556931231
 20
554.4596862199930456
 30
0.0
 40
3.4999999403953548
  1
10
  7
TEXT_STYLE10
  0
ENDBLK
  5
52E1
  8
0
  0
BLOCK
  8
0
  2
*U121
 70
     1
 10
0.0
 20
0.0
 30
0.0
  3
*U121
  1

  0
TEXT
  5
52E3
  8
MM_4_0_050
 62
     7
 10
-577.2704357558783386
 20
-3.8403137204022539
 30
0.0
 40
3.4999999403953548
  1
9
  7
TEXT_STYLE10
  0
ENDBLK
  5
52E5
  8
0
  0
BLOCK
  8
0
  2
*U122
 70
     1
 10
0.0
 20
0.0
 30
0.0
  3
*U122
  1

  0
TEXT
  5
52E7
  8
MM_4_0_050
 62
     7
 10
-577.2704357558783386
 20
554.4596862199930456
 30
0.0
 40
3.4999999403953548
  1
9
  7
TEXT_STYLE10
  0
ENDBLK
  5
52E9
  8
0
  0
BLOCK
  8
0
  2
*U123
 70
     1
 10
0.0
 20
0.0
 30
0.0
  3
*U123
  1

  0
TEXT
  5
52EB
  8
MM_4_0_050
 62
     7
 10
-507.182327524945606
 20
-3.8403137204022539
 30
0.0
 40
3.4999999403953548
  1
8
  7
TEXT_STYLE10
  0
ENDBLK
  5
52ED
  8
0
  0
BLOCK
  8
0
  2
*U124
 70
     1
 10
0.0
 20
0.0
 30
0.0
  3
*U124
  1

  0
TEXT
  5
52EF
  8
MM_4_0_050
 62
     7
 10
-507.182327524945606
 20
554.4596862199930456
 30
0.0
 40
3.4999999403953548
  1
8
  7
TEXT_STYLE10
  0
ENDBLK
  5
52F1
  8
0
  0
BLOCK
  8
0
  2
*U125
 70
     1
 10
0.0
 20
0.0
 30
0.0
  3
*U125
  1

  0
TEXT
  5
52F3
  8
MM_4_0_050
 62
     7
 10
-437.1324184748082757
 20
-3.8999999403953529
 30
0.0
 40
3.4999999403953548
  1
7
  7
TEXT_STYLE10
  0
ENDBLK
  5
52F5
  8
0
  0
BLOCK
  8
0
  2
*U126
 70
     1
 10
0.0
 20
0.0
 30
0.0
  3
*U126
  1

  0
TEXT
  5
52F7
  8
MM_4_0_050
 62
     7
 10
-437.1324184748082757
 20
554.4000000000000909
 30
0.0
 40
3.4999999403953548
  1
7
  7
TEXT_STYLE10
  0
ENDBLK
  5
52F9
  8
0
  0
BLOCK
  8
0
  2
*U127
 70
     1
 10
0.0
 20
0.0
 30
0.0
  3
*U127
  1

  0
TEXT
  5
52FB
  8
MM_4_0_050
 62
     7
 10
-367.001336165480609
 20
-3.8403137204022539
 30
0.0
 40
3.4999999403953548
  1
6
  7
TEXT_STYLE10
  0
ENDBLK
  5
52FD
  8
0
  0
BLOCK
  8
0
  2
*U128
 70
     1
 10
0.0
 20
0.0
 30
0.0
  3
*U128
  1

  0
TEXT
  5
52FF
  8
MM_4_0_050
 62
     7
 10
-367.001336165480609
 20
554.4596862199930456
 30
0.0
 40
3.4999999403953548
  1
6
  7
TEXT_STYLE10
  0
ENDBLK
  5
5301
  8
0
  0
BLOCK
  8
0
  2
*U129
 70
     1
 10
0.0
 20
0.0
 30
0.0
  3
*U129
  1

  0
TEXT
  5
5303
  8
MM_4_0_050
 62
     7
 10
-296.937102422545081
 20
-3.8403137204022539
 30
0.0
 40
3.4999999403953548
  1
5
  7
TEXT_STYLE10
  0
ENDBLK
  5
5305
  8
0
  0
BLOCK
  8
0
  2
*U130
 70
     1
 10
0.0
 20
0.0
 30
0.0
  3
*U130
  1

  0
TEXT
  5
5307
  8
MM_4_0_050
 62
     7
 10
-296.937102422545081
 20
554.4596862199930456
 30
0.0
 40
3.4999999403953548
  1
5
  7
TEXT_STYLE10
  0
ENDBLK
  5
5309
  8
0
  0
BLOCK
  8
0
  2
*U131
 70
     1
 10
0.0
 20
0.0
 30
0.0
  3
*U131
  1

  0
TEXT
  5
530B
  8
MM_4_0_050
 62
     7
 10
-226.7129096100279924
 20
-3.8999999403953529
 30
0.0
 40
3.4999999403953548
  1
4
  7
TEXT_STYLE10
  0
ENDBLK
  5
530D
  8
0
  0
BLOCK
  8
0
  2
*U132
 70
     1
 10
0.0
 20
0.0
 30
0.0
  3
*U132
  1

  0
TEXT
  5
530F
  8
MM_4_0_050
 62
     7
 10
-226.7129096100279924
 20
554.4000000000000909
 30
0.0
 40
3.4999999403953548
  1
4
  7
TEXT_STYLE10
  0
ENDBLK
  5
5311
  8
0
  0
BLOCK
  8
0
  2
*U133
 70
     1
 10
0.0
 20
0.0
 30
0.0
  3
*U133
  1

  0
TEXT
  5
5313
  8
MM_4_0_050
 62
     7
 10
-156.7728232046781898
 20
-3.8379262716025302
 30
0.0
 40
3.4999999403953548
  1
3
  7
TEXT_STYLE10
  0
ENDBLK
  5
5315
  8
0
  0
BLOCK
  8
0
  2
*U134
 70
     1
 10
0.0
 20
0.0
 30
0.0
  3
*U134
  1

  0
TEXT
  5
5317
  8
MM_4_0_050
 62
     7
 10
-156.7728232046781898
 20
554.4620736687927547
 30
0.0
 40
3.4999999403953548
  1
3
  7
TEXT_STYLE10
  0
ENDBLK
  5
5319
  8
0
  0
BLOCK
  8
0
  2
*U135
 70
     1
 10
0.0
 20
0.0
 30
0.0
  3
*U135
  1

  0
TEXT
  5
531B
  8
MM_4_0_050
 62
     7
 10
-86.6274162025519985
 20
-3.8999999403953529
 30
0.0
 40
3.4999999403953548
  1
2
  7
TEXT_STYLE10
  0
ENDBLK
  5
531D
  8
0
  0
BLOCK
  8
0
  2
*U136
 70
     1
 10
0.0
 20
0.0
 30
0.0
  3
*U136
  1

  0
TEXT
  5
531F
  8
MM_4_0_050
 62
     7
 10
-86.6274162025519985
 20
554.4000000000000909
 30
0.0
 40
3.4999999403953548
  1
2
  7
TEXT_STYLE10
  0
ENDBLK
  5
5321
  8
0
  0
BLOCK
  8
0
  2
*U137
 70
     1
 10
0.0
 20
0.0
 30
0.0
  3
*U137
  1

  0
TEXT
  5
5323
  8
MM_4_0_050
 62
     7
 10
-16.9332370235735183
 20
-3.8999999403953529
 30
0.0
 40
3.4999999403953548
  1
1
  7
TEXT_STYLE10
  0
ENDBLK
  5
5325
  8
0
  0
BLOCK
  8
0
  2
*U138
 70
     1
 10
0.0
 20
0.0
 30
0.0
  3
*U138
  1

  0
TEXT
  5
5327
  8
MM_4_0_050
 62
     7
 10
-16.9332370235735183
 20
554.4000000000000909
 30
0.0
 40
3.4999999403953548
  1
1
  7
TEXT_STYLE10
  0
ENDBLK
  5
5329
  8
0
  0
BLOCK
  8
0
  2
*U139
 70
     1
 10
0.0
 20
0.0
 30
0.0
  3
*U139
  1

  0
TEXT
  5
532B
  8
MM_4_0_050
 62
     7
 10
-87.9771299479281197
 20
1.465244146699338
 30
0.0
 40
5.0
  1
A1
 41
0.9
  7
TEXT__1_5MM
  0
ENDBLK
  5
532D
  8
0
  0
BLOCK
  8
0
  2
*U140
 70
     1
 10
0.0
 20
0.0
 30
0.0
  3
*U140
  1

  0
TEXT
  5
5330
  8
MM_4_0_050
 62
     7
 10
0.4326828580924888
 20
784.2083333631358073
 30
0.0
 40
3.4999999403953548
  1
L
  7
TEXT_STYLE10
  0
ENDBLK
  5
5332
  8
0
  0
BLOCK
  8
0
  2
*U141
 70
     1
 10
0.0
 20
0.0
 30
0.0
  3
*U141
  1

  0
TEXT
  5
5334
  8
MM_4_0_050
 62
     7
 10
-1152.8673170823030887
 20
784.2083333631358073
 30
0.0
 40
3.4999999403953548
  1
L
  7
TEXT_STYLE10
  0
ENDBLK
  5
5336
  8
0
  0
BLOCK
  8
0
  2
*U142
 70
     1
 10
0.0
 20
0.0
 30
0.0
  3
*U142
  1

  0
TEXT
  5
5338
  8
MM_4_0_050
 62
     7
 10
0.160579310042562
 20
714.1250000298023224
 30
0.0
 40
3.4999999403953548
  1
K
  7
TEXT_STYLE10
  0
ENDBLK
  5
533A
  8
0
  0
BLOCK
  8
0
  2
*U143
 70
     1
 10
0.0
 20
0.0
 30
0.0
  3
*U143
  1

  0
TEXT
  5
533C
  8
MM_4_0_050
 62
     7
 10
-1153.1394206303530154
 20
714.1250000298023224
 30
0.0
 40
3.4999999403953548
  1
K
  7
TEXT_STYLE10
  0
ENDBLK
  5
533E
  8
0
  0
BLOCK
  8
0
  2
*U144
 70
     1
 10
0.0
 20
0.0
 30
0.0
  3
*U144
  1

  0
TEXT
  5
5340
  8
MM_4_0_050
 62
     7
 10
0.7955423425970363
 20
644.1013529164620195
 30
0.0
 40
3.4999999403953548
  1
J
  7
TEXT_STYLE10
  0
ENDBLK
  5
5342
  8
0
  0
BLOCK
  8
0
  2
*U145
 70
     1
 10
0.0
 20
0.0
 30
0.0
  3
*U145
  1

  0
TEXT
  5
5344
  8
MM_4_0_050
 62
     7
 10
-1152.5044575977979093
 20
644.1013529164620195
 30
0.0
 40
3.4999999403953548
  1
J
  7
TEXT_STYLE10
  0
ENDBLK
  5
5346
  8
0
  0
BLOCK
  8
0
  2
*U146
 70
     1
 10
0.0
 20
0.0
 30
0.0
  3
*U146
  1

  0
TEXT
  5
5348
  8
MM_4_0_050
 62
     7
 10
1.015056699957652
 20
573.9583333631355799
 30
0.0
 40
3.4999999403953548
  1
I
  7
TEXT_STYLE10
  0
ENDBLK
  5
534A
  8
0
  0
BLOCK
  8
0
  2
*U147
 70
     1
 10
0.0
 20
0.0
 30
0.0
  3
*U147
  1

  0
TEXT
  5
534C
  8
MM_4_0_050
 62
     7
 10
-1152.2849432404379968
 20
573.9583333631355799
 30
0.0
 40
3.4999999403953548
  1
I
  7
TEXT_STYLE10
  0
ENDBLK
  5
534E
  8
0
  0
BLOCK
  8
0
  2
*U148
 70
     1
 10
0.0
 20
0.0
 30
0.0
  3
*U148
  1

  0
TEXT
  5
5350
  8
MM_4_0_050
 62
     7
 10
-0.0075630932516877
 20
503.8750000298023224
 30
0.0
 40
3.4999999403953548
  1
H
  7
TEXT_STYLE10
  0
ENDBLK
  5
5352
  8
0
  0
BLOCK
  8
0
  2
*U149
 70
     1
 10
0.0
 20
0.0
 30
0.0
  3
*U149
  1

  0
TEXT
  5
5354
  8
MM_4_0_050
 62
     7
 10
-1153.3075630336470567
 20
503.8750000298023224
 30
0.0
 40
3.4999999403953548
  1
H
  7
TEXT_STYLE10
  0
ENDBLK
  5
5356
  8
0
  0
BLOCK
  8
0
  2
*U150
 70
     1
 10
0.0
 20
0.0
 30
0.0
  3
*U150
  1

  0
TEXT
  5
5358
  8
MM_4_0_050
 62
     7
 10
-0.0123051832918322
 20
433.8513529164620763
 30
0.0
 40
3.4999999403953548
  1
G
  7
TEXT_STYLE10
  0
ENDBLK
  5
535A
  8
0
  0
BLOCK
  8
0
  2
*U151
 70
     1
 10
0.0
 20
0.0
 30
0.0
  3
*U151
  1

  0
TEXT
  5
535C
  8
MM_4_0_050
 62
     7
 10
-1153.3123051236871106
 20
433.8513529164620763
 30
0.0
 40
3.4999999403953548
  1
G
  7
TEXT_STYLE10
  0
ENDBLK
  5
535E
  8
0
  0
BLOCK
  8
0
  2
*U152
 70
     1
 10
0.0
 20
0.0
 30
0.0
  3
*U152
  1

  0
TEXT
  5
5360
  8
MM_4_0_050
 62
     7
 10
0.254990808610955
 20
363.7083333631356936
 30
0.0
 40
3.4999999403953548
  1
F
  7
TEXT_STYLE10
  0
ENDBLK
  5
5362
  8
0
  0
BLOCK
  8
0
  2
*U153
 70
     1
 10
0.0
 20
0.0
 30
0.0
  3
*U153
  1

  0
TEXT
  5
5364
  8
MM_4_0_050
 62
     7
 10
-1153.0450091317838996
 20
363.7083333631356936
 30
0.0
 40
3.4999999403953548
  1
F
  7
TEXT_STYLE10
  0
ENDBLK
  5
5366
  8
0
  0
BLOCK
  8
0
  2
*U154
 70
     1
 10
0.0
 20
0.0
 30
0.0
  3
*U154
  1

  0
TEXT
  5
5368
  8
MM_4_0_050
 62
     7
 10
0.1319299244458742
 20
293.6250000298023224
 30
0.0
 40
3.4999999403953548
  1
E
  7
TEXT_STYLE10
  0
ENDBLK
  5
536A
  8
0
  0
BLOCK
  8
0
  2
*U155
 70
     1
 10
0.0
 20
0.0
 30
0.0
  3
*U155
  1

  0
TEXT
  5
536C
  8
MM_4_0_050
 62
     7
 10
-1153.1680700159499793
 20
293.6250000298023224
 30
0.0
 40
3.4999999403953548
  1
E
  7
TEXT_STYLE10
  0
ENDBLK
  5
536E
  8
0
  0
BLOCK
  8
0
  2
*U156
 70
     1
 10
0.0
 20
0.0
 30
0.0
  3
*U156
  1

  0
TEXT
  5
5370
  8
MM_4_0_050
 62
     7
 10
0.0067615995466561
 20
223.541666696469008
 30
0.0
 40
3.4999999403953548
  1
D
  7
TEXT_STYLE10
  0
ENDBLK
  5
5372
  8
0
  0
BLOCK
  8
0
  2
*U157
 70
     1
 10
0.0
 20
0.0
 30
0.0
  3
*U157
  1

  0
TEXT
  5
5374
  8
MM_4_0_050
 62
     7
 10
-1153.2932383408478927
 20
223.541666696469008
 30
0.0
 40
3.4999999403953548
  1
D
  7
TEXT_STYLE10
  0
ENDBLK
  5
5376
  8
0
  0
BLOCK
  8
0
  2
*U158
 70
     1
 10
0.0
 20
0.0
 30
0.0
  3
*U158
  1

  0
TEXT
  5
5378
  8
MM_4_0_050
 62
     7
 10
0.140458732331199
 20
153.5180195831287904
 30
0.0
 40
3.4999999403953548
  1
C
  7
TEXT_STYLE10
  0
ENDBLK
  5
537A
  8
0
  0
BLOCK
  8
0
  2
*U159
 70
     1
 10
0.0
 20
0.0
 30
0.0
  3
*U159
  1

  0
TEXT
  5
537C
  8
MM_4_0_050
 62
     7
 10
-1153.1595412080639562
 20
153.5180195831287904
 30
0.0
 40
3.4999999403953548
  1
C
  7
TEXT_STYLE10
  0
ENDBLK
  5
537E
  8
0
  0
BLOCK
  8
0
  2
*U160
 70
     1
 10
0.0
 20
0.0
 30
0.0
  3
*U160
  1

  0
TEXT
  5
5380
  8
MM_4_0_050
 62
     7
 10
0.160579310042562
 20
83.3750000298023366
 30
0.0
 40
3.4999999403953548
  1
B
  7
TEXT_STYLE10
  0
ENDBLK
  5
5382
  8
0
  0
BLOCK
  8
0
  2
*U161
 70
     1
 10
0.0
 20
0.0
 30
0.0
  3
*U161
  1

  0
TEXT
  5
5384
  8
MM_4_0_050
 62
     7
 10
-1153.1394206303530154
 20
83.3750000298023366
 30
0.0
 40
3.4999999403953548
  1
B
  7
TEXT_STYLE10
  0
ENDBLK
  5
5386
  8
0
  0
BLOCK
  8
0
  2
*U162
 70
     1
 10
0.0
 20
0.0
 30
0.0
  3
*U162
  1

  0
TEXT
  5
5388
  8
MM_4_0_050
 62
     7
 10
0.5120273172856287
 20
13.2916666964689902
 30
0.0
 40
3.4999999403953548
  1
A
  7
TEXT_STYLE10
  0
ENDBLK
  5
538A
  8
0
  0
BLOCK
  8
0
  2
*U163
 70
     1
 10
0.0
 20
0.0
 30
0.0
  3
*U163
  1

  0
TEXT
  5
538C
  8
MM_4_0_050
 62
     7
 10
-1152.7879726231099085
 20
13.2916666964689902
 30
0.0
 40
3.4999999403953548
  1
A
  7
TEXT_STYLE10
  0
ENDBLK
  5
538E
  8
0
  0
BLOCK
  8
0
  2
*U164
 70
     1
 10
0.0
 20
0.0
 30
0.0
  3
*U164
  1

  0
TEXT
  5
5390
  8
MM_4_0_050
 62
     7
 10
-1135.0945354078430682
 20
-3.8403137204022539
 30
0.0
 40
3.4999999403953548
  1
16
  7
TEXT_STYLE10
  0
ENDBLK
  5
5392
  8
0
  0
BLOCK
  8
0
  2
*U165
 70
     1
 10
0.0
 20
0.0
 30
0.0
  3
*U165
  1

  0
TEXT
  5
5394
  8
MM_4_0_050
 62
     7
 10
-1135.0945354078430682
 20
801.4596862199930456
 30
0.0
 40
3.4999999403953548
  1
16
  7
TEXT_STYLE10
  0
ENDBLK
  5
5396
  8
0
  0
BLOCK
  8
0
  2
*U166
 70
     1
 10
0.0
 20
0.0
 30
0.0
  3
*U166
  1

  0
TEXT
  5
5398
  8
MM_4_0_050
 62
     7
 10
-1060.7820354078430682
 20
-3.8403137204022539
 30
0.0
 40
3.4999999403953548
  1
15
  7
TEXT_STYLE10
  0
ENDBLK
  5
539A
  8
0
  0
BLOCK
  8
0
  2
*U167
 70
     1
 10
0.0
 20
0.0
 30
0.0
  3
*U167
  1

  0
TEXT
  5
539C
  8
MM_4_0_050
 62
     7
 10
-1060.7820354078430682
 20
801.4596862199930456
 30
0.0
 40
3.4999999403953548
  1
15
  7
TEXT_STYLE10
  0
ENDBLK
  5
539E
  8
0
  0
BLOCK
  8
0
  2
*U168
 70
     1
 10
0.0
 20
0.0
 30
0.0
  3
*U168
  1

  0
TEXT
  5
53A0
  8
MM_4_0_050
 62
     7
 10
-986.4695354078429546
 20
-3.8999999403953529
 30
0.0
 40
3.4999999403953548
  1
14
  7
TEXT_STYLE10
  0
ENDBLK
  5
53A2
  8
0
  0
BLOCK
  8
0
  2
*U169
 70
     1
 10
0.0
 20
0.0
 30
0.0
  3
*U169
  1

  0
TEXT
  5
53A4
  8
MM_4_0_050
 62
     7
 10
-986.4695354078429546
 20
801.4000000000000909
 30
0.0
 40
3.4999999403953548
  1
14
  7
TEXT_STYLE10
  0
ENDBLK
  5
53A6
  8
0
  0
BLOCK
  8
0
  2
*U170
 70
     1
 10
0.0
 20
0.0
 30
0.0
  3
*U170
  1

  0
TEXT
  5
53A8
  8
MM_4_0_050
 62
     7
 10
-912.1570354078428409
 20
-3.8379262716025302
 30
0.0
 40
3.4999999403953548
  1
13
  7
TEXT_STYLE10
  0
ENDBLK
  5
53AA
  8
0
  0
BLOCK
  8
0
  2
*U171
 70
     1
 10
0.0
 20
0.0
 30
0.0
  3
*U171
  1

  0
TEXT
  5
53AC
  8
MM_4_0_050
 62
     7
 10
-912.1570354078428409
 20
801.4620736687928684
 30
0.0
 40
3.4999999403953548
  1
13
  7
TEXT_STYLE10
  0
ENDBLK
  5
53AE
  8
0
  0
BLOCK
  8
0
  2
*U172
 70
     1
 10
0.0
 20
0.0
 30
0.0
  3
*U172
  1

  0
TEXT
  5
53B0
  8
MM_4_0_050
 62
     7
 10
-837.8445354078429546
 20
-3.8999999403953529
 30
0.0
 40
3.4999999403953548
  1
12
  7
TEXT_STYLE10
  0
ENDBLK
  5
53B2
  8
0
  0
BLOCK
  8
0
  2
*U173
 70
     1
 10
0.0
 20
0.0
 30
0.0
  3
*U173
  1

  0
TEXT
  5
53B4
  8
MM_4_0_050
 62
     7
 10
-837.8445354078429546
 20
801.4000000000000909
 30
0.0
 40
3.4999999403953548
  1
12
  7
TEXT_STYLE10
  0
ENDBLK
  5
53B6
  8
0
  0
BLOCK
  8
0
  2
*U174
 70
     1
 10
0.0
 20
0.0
 30
0.0
  3
*U174
  1

  0
TEXT
  5
53B8
  8
MM_4_0_050
 62
     7
 10
-763.5320354078429546
 20
-3.8999999403953529
 30
0.0
 40
3.4999999403953548
  1
11
  7
TEXT_STYLE10
  0
ENDBLK
  5
53BA
  8
0
  0
BLOCK
  8
0
  2
*U175
 70
     1
 10
0.0
 20
0.0
 30
0.0
  3
*U175
  1

  0
TEXT
  5
53BC
  8
MM_4_0_050
 62
     7
 10
-763.5320354078429546
 20
801.4000000000000909
 30
0.0
 40
3.4999999403953548
  1
11
  7
TEXT_STYLE10
  0
ENDBLK
  5
53BE
  8
0
  0
BLOCK
  8
0
  2
*U176
 70
     1
 10
0.0
 20
0.0
 30
0.0
  3
*U176
  1

  0
TEXT
  5
53C0
  8
MM_4_0_050
 62
     7
 10
-689.2195354078429546
 20
-3.8403137204022539
 30
0.0
 40
3.4999999403953548
  1
10
  7
TEXT_STYLE10
  0
ENDBLK
  5
53C2
  8
0
  0
BLOCK
  8
0
  2
*U177
 70
     1
 10
0.0
 20
0.0
 30
0.0
  3
*U177
  1

  0
TEXT
  5
53C4
  8
MM_4_0_050
 62
     7
 10
-689.2195354078429546
 20
801.4596862199930456
 30
0.0
 40
3.4999999403953548
  1
10
  7
TEXT_STYLE10
  0
ENDBLK
  5
53C6
  8
0
  0
BLOCK
  8
0
  2
*U178
 70
     1
 10
0.0
 20
0.0
 30
0.0
  3
*U178
  1

  0
TEXT
  5
53C8
  8
MM_4_0_050
 62
     7
 10
-613.2183829401234334
 20
-3.8403137204022539
 30
0.0
 40
3.4999999403953548
  1
9
  7
TEXT_STYLE10
  0
ENDBLK
  5
53CA
  8
0
  0
BLOCK
  8
0
  2
*U179
 70
     1
 10
0.0
 20
0.0
 30
0.0
  3
*U179
  1

  0
TEXT
  5
53CC
  8
MM_4_0_050
 62
     7
 10
-613.2183829401234334
 20
801.4596862199930456
 30
0.0
 40
3.4999999403953548
  1
9
  7
TEXT_STYLE10
  0
ENDBLK
  5
53CE
  8
0
  0
BLOCK
  8
0
  2
*U180
 70
     1
 10
0.0
 20
0.0
 30
0.0
  3
*U180
  1

  0
TEXT
  5
53D0
  8
MM_4_0_050
 62
     7
 10
-538.9011080425241289
 20
-3.8403137204022539
 30
0.0
 40
3.4999999403953548
  1
8
  7
TEXT_STYLE10
  0
ENDBLK
  5
53D2
  8
0
  0
BLOCK
  8
0
  2
*U181
 70
     1
 10
0.0
 20
0.0
 30
0.0
  3
*U181
  1

  0
TEXT
  5
53D4
  8
MM_4_0_050
 62
     7
 10
-538.9011080425241289
 20
801.4596862199930456
 30
0.0
 40
3.4999999403953548
  1
8
  7
TEXT_STYLE10
  0
ENDBLK
  5
53D6
  8
0
  0
BLOCK
  8
0
  2
*U182
 70
     1
 10
0.0
 20
0.0
 30
0.0
  3
*U182
  1

  0
TEXT
  5
53D8
  8
MM_4_0_050
 62
     7
 10
-464.6220323257202267
 20
-3.8999999403953529
 30
0.0
 40
3.4999999403953548
  1
7
  7
TEXT_STYLE10
  0
ENDBLK
  5
53DA
  8
0
  0
BLOCK
  8
0
  2
*U183
 70
     1
 10
0.0
 20
0.0
 30
0.0
  3
*U183
  1

  0
TEXT
  5
53DC
  8
MM_4_0_050
 62
     7
 10
-464.6220323257202267
 20
801.4000000000000909
 30
0.0
 40
3.4999999403953548
  1
7
  7
TEXT_STYLE10
  0
ENDBLK
  5
53DE
  8
0
  0
BLOCK
  8
0
  2
*U184
 70
     1
 10
0.0
 20
0.0
 30
0.0
  3
*U184
  1

  0
TEXT
  5
53E0
  8
MM_4_0_050
 62
     7
 10
-390.2617833497257038
 20
-3.8403137204022539
 30
0.0
 40
3.4999999403953548
  1
6
  7
TEXT_STYLE10
  0
ENDBLK
  5
53E2
  8
0
  0
BLOCK
  8
0
  2
*U185
 70
     1
 10
0.0
 20
0.0
 30
0.0
  3
*U185
  1

  0
TEXT
  5
53E4
  8
MM_4_0_050
 62
     7
 10
-390.2617833497257038
 20
801.4596862199930456
 30
0.0
 40
3.4999999403953548
  1
6
  7
TEXT_STYLE10
  0
ENDBLK
  5
53E6
  8
0
  0
BLOCK
  8
0
  2
*U186
 70
     1
 10
0.0
 20
0.0
 30
0.0
  3
*U186
  1

  0
TEXT
  5
53E8
  8
MM_4_0_050
 62
     7
 10
-315.9683829401234902
 20
-3.8403137204022539
 30
0.0
 40
3.4999999403953548
  1
5
  7
TEXT_STYLE10
  0
ENDBLK
  5
53EA
  8
0
  0
BLOCK
  8
0
  2
*U187
 70
     1
 10
0.0
 20
0.0
 30
0.0
  3
*U187
  1

  0
TEXT
  5
53EC
  8
MM_4_0_050
 62
     7
 10
-315.9683829401234902
 20
801.4596862199930456
 30
0.0
 40
3.4999999403953548
  1
5
  7
TEXT_STYLE10
  0
ENDBLK
  5
53EE
  8
0
  0
BLOCK
  8
0
  2
*U188
 70
     1
 10
0.0
 20
0.0
 30
0.0
  3
*U188
  1

  0
TEXT
  5
53F0
  8
MM_4_0_050
 62
     7
 10
-241.5150234609396023
 20
-3.8999999403953529
 30
0.0
 40
3.4999999403953548
  1
4
  7
TEXT_STYLE10
  0
ENDBLK
  5
53F2
  8
0
  0
BLOCK
  8
0
  2
*U189
 70
     1
 10
0.0
 20
0.0
 30
0.0
  3
*U189
  1

  0
TEXT
  5
53F4
  8
MM_4_0_050
 62
     7
 10
-241.5150234609396023
 20
801.4000000000000909
 30
0.0
 40
3.4999999403953548
  1
4
  7
TEXT_STYLE10
  0
ENDBLK
  5
53F6
  8
0
  0
BLOCK
  8
0
  2
*U190
 70
     1
 10
0.0
 20
0.0
 30
0.0
  3
*U190
  1

  0
TEXT
  5
53F8
  8
MM_4_0_050
 62
     7
 10
-167.3457703889230004
 20
-3.8379262716025302
 30
0.0
 40
3.4999999403953548
  1
3
  7
TEXT_STYLE10
  0
ENDBLK
  5
53FA
  8
0
  0
BLOCK
  8
0
  2
*U191
 70
     1
 10
0.0
 20
0.0
 30
0.0
  3
*U191
  1

  0
TEXT
  5
53FC
  8
MM_4_0_050
 62
     7
 10
-167.3457703889230004
 20
801.4620736687928684
 30
0.0
 40
3.4999999403953548
  1
3
  7
TEXT_STYLE10
  0
ENDBLK
  5
53FE
  8
0
  0
BLOCK
  8
0
  2
*U192
 70
     1
 10
0.0
 20
0.0
 30
0.0
  3
*U192
  1

  0
TEXT
  5
5400
  8
MM_4_0_050
 62
     7
 10
-92.9711967201301235
 20
-3.8999999403953529
 30
0.0
 40
3.4999999403953548
  1
2
  7
TEXT_STYLE10
  0
ENDBLK
  5
5402
  8
0
  0
BLOCK
  8
0
  2
*U193
 70
     1
 10
0.0
 20
0.0
 30
0.0
  3
*U193
  1

  0
TEXT
  5
5404
  8
MM_4_0_050
 62
     7
 10
-92.9711967201301235
 20
801.4000000000000909
 30
0.0
 40
3.4999999403953548
  1
2
  7
TEXT_STYLE10
  0
ENDBLK
  5
5406
  8
0
  0
BLOCK
  8
0
  2
*U194
 70
     1
 10
0.0
 20
0.0
 30
0.0
  3
*U194
  1

  0
TEXT
  5
5408
  8
MM_4_0_050
 62
     7
 10
-19.0478508744851283
 20
-3.8999999403953529
 30
0.0
 40
3.4999999403953548
  1
1
  7
TEXT_STYLE10
  0
ENDBLK
  5
540A
  8
0
  0
BLOCK
  8
0
  2
*U195
 70
     1
 10
0.0
 20
0.0
 30
0.0
  3
*U195
  1

  0
TEXT
  5
540C
  8
MM_4_0_050
 62
     7
 10
-19.0478508744851283
 20
801.4000000000000909
 30
0.0
 40
3.4999999403953548
  1
1
  7
TEXT_STYLE10
  0
ENDBLK
  5
540E
  8
0
  0
BLOCK
  8
0
  2
*U196
 70
     1
 10
0.0
 20
0.0
 30
0.0
  3
*U196
  1

  0
TEXT
  5
5410
  8
MM_4_0_050
 62
     7
 10
-87.9771299479281197
 20
1.465244146699338
 30
0.0
 40
5.0
  1
A0
 41
0.9
  7
TEXT__1_5MM
  0
ENDBLK
  5
5412
  8
0
  0
BLOCK
  8
0
  2
*U197
 70
     1
 10
0.0
 20
0.0
 30
0.0
  3
*U197
  1

  0
TEXT
  5
5415
  8
MM_4_0_050
 10
-87.9771299479281197
 20
1.465244146699338
 30
0.0
 40
5.0
  1
A4
 41
0.9
  7
TEXT__1_5MM
  0
ENDBLK
  5
5417
  8
0
  0
BLOCK
  8
0
  2
*U198
 70
     1
 10
0.0
 20
0.0
 30
0.0
  3
*U198
  1

  0
TEXT
  5
541A
  8
MM_4_0_050
 10
-87.9771299479281197
 20
1.465244146699338
 30
0.0
 40
5.0
  1
A4
 41
0.9
  7
TEXT__1_5MM
  0
ENDBLK
  5
541C
  8
0
  0
BLOCK
  8
0
  2
*U199
 70
     1
 10
0.0
 20
0.0
 30
0.0
  3
*U199
  1

  0
TEXT
  5
545C
  8
MM_4_0_050
 10
-90.5008628051805744
 20
38.8012873985105529
 30
0.0
 40
1.49859994649887
  1
Project
 41
0.9
  7
TEXT__1_5MM
  0
ENDBLK
  5
545E
  8
0
  0
BLOCK
  8
0
  2
*U200
 70
     1
 10
0.0
 20
0.0
 30
0.0
  3
*U200
  1

  0
TEXT
  5
5460
  8
MM_4_0_050
 10
-30.3154367131886602
 20
51.8332093322710605
 30
0.0
 40
1.49859994649887
  1
Tolerance
 41
0.9
  7
TEXT__1_5MM
  0
ENDBLK
  5
5462
  8
0
  0
BLOCK
  8
0
  2
*U201
 70
     1
 10
0.0
 20
0.0
 30
0.0
  3
*U201
  1

  0
TEXT
  5
5464
  8
MM_4_0_050
 10
-76.7116973148366839
 20
58.1441945579251467
 30
0.0
 40
1.49859994649887
  1
Shear size
 41
0.9
  7
TEXT__1_5MM
  0
ENDBLK
  5
5466
  8
0
  0
BLOCK
  8
0
  2
*U202
 70
     1
 10
0.0
 20
0.0
 30
0.0
  3
*U202
  1

  0
TEXT
  5
5468
  8
MM_4_0_050
 10
-134.2788980872304023
 20
24.116351808560001
 30
0.0
 40
1.25
  1
Kindred Industries Ltd.
 41
0.9
  7
TEXT__3_5MM
  0
TEXT
  5
5469
  8
MM_4_0_050
 10
-134.3349178689493044
 20
22.149223814857109
 30
0.0
 40
1.25
  1
1000 Kindred Road, L4R 4K9 Midland
 41
0.9
  7
TEXT__3_5MM
  0
TEXT
  5
546A
  8
MM_4_0_050
 10
-134.2006238716778057
 20
20.1820958211542312
 30
0.0
 40
1.25
  1
Telefon:  +1 705 526 5427
 41
0.9
  7
TEXT__3_5MM
  0
TEXT
  5
546B
  8
MM_4_0_050
 10
-134.2006238716778057
 20
18.2149678274513285
 30
0.0
 40
1.25
  1
Telefax:  +1 705 526 8055
 41
0.9
  7
TEXT__3_5MM
  0
TEXT
  5
546C
  8
MM_4_0_050
 10
-134.288106818471789
 20
16.24783983374844
 30
0.0
 40
1.25
  1
E-Mail:  fkc-info@franke.com
 41
0.9
  7
TEXT__3_5MM
  0
TEXT
  5
546D
  8
MM_4_0_050
 10
-134.3103612523053982
 20
14.2807118400455604
 30
0.0
 40
1.25
  1
Internet :  www.franke-canada.ca
 41
0.9
  7
TEXT__3_5MM
  0
ENDBLK
  5
546F
  8
0
  0
BLOCK
  8
0
  2
*U203
 70
     1
 10
0.0
 20
0.0
 30
0.0
  3
*U203
  1

  0
TEXT
  5
5471
  8
MM_4_0_050
 10
-135.0086895272453944
 20
38.3634358379129381
 30
0.0
 40
1.49859994649887
  1
Department:
 41
0.9
  7
TEXT__1_5MM
  0
ENDBLK
  5
5473
  8
0
  0
BLOCK
  8
0
  2
*U204
 70
     1
 10
0.0
 20
0.0
 30
0.0
  3
*U204
  1

  0
TEXT
  5
5475
  8
MM_4_0_050
 10
-189.529900051480297
 20
48.8325310810769011
 30
0.0
 40
1.49859994649887
  1
Modifyed by
 41
0.899999976158142
  7
TEXT__1_5MM
  0
ENDBLK
  5
5477
  8
0
  0
BLOCK
  8
0
  2
*U205
 70
     1
 10
0.0
 20
0.0
 30
0.0
  3
*U205
  1

  0
TEXT
  5
5479
  8
MM_4_0_050
 10
-134.9281546803510139
 20
45.2416192988205026
 30
0.0
 40
1.49859994649887
  1
Unit
 41
0.9
  7
TEXT__1_5MM
  0
ENDBLK
  5
547B
  8
0
  0
BLOCK
  8
0
  2
*U206
 70
     1
 10
0.0
 20
0.0
 30
0.0
  3
*U206
  1

  0
TEXT
  5
547D
  8
MM_4_0_050
 10
-30.3781803546745302
 20
58.1376887376440905
 30
0.0
 40
1.49859994649887
  1
Weight
 41
0.9
  7
TEXT__1_5MM
  0
ENDBLK
  5
547F
  8
0
  0
BLOCK
  8
0
  2
*U207
 70
     1
 10
0.0
 20
0.0
 30
0.0
  3
*U207
  1

  0
TEXT
  5
5481
  8
MM_4_0_050
 10
-90.590589995402695
 20
58.1468447689522989
 30
0.0
 40
1.49859994649887
  1
Thickness
 41
0.9
  7
TEXT__1_5MM
  0
ENDBLK
  5
5483
  8
0
  0
BLOCK
  8
0
  2
*U208
 70
     1
 10
0.0
 20
0.0
 30
0.0
  3
*U208
  1

  0
TEXT
  5
5485
  8
MM_4_0_050
 10
-76.7410912098720246
 20
51.7831256051368669
 30
0.0
 40
1.49859994649887
  1
Part / Tool No.
 41
0.9
  7
TEXT__1_5MM
  0
ENDBLK
  5
5487
  8
0
  0
BLOCK
  8
0
  2
*U209
 70
     1
 10
0.0
 20
0.0
 30
0.0
  3
*U209
  1

  0
TEXT
  5
5489
  8
MM_4_0_050
 10
-44.6649337474730501
 20
45.3788957082575521
 30
0.0
 40
1.49859994649887
  1
Remark
 41
0.9
  7
TEXT__1_5MM
  0
ENDBLK
  5
548B
  8
0
  0
BLOCK
  8
0
  2
*U210
 70
     1
 10
0.0
 20
0.0
 30
0.0
  3
*U210
  1

  0
TEXT
  5
548D
  8
MM_4_0_050
 10
-90.6825430027456036
 20
51.7847161728532299
 30
0.0
 40
1.49859994649887
  1
Part  Gr.
 41
0.9
  7
TEXT__1_5MM
  0
ENDBLK
  5
548F
  8
0
  0
BLOCK
  8
0
  2
*U211
 70
     1
 10
0.0
 20
0.0
 30
0.0
  3
*U211
  1

  0
TEXT
  5
5491
  8
MM_4_0_050
 10
-135.1334648270926948
 20
48.8953864963463403
 30
0.0
 40
1.49859994649887
  1
Originate from
 41
0.9
  7
TEXT__1_5MM
  0
ENDBLK
  5
5493
  8
0
  0
BLOCK
  8
0
  2
*U212
 70
     1
 10
0.0
 20
0.0
 30
0.0
  3
*U212
  1

  0
TEXT
  5
5495
  8
MM_4_0_050
 10
-135.2055250114557055
 20
53.0867297518295587
 30
0.0
 40
1.49859994649887
  1
Replacement for
 41
0.9
  7
TEXT__1_5MM
  0
ENDBLK
  5
5497
  8
0
  0
BLOCK
  8
0
  2
*U213
 70
     1
 10
0.0
 20
0.0
 30
0.0
  3
*U213
  1

  0
TEXT
  5
5499
  8
MM_4_0_050
 10
-135.2264111075332949
 20
57.1553293798046198
 30
0.0
 40
1.49859994649887
  1
Replaced through
 41
0.9
  7
TEXT__1_5MM
  0
ENDBLK
  5
549B
  8
0
  0
BLOCK
  8
0
  2
*U214
 70
     1
 10
0.0
 20
0.0
 30
0.0
  3
*U214
  1

  0
TEXT
  5
549D
  8
MM_4_0_050
 10
-90.4984527751034591
 20
45.4277026054956323
 30
0.0
 40
1.49859994649887
  1
Material
 41
0.9
  7
TEXT__1_5MM
  0
ENDBLK
  5
549F
  8
0
  0
BLOCK
  8
0
  2
*U215
 70
     1
 10
0.0
 20
0.0
 30
0.0
  3
*U215
  1

  0
TEXT
  5
54A1
  8
MM_4_0_050
 10
-112.7488969237298022
 20
45.2940826414532935
 30
0.0
 40
1.49859994649887
  1
Scale
 41
0.9
  7
TEXT__1_5MM
  0
ENDBLK
  5
54A3
  8
0
  0
BLOCK
  8
0
  2
*U216
 70
     1
 10
0.0
 20
0.0
 30
0.0
  3
*U216
  1

  0
TEXT
  5
54A5
  8
MM_4_0_050
 10
-44.9681197348511077
 20
38.7524390986675726
 30
0.0
 40
1.49859994649887
  1
Collection
 41
0.9
  7
TEXT__1_5MM
  0
ENDBLK
  5
54A7
  8
0
  0
BLOCK
  8
0
  2
*U217
 70
     1
 10
0.0
 20
0.0
 30
0.0
  3
*U217
  1

  0
TEXT
  5
54A9
  8
MM_4_0_050
 10
-90.9026927127042512
 20
8.6498105746244196
 30
0.0
 40
1.49859994649887
  1
Format
 41
0.9
  7
TEXT__1_5MM
  0
ENDBLK
  5
54AB
  8
0
  0
BLOCK
  8
0
  2
*U218
 70
     1
 10
0.0
 20
0.0
 30
0.0
  3
*U218
  1

  0
TEXT
  5
54AD
  8
MM_4_0_050
 10
-12.4928937934423505
 20
8.6762640632354167
 30
0.0
 40
1.49859994649887
  1
Rev.
 41
0.9
  7
TEXT__1_5MM
  0
ENDBLK
  5
54AF
  8
0
  0
BLOCK
  8
0
  2
*U219
 70
     1
 10
0.0
 20
0.0
 30
0.0
  3
*U219
  1

  0
TEXT
  5
54B1
  8
MM_4_0_050
 10
-75.786812897245909
 20
8.5150084473643606
 30
0.0
 40
1.49859994649887
  1
Drawing No.
 41
0.9
  7
TEXT__1_5MM
  0
ENDBLK
  5
54B3
  8
0
  0
BLOCK
  8
0
  2
*U220
 70
     1
 10
0.0
 20
0.0
 30
0.0
  3
*U220
  1

  0
TEXT
  5
54B5
  8
MM_4_0_050
 10
-134.1609969327234921
 20
8.3385460593386256
 30
0.0
 40
1.299999952316284
  1
These drawings and specifications are the property of
 41
0.9
  7
TEXT__1_3MM
  0
TEXT
  5
54B6
  8
MM_4_0_050
 10
-134.2567677341218939
 20
6.6417985702132354
 30
0.0
 40
1.299999952316284
  1
Franke Technology and Trademark Ltd. and shall not be
 41
0.9
  7
TEXT__1_3MM
  0
TEXT
  5
54B7
  8
MM_4_0_050
 10
-134.2288345837141037
 20
4.9450510810878452
 30
0.0
 40
1.299999952316284
  1
reproduced, copied or transfered to any third party without
 41
0.9
  7
TEXT__1_3MM
  0
TEXT
  5
54B8
  8
MM_4_0_050
 10
-134.1514198525835866
 20
3.2483035919624541
 30
0.0
 40
1.299999952316284
  1
the prior written permission of Franke Technology and
 41
0.9
  7
TEXT__1_3MM
  0
TEXT
  5
54B9
  8
MM_4_0_050
 10
-134.1609969327234921
 20
1.5515561028370639
 30
0.0
 40
1.299999952316284
  1
Trademark Ltd., Hergiswil, Switzerland
 41
0.9
  7
TEXT__1_3MM
  0
ENDBLK
  5
54BB
  8
0
  0
BLOCK
  8
0
  2
*U221
 70
     1
 10
0.0
 20
0.0
 30
0.0
  3
*U221
  1

  0
TEXT
  5
54BD
  8
MM_4_0_050
 10
-189.4671871173781881
 20
44.407679932843017
 30
0.0
 40
1.49859994649887
  1
Revision Description:
 41
0.899999976158142
  7
TEXT__1_5MM
  0
ENDBLK
  5
54BF
  8
0
  0
BLOCK
  8
0
  2
*U222
 70
     1
 10
0.0
 20
0.0
 30
0.0
  3
*U222
  1

  0
TEXT
  5
54C1
  8
MM_4_0_050
 10
-189.5309960961191109
 20
53.029337502222333
 30
0.0
 40
1.49859994649887
  1
Checked by
 41
0.899999976158142
  7
TEXT__1_5MM
  0
ENDBLK
  5
54C3
  8
0
  0
BLOCK
  8
0
  2
*U223
 70
     1
 10
0.0
 20
0.0
 30
0.0
  3
*U223
  1

  0
TEXT
  5
54C5
  8
MM_4_0_050
 10
-189.6168103228042128
 20
57.3663837112593811
 30
0.0
 40
1.49859994649887
  1
Drawn by
 41
0.899999976158142
  7
TEXT__1_5MM
  0
ENDBLK
  5
54C7
  8
0
  0
BLOCK
  8
0
  2
*U224
 70
     1
 10
0.0
 20
0.0
 30
0.0
  3
*U224
  1

  0
TEXT
  5
54C9
  8
MM_4_0_050
 10
-57.1829325754240685
 20
54.2323105040944711
 30
0.0
 40
2.5
  1
X
  7
TEXT_STYLE12
  0
ENDBLK
  5
54CB
  8
0
  0
BLOCK
  8
0
  2
*U225
 70
     1
 10
0.0
 20
0.0
 30
0.0
  3
*U225
  1

  0
TEXT
  5
54D4
  8
DIM
 62
     1
 10
96.2105695852815899
 20
325.1318914112903826
 30
0.0
 40
1.0
  1
17
  7
SX
  0
ENDBLK
  5
54D6
  8
0
  0
BLOCK
  8
0
  2
*U226
 70
     1
 10
0.0
 20
0.0
 30
0.0
  3
*U226
  1

  0
TEXT
  5
54D8
  8
DIM
 62
     1
 10
112.2105695852816041
 20
325.1318914112903826
 30
0.0
 40
1.0
  1
13
  7
SX
  0
ENDBLK
  5
54DA
  8
0
  0
BLOCK
  8
0
  2
*U227
 70
     1
 10
0.0
 20
0.0
 30
0.0
  3
*U227
  1

  0
TEXT
  5
54DC
  8
DIM
 62
     1
 10
107.1748552995672981
 20
324.3560309058794928
 30
0.0
 40
1.0
  1
1
  7
SX
  0
ENDBLK
  5
54DE
  8
0
  0
BLOCK
  8
0
  2
*U228
 70
     1
 10
0.0
 20
0.0
 30
0.0
  3
*U228
  1

  0
TEXT
  5
54E0
  8
DIM
 62
     1
 10
103.1153314900435021
 20
322.2870700078830737
 30
0.0
 40
1.0
  1
33
  7
SX
  0
ENDBLK
  5
54E2
  8
0
  0
BLOCK
  8
0
  2
*U229
 70
     1
 10
0.0
 20
0.0
 30
0.0
  3
*U229
  1

  0
TEXT
  5
54E4
  8
DIM
 62
     1
 10
121.3437431374751014
 20
337.1949591460215743
 30
0.0
 40
1.0
  1
16 1/8
  7
SX
  0
ENDBLK
  5
54E6
  8
0
  0
BLOCK
  8
0
  2
*U230
 70
     1
 10
0.0
 20
0.0
 30
0.0
  3
*U230
  1

  0
TEXT
  5
54E8
  8
DIM
 62
     1
 10
125.5600425437614973
 20
334.5763518898402822
 30
0.0
 40
1.0
  1
18 1/8
  7
SX
  0
ENDBLK
  5
54EA
  8
0
  0
BLOCK
  8
0
  2
*U231
 70
     1
 10
0.0
 20
0.0
 30
0.0
  3
*U231
  1

  0
TEXT
  5
54EC
  8
DIM
 62
     1
 10
155.8698145468354994
 20
343.1949591460215174
 30
0.0
 40
1.0
  1
4 1/8
  7
SX
  0
ENDBLK
  5
54EE
  8
0
  0
BLOCK
  8
0
  2
*U232
 70
     1
 10
0.0
 20
0.0
 30
0.0
  3
*U232
  1

  0
TEXT
  5
54F0
  8
DIM
 62
     1
 10
83.2790723333769023
 20
311.598723294877118
 30
0.0
 40
1.0
  1
9
  7
SX
  0
ENDBLK
  5
54F2
  8
0
  0
BLOCK
  8
0
  2
*U233
 70
     1
 10
0.0
 20
0.0
 30
0.0
  3
*U233
  1

  0
TEXT
  5
54F4
  8
DIM
 62
     1
 10
122.886037901828999
 20
311.598723294877118
 30
0.0
 40
1.0
  1
9
  7
SX
  0
ENDBLK
  5
54F6
  8
0
  0
BLOCK
  8
0
  2
*U234
 70
     1
 10
0.0
 20
0.0
 30
0.0
  3
*U234
  1

  0
TEXT
  5
54F8
  8
DIM
 62
     1
 10
90.4690707194748285
 20
303.1584051961079922
 30
0.0
 40
1.0
  1
8 1/2
  7
SX
  0
ENDBLK
  5
54FA
  8
0
  0
BLOCK
  8
0
  2
*U235
 70
     1
 10
0.0
 20
0.0
 30
0.0
  3
*U235
  1

  0
TEXT
  5
54FC
  8
DIM
 62
     1
 10
113.9969336404291056
 20
303.1584051961079922
 30
0.0
 40
1.0
  1
6 1/2
  7
SX
  0
ENDBLK
  5
54FE
  8
0
  0
BLOCK
  8
0
  2
*U236
 70
     1
 10
0.0
 20
0.0
 30
0.0
  3
*U236
  1

  0
TEXT
  5
5500
  8
DIM
 62
     1
 10
89.1748552995672981
 20
326.5033030346157261
 30
0.0
 40
1.0
  1
1
  7
SX
  0
ENDBLK
  5
5502
  8
0
  0
BLOCK
  8
0
  2
*U237
 70
     1
 10
0.0
 20
0.0
 30
0.0
  3
*U237
  1

  0
TEXT
  5
5504
  8
DIM
 62
     1
 10
121.1748552995672981
 20
326.1621101026228189
 30
0.0
 40
1.0
  1
1
  7
SX
  0
ENDBLK
  5
5506
  8
0
  0
BLOCK
  8
0
  2
*U238
 70
     1
 10
0.0
 20
0.0
 30
0.0
  3
*U238
  1

  0
TEXT
  5
5508
  8
DIM
 62
     1
 10
85.4117050637395039
 20
346.5907924793548887
 30
0.0
 40
1.0
  1
1
  7
SX
  0
ENDBLK
  5
550A
  8
0
  0
BLOCK
  8
0
  2
*U239
 70
     1
 10
0.0
 20
0.0
 30
0.0
  3
*U239
  1

  0
TEXT
  5
550C
  8
DIM
 62
     1
 10
89.1748552995672981
 20
348.2995910604242908
 30
0.0
 40
1.0
  1
1
  7
SX
  0
ENDBLK
  5
550E
  8
0
  0
BLOCK
  8
0
  2
*U240
 70
     1
 10
0.0
 20
0.0
 30
0.0
  3
*U240
  1

  0
TEXT
  5
5510
  8
0
 62
     1
 10
73.3507328659041917
 20
325.645294819596927
 30
0.0
 40
1.0
  1
R1/2 [R12.00]
  7
SX
  0
ENDBLK
  5
5512
  8
0
  0
BLOCK
  8
0
  2
*U241
 70
     1
 10
0.0
 20
0.0
 30
0.0
  3
*U241
  1

  0
TEXT
  5
5514
  8
0
 62
     0
 10
143.8446875278017103
 20
308.2622842364286271
 30
0.0
 40
0.18
  1
31.000"
  0
ENDBLK
  5
5516
  8
0
  0
BLOCK
  8
0
  2
*U242
 70
     1
 10
0.0
 20
0.0
 30
0.0
  3
*U242
  1

  0
TEXT
  5
5518
  8
0
 62
     0
 10
159.6866838255658081
 20
314.0579371136411169
 30
0.0
 40
0.18
  1
16.125"
  0
ENDBLK
  5
551A
  8
0
  0
BLOCK
  8
0
  2
*U243
 70
     1
 10
0.0
 20
0.0
 30
0.0
  3
*U243
  1

  0
TEXT
  5
551C
  8
DIM
 62
     1
 10
155.9496238402172139
 20
308.9285232944059771
 30
0.0
 40
1.0
  1
9
  7
SX
  0
ENDBLK
  5
551E
  8
0
  0
BLOCK
  8
0
  2
*U244
 70
     1
 10
0.0
 20
0.0
 30
0.0
  3
*U244
  1

  0
TEXT
  5
5520
  8
DIM
 62
     1
 10
123.5326566578628018
 20
300.4882051956370219
 30
0.0
 40
1.0
  1
8 1/2
  7
SX
  0
ENDBLK
  5
5522
  8
0
  0
BLOCK
  8
0
  2
*U245
 70
     1
 10
0.0
 20
0.0
 30
0.0
  3
*U245
  1

  0
TEXT
  5
5524
  8
DIM
 62
     1
 10
147.0605195788170079
 20
300.4882051956370219
 30
0.0
 40
1.0
  1
6 1/2
  7
SX
  0
ENDBLK
  5
5526
  8
0
  0
BLOCK
  8
0
  2
*U246
 70
     1
 10
0.0
 20
0.0
 30
0.0
  3
*U246
  1

  0
TEXT
  5
5528
  8
DIM
 62
     1
 10
122.2384412379552003
 20
323.8331030341445853
 30
0.0
 40
1.0
  1
1
  7
SX
  0
ENDBLK
  5
552A
  8
0
  0
BLOCK
  8
0
  2
*U247
 70
     1
 10
0.0
 20
0.0
 30
0.0
  3
*U247
  1

  0
TEXT
  5
552C
  8
DIM
 62
     1
 10
154.2384412379551861
 20
323.4919101021516781
 30
0.0
 40
1.0
  1
1
  7
SX
  0
ENDBLK
  5
552E
  8
0
  0
BLOCK
  8
0
  2
*U248
 70
     1
 10
0.0
 20
0.0
 30
0.0
  3
*U248
  1

  0
TEXT
  5
5530
  8
DIM
 62
     1
 10
118.4752910021275056
 20
343.9205924788839184
 30
0.0
 40
1.0
  1
1
  7
SX
  0
ENDBLK
  5
5532
  8
0
  0
BLOCK
  8
0
  2
*U249
 70
     1
 10
0.0
 20
0.0
 30
0.0
  3
*U249
  1

  0
TEXT
  5
5534
  8
DIM
 62
     1
 10
122.2384412379552003
 20
345.6293910599533206
 30
0.0
 40
1.0
  1
1
  7
SX
  0
ENDBLK
  5
5536
  8
0
  0
BLOCK
  8
0
  2
*U250
 70
     1
 10
0.0
 20
0.0
 30
0.0
  3
*U250
  1

  0
TEXT
  5
5538
  8
0
 62
     1
 10
106.414318804292094
 20
322.9750948191258999
 30
0.0
 40
1.0
  1
R1/2 [R12.00]
  7
SX
  0
ENDBLK
  5
553A
  8
0
  0
BLOCK
  8
0
  2
*U251
 70
     1
 10
0.0
 20
0.0
 30
0.0
  3
*U251
  1

  0
TEXT
  5
553C
  8
0
 62
     0
 10
176.9082734661897121
 20
305.5920842359574863
 30
0.0
 40
0.18
  1
31.000"
  0
ENDBLK
  5
553E
  8
0
  0
BLOCK
  8
0
  2
*U252
 70
     1
 10
0.0
 20
0.0
 30
0.0
  3
*U252
  1

  0
TEXT
  5
5540
  8
0
 62
     0
 10
192.7502697639538098
 20
311.3877371131699761
 30
0.0
 40
0.18
  1
16.125"
  0
ENDBLK
  5
5542
  8
0
  0
BLOCK
  8
0
  2
*U253
 70
     1
 10
0.0
 20
0.0
 30
0.0
  3
*U253
  1

  0
TEXT
  5
5544
  8
DIM
 62
     1
 10
129.2741555236694921
 20
322.4616914108192987
 30
0.0
 40
1.0
  1
17
  7
SX
  0
ENDBLK
  5
5546
  8
0
  0
BLOCK
  8
0
  2
*U254
 70
     1
 10
0.0
 20
0.0
 30
0.0
  3
*U254
  1

  0
TEXT
  5
5548
  8
DIM
 62
     1
 10
145.2741555236694921
 20
322.4616914108192987
 30
0.0
 40
1.0
  1
13
  7
SX
  0
ENDBLK
  5
554A
  8
0
  0
BLOCK
  8
0
  2
*U255
 70
     1
 10
0.0
 20
0.0
 30
0.0
  3
*U255
  1

  0
TEXT
  5
554C
  8
DIM
 62
     1
 10
140.2384412379552998
 20
321.6858309054085225
 30
0.0
 40
1.0
  1
1
  7
SX
  0
ENDBLK
  5
554E
  8
0
  0
BLOCK
  8
0
  2
*U256
 70
     1
 10
0.0
 20
0.0
 30
0.0
  3
*U256
  1

  0
TEXT
  5
5550
  8
DIM
 62
     1
 10
136.1789174284313901
 20
319.6168700074119897
 30
0.0
 40
1.0
  1
33
  7
SX
  0
ENDBLK
  5
5552
  8
0
  0
BLOCK
  8
0
  2
*U257
 70
     1
 10
0.0
 20
0.0
 30
0.0
  3
*U257
  1

  0
TEXT
  5
5554
  8
DIM
 62
     1
 10
154.4073290758632027
 20
334.5247591455503766
 30
0.0
 40
1.0
  1
16 1/8
  7
SX
  0
ENDBLK
  5
5556
  8
0
  0
BLOCK
  8
0
  2
*U258
 70
     1
 10
0.0
 20
0.0
 30
0.0
  3
*U258
  1

  0
TEXT
  5
5558
  8
DIM
 62
     1
 10
158.6236284821495133
 20
331.9061518893691982
 30
0.0
 40
1.0
  1
18 1/8
  7
SX
  0
ENDBLK
  5
555A
  8
0
  0
BLOCK
  8
0
  2
*U259
 70
     1
 10
0.0
 20
0.0
 30
0.0
  3
*U259
  1

  0
TEXT
  5
555C
  8
DIM
 62
     1
 10
188.9334004852235012
 20
340.5247591455503766
 30
0.0
 40
1.0
  1
4 1/8
  7
SX
  0
ENDBLK
  5
555E
  8
0
  0
BLOCK
  8
0
  2
*U260
 70
     1
 10
0.0
 20
0.0
 30
0.0
  3
*U260
  1

  0
TEXT
  5
5560
  8
DIM
 62
     1
 10
116.3426582717650035
 20
308.9285232944059771
 30
0.0
 40
1.0
  1
9
  7
SX
  0
ENDBLK
  5
5562
  8
0
  0
BLOCK
  8
0
  2
*U261
 70
     1
 10
0.0
 20
0.0
 30
0.0
  3
*U261
  1

  0
TEXT
  5
5564
  8
0
 62
     0
 10
176.9082734661897121
 20
305.5920842359574863
 30
0.0
 40
0.18
  1
31.000"
  0
ENDBLK
  5
5566
  8
0
  0
BLOCK
  8
0
  2
*U262
 70
     1
 10
0.0
 20
0.0
 30
0.0
  3
*U262
  1

  0
TEXT
  5
5568
  8
0
 62
     0
 10
192.7502697639538098
 20
311.3877371131699761
 30
0.0
 40
0.18
  1
16.125"
  0
ENDBLK
  5
556A
  8
0
  0
BLOCK
  8
0
  2
*U263
 70
     1
 10
0.0
 20
0.0
 30
0.0
  3
*U263
  1

  0
TEXT
  5
556C
  8
P-0000
 62
     7
 10
1.5560795689106039
 20
13.2859156768043007
 30
0.0
 40
0.2617476218228339
  1
Questions?  Call
  7
FRANKE
  0
TEXT
  5
556D
  8
P-0000
 62
     7
 10
1.5560795689106039
 20
12.8917237583391096
 30
0.0
 40
0.2617476218228339
  1
Franke Customer
  7
FRANKE
  0
TEXT
  5
556E
  8
P-0000
 62
     7
 10
1.5560795689106039
 20
12.4975318398739308
 30
0.0
 40
0.2617476218228339
  1
Service USA
  7
FRANKE
  0
TEXT
  5
556F
  8
P-0000
 62
     7
 10
1.5560795689106039
 20
12.1033399214087396
 30
0.0
 40
0.2617476218228339
  1
1-800-626-5771
  7
FRANKE
  0
ENDBLK
  5
5571
  8
0
  0
BLOCK
  8
0
  2
*U264
 70
     1
 10
0.0
 20
0.0
 30
0.0
  3
*U264
  1

  0
TEXT
  5
5573
  8
P-0000
 62
     7
 10
5.7579255886692522
 20
13.6867978339657999
 30
0.0
 40
0.2149789172801049
  1
Any deviation from this template could prevent the homeowner from being able to
  7
FRANKE
  0
TEXT
  5
5574
  8
P-0000
 62
     7
 10
5.7579255886692522
 20
13.3284996384989594
 30
0.0
 40
0.2149789172801049
  1
use the Franke custom fit accessories that match this sink, so we strongly
  7
FRANKE
  0
TEXT
  5
5575
  8
P-0000
 62
     7
 10
5.7579255886692522
 20
12.97020144303211
 30
0.0
 40
0.2149789172801049
  1
recommend following this cutout template.
  7
FRANKE
  0
TEXT
  5
5576
  8
P-0000
 62
     7
 10
5.7579255886692522
 20
12.2536050520984308
 30
0.0
 40
0.2149789172801049
  1
Closely follow installation instructions before making any cuts to countertop
  7
FRANKE
  0
TEXT
  5
5577
  8
P-0000
 62
     7
 10
5.7579255886692522
 20
11.5370086611647409
 30
0.0
 40
0.2149789172801049
  1
This template file, like any template, is meant to be a guideline.  The actual sink
  7
FRANKE
  0
TEXT
  5
5578
  8
P-0000
 62
     7
 10
5.7579255886692522
 20
11.1787104656979004
 30
0.0
 40
0.2149789172801049
  1
and accessories should ALWAYS be present to ensure a perfect cut.
  7
FRANKE
  0
TEXT
  5
5579
  8
P-0000
 62
     7
 10
5.7579255886692522
 20
10.4621140747642194
 30
0.0
 40
0.2149789172801049
  1
FRANKE IS NOT RESPONSIBLE FOR AN IMPROPERLY CUT COUNTERTOP OR
  7
FRANKE
  0
TEXT
  5
557A
  8
P-0000
 62
     7
 10
5.7579255886692522
 20
10.10381587929737
 30
0.0
 40
0.2149789172801049
  1
AN IMPROPER INSTALLATION
  7
FRANKE
  0
ENDBLK
  5
557C
  8
0
  0
BLOCK
  8
0
  2
*U265
 70
     1
 10
0.0
 20
0.0
 30
0.0
  3
*U265
  1

  0
TEXT
  5
557E
  8
0
 10
10.1903490497720792
 20
3.6526623813862349
 30
0.0
 40
1.0
  1
TEM-CUX16032
  7
MMISOCP
  0
ENDBLK
  5
5580
  8
0
  0
BLOCK
  8
0
  2
*U266
 70
     1
 10
0.0
 20
0.0
 30
0.0
  3
*U266
  1

  0
TEXT
  5
5582
  8
0
 62
     0
 10
28.5876598203791517
 20
15.4326268737281893
 30
0.0
 40
0.21670513205602
  1
R12mm
 41
0.899999976158142
  7
TEXT_3_5MM
  0
ENDBLK
  5
5584
  8
0
  0
BLOCK
  8
0
  2
*U267
 70
     1
 10
0.0
 20
0.0
 30
0.0
  3
*U267
  1

  0
TEXT
  5
5586
  8
0
 62
     0
 10
524.4310737362638974
 20
385.2436168046656917
 30
0.0
 40
0.18
  1
31.000"
  0
ENDBLK
  5
5588
  8
0
  0
BLOCK
  8
0
  2
*U268
 70
     1
 10
0.0
 20
0.0
 30
0.0
  3
*U268
  1

  0
TEXT
  5
558A
  8
0
 62
     0
 10
540.273070034028251
 20
391.0392696818781246
 30
0.0
 40
0.18
  1
16.125"
  0
ENDBLK
  5
558C
  8
0
  0
ENDSEC
  0
SECTION
  2
ENTITIES
  0
LINE
  5
50BB
  8
0
 10
512.589218858470872
 20
398.7193696818783906
 30
0.0
 11
512.589218858470872
 21
383.5391696818783771
 31
0.0
  0
ARC
  5
50BC
  8
0
 10
513.0616188584707515
 20
383.5391696818783771
 30
0.0
 40
0.4724000000000001
 50
180.0
 51
270.0
  0
LINE
  5
50BD
  8
0
 10
543.5892188584707583
 20
398.7193696818783906
 30
0.0
 11
543.5892188584707583
 21
383.5391696818783771
 31
0.0
  0
ARC
  5
50BE
  8
0
 10
543.1168188584708787
 20
398.7193696818783906
 30
0.0
 40
0.4724000000000001
 50
0.0
 51
90.0
  0
LINE
  5
50BF
  8
0
 10
513.0616188584707515
 20
399.1917696818783838
 30
0.0
 11
543.1168188584708787
 21
399.1917696818783838
 31
0.0
  0
ARC
  5
50C0
  8
0
 10
513.0616188584707515
 20
398.7193696818783906
 30
0.0
 40
0.4724000000000001
 50
90.0
 51
180.0
  0
LINE
  5
50C1
  8
0
 10
513.0616188584707515
 20
383.0667696818783838
 30
0.0
 11
543.1168188584708787
 21
383.0667696818783838
 31
0.0
  0
ARC
  5
50C2
  8
0
 10
543.1168188584708787
 20
383.5391696818783771
 30
0.0
 40
0.4724000000000001
 50
270.0
 51
0.0
  0
VIEWPORT
  5
A3
 67
     1
  8
0
 10
180.5767839253304032
 20
309.749627066298217
 30
0.0
 40
50.7391709617253568
 41
31.0966747405350397
 68
     1
 69
     1
1001
ACAD
1000
MVIEW
1002
{
1070
    16
1010
0.0
1020
0.0
1030
0.0
1010
0.0
1020
0.0
1030
1.0
1040
0.0
1040
31.0966747405350397
1040
180.5767839253304032
1040
309.749627066298217
1040
50.0
1040
0.0
1040
0.0
1070
     0
1070
  1000
1070
     1
1070
     1
1070
     0
1070
     0
1070
     0
1070
     0
1040
0.0
1040
0.0
1040
0.0
1040
10.0
1040
10.0
1040
10.0
1040
10.0
1070
     0
1002
{
1002
}
1002
}
  0
INSERT
  5
428
 67
     1
  8
0_FORMAT_A2
  2
FORMAT_A2
 10
417.4744373685592791
 20
111.662244621072702
 30
0.0
  0
INSERT
  5
504
 67
     1
  8
0_FORMAT_A1
  2
FORMAT_A1
 10
417.4744373685592791
 20
111.6622446210726025
 30
0.0
  0
INSERT
  5
624
 67
     1
  8
0_FORMAT_A0
  2
FORMAT_A0
 10
417.4744373685592791
 20
111.6622446210726025
 30
0.0
  0
INSERT
  5
82D
 67
     1
  8
0_FORMAT_A4L
  2
FORMAT_A4L
 10
417.4744373685592791
 20
111.662244621072702
 30
0.0
  0
INSERT
  5
984
 67
     1
  8
0_FORMAT_A4P
  2
FORMAT_A4P
 10
417.4744373685592791
 20
111.662244621072702
 30
0.0
  0
INSERT
  5
B5F
 67
     1
  8
0
  2
MMISOMC
 10
0.0
 20
0.0
 30
0.0
  0
LINE
  5
4D61
 67
     1
  8
0
 10
165.0664185883966013
 20
319.0678371131701851
 30
0.0
 11
165.0664185883966013
 21
303.8876371131701717
 31
0.0
  0
ARC
  5
4D62
 67
     1
  8
0
 10
165.5388185883967083
 20
303.8876371131701717
 30
0.0
 40
0.4724000000000001
 50
180.0
 51
270.0
  0
LINE
  5
4D63
 67
     1
  8
0
 10
196.0664185883966866
 20
319.0678371131701851
 30
0.0
 11
196.0664185883966866
 21
303.8876371131701717
 31
0.0
  0
ARC
  5
4D64
 67
     1
  8
0
 10
195.5940185883966933
 20
319.0678371131701851
 30
0.0
 40
0.4724000000000001
 50
0.0
 51
90.0
  0
LINE
  5
4D65
 67
     1
  8
0
 10
165.5388185883967083
 20
319.5402371131701784
 30
0.0
 11
195.5940185883966933
 21
319.5402371131701784
 31
0.0
  0
ARC
  5
4D66
 67
     1
  8
0
 10
165.5388185883967083
 20
319.0678371131701851
 30
0.0
 40
0.4724000000000001
 50
90.0
 51
180.0
  0
LINE
  5
4D67
 67
     1
  8
0
 10
165.5388185883967083
 20
303.4152371131701784
 30
0.0
 11
195.5940185883966933
 21
303.4152371131701784
 31
0.0
  0
ARC
  5
4D68
 67
     1
  8
0
 10
195.5940185883966933
 20
303.8876371131701717
 30
0.0
 40
0.4724000000000001
 50
270.0
 51
0.0
  0
ENDSEC
  0
EOF
