  0
SECTION
  2
HEADER
  9
$ACADVER
  1
AC1009
  9
$INSBASE
 10
0.0
 20
0.0
 30
0.0
  9
$EXTMIN
 10
981.2512641379174738
 20
-202.3305179361422006
 30
0.0
  9
$EXTMAX
 10
1012.5268546886569538
 20
-185.0942974641421017
 30
0.0
  9
$LIMMIN
 10
0.0
 20
0.0
  9
$LIMMAX
 10
12.0
 20
9.0
  9
$ORTHOMODE
 70
     0
  9
$REGENMODE
 70
     1
  9
$FILLMODE
 70
     1
  9
$QTEXTMODE
 70
     0
  9
$MIRRTEXT
 70
     0
  9
$DRAGMODE
 70
     2
  9
$LTSCALE
 40
1.0
  9
$OSMODE
 70
   695
  9
$ATTMODE
 70
     1
  9
$TEXTSIZE
 40
0.2
  9
$TRACEWID
 40
0.05
  9
$TEXTSTYLE
  7
STANDARD
  9
$CLAYER
  8
0
  9
$CELTYPE
  6
BYLAYER
  9
$CECOLOR
 62
   256
  9
$DIMSCALE
 40
1.0
  9
$DIMASZ
 40
0.18
  9
$DIMEXO
 40
0.0625
  9
$DIMDLI
 40
0.38
  9
$DIMRND
 40
0.0
  9
$DIMDLE
 40
0.0
  9
$DIMEXE
 40
0.18
  9
$DIMTP
 40
0.0
  9
$DIMTM
 40
0.0
  9
$DIMTXT
 40
0.18
  9
$DIMCEN
 40
0.09
  9
$DIMTSZ
 40
0.0
  9
$DIMTOL
 70
     0
  9
$DIMLIM
 70
     0
  9
$DIMTIH
 70
     1
  9
$DIMTOH
 70
     1
  9
$DIMSE1
 70
     0
  9
$DIMSE2
 70
     0
  9
$DIMTAD
 70
     0
  9
$DIMZIN
 70
     0
  9
$DIMBLK
  1

  9
$DIMASO
 70
     1
  9
$DIMSHO
 70
     1
  9
$DIMPOST
  1

  9
$DIMAPOST
  1

  9
$DIMALT
 70
     0
  9
$DIMALTD
 70
     2
  9
$DIMALTF
 40
25.3999999999999986
  9
$DIMLFAC
 40
1.0
  9
$DIMTOFL
 70
     0
  9
$DIMTVP
 40
0.0
  9
$DIMTIX
 70
     0
  9
$DIMSOXD
 70
     0
  9
$DIMSAH
 70
     0
  9
$DIMBLK1
  1

  9
$DIMBLK2
  1

  9
$DIMSTYLE
  2
STANDARD
  9
$DIMCLRD
 70
     0
  9
$DIMCLRE
 70
     0
  9
$DIMCLRT
 70
     0
  9
$DIMTFAC
 40
1.0
  9
$DIMGAP
 40
0.09
  9
$LUNITS
 70
     2
  9
$LUPREC
 70
     4
  9
$SKETCHINC
 40
0.1
  9
$FILLETRAD
 40
20.0
  9
$AUNITS
 70
     0
  9
$AUPREC
 70
     0
  9
$MENU
  1
.
  9
$ELEVATION
 40
0.0
  9
$PELEVATION
 40
0.0
  9
$THICKNESS
 40
0.0
  9
$LIMCHECK
 70
     0
  9
$BLIPMODE
 70
     0
  9
$CHAMFERA
 40
0.0
  9
$CHAMFERB
 40
0.0
  9
$SKPOLY
 70
     0
  9
$TDCREATE
 40
2459053.5728240739554167
  9
$TDUPDATE
 40
2459231.4744212958030403
  9
$TDINDWG
 40
0.1192592593
  9
$TDUSRTIMER
 40
0.1192592593
  9
$USRTIMER
 70
     1
  9
$ANGBASE
 50
0.0
  9
$ANGDIR
 70
     0
  9
$PDMODE
 70
     0
  9
$PDSIZE
 40
0.0
  9
$PLINEWID
 40
0.0
  9
$COORDS
 70
     1
  9
$SPLFRAME
 70
     0
  9
$SPLINETYPE
 70
     6
  9
$SPLINESEGS
 70
     8
  9
$ATTDIA
 70
     1
  9
$ATTREQ
 70
     1
  9
$HANDLING
 70
     1
  9
$HANDSEED
  5
B26
  9
$SURFTAB1
 70
     6
  9
$SURFTAB2
 70
     6
  9
$SURFTYPE
 70
     6
  9
$SURFU
 70
     6
  9
$SURFV
 70
     6
  9
$UCSNAME
  2

  9
$UCSORG
 10
0.0
 20
0.0
 30
0.0
  9
$UCSXDIR
 10
1.0
 20
0.0
 30
0.0
  9
$UCSYDIR
 10
0.0
 20
1.0
 30
0.0
  9
$PUCSNAME
  2

  9
$PUCSORG
 10
0.0
 20
0.0
 30
0.0
  9
$PUCSXDIR
 10
1.0
 20
0.0
 30
0.0
  9
$PUCSYDIR
 10
0.0
 20
1.0
 30
0.0
  9
$USERI1
 70
     0
  9
$USERI2
 70
     0
  9
$USERI3
 70
     0
  9
$USERI4
 70
     0
  9
$USERI5
 70
     0
  9
$USERR1
 40
0.0
  9
$USERR2
 40
0.0
  9
$USERR3
 40
0.0
  9
$USERR4
 40
0.0
  9
$USERR5
 40
0.0
  9
$WORLDVIEW
 70
     1
  9
$SHADEDGE
 70
     3
  9
$SHADEDIF
 70
    70
  9
$TILEMODE
 70
     1
  9
$MAXACTVP
 70
    64
  9
$PLIMCHECK
 70
     0
  9
$PEXTMIN
 10
-0.6765261073886037
 20
-0.8789033907809091
 30
0.0
  9
$PEXTMAX
 10
30.5990644433516188
 20
16.3573170812191293
 30
0.0
  9
$PLIMMIN
 10
0.0
 20
0.0
  9
$PLIMMAX
 10
12.0
 20
9.0
  9
$UNITMODE
 70
     0
  9
$VISRETAIN
 70
     1
  9
$PLINEGEN
 70
     0
  9
$PSLTSCALE
 70
     1
  0
ENDSEC
  0
SECTION
  2
TABLES
  0
TABLE
  2
VPORT
 70
     1
  0
VPORT
  2
*ACTIVE
 70
     0
 10
0.0
 20
0.0
 11
1.0
 21
1.0
 12
995.4796110887215264
 22
-194.0804526765230094
 13
0.0
 23
0.0
 14
0.5
 24
0.5
 15
0.5
 25
0.5
 16
0.0
 26
0.0
 36
1.0
 17
0.0
 27
0.0
 37
0.0
 40
26.9228575927422895
 41
1.63165905631659
 42
50.0
 43
0.0
 44
0.0
 50
0.0
 51
0.0
 71
     0
 72
  1000
 73
     1
 74
     3
 75
     0
 76
     0
 77
     0
 78
     0
  0
ENDTAB
  0
TABLE
  2
LTYPE
 70
     1
  0
LTYPE
  2
CONTINUOUS
 70
     0
  3
Solid line
 72
    65
 73
     0
 40
0.0
  0
ENDTAB
  0
TABLE
  2
LAYER
 70
     7
  0
LAYER
  2
0
 70
     0
 62
     7
  6
CONTINUOUS
  0
LAYER
  2
VISIBLE_EDGES_ISO_
 70
     0
 62
     7
  6
CONTINUOUS
  0
LAYER
  2
VISIBLE_TANGENT_EDGES_ISO_
 70
     0
 62
     7
  6
CONTINUOUS
  0
LAYER
  2
DEFPOINTS
 70
     0
 62
     7
  6
CONTINUOUS
  0
LAYER
  2
P-0000
 70
     0
 62
     7
  6
CONTINUOUS
  0
LAYER
  2
V__070
 70
     0
 62
     1
  6
CONTINUOUS
  0
LAYER
  2
TEMPLATE
 70
     0
 62
     6
  6
CONTINUOUS
  0
ENDTAB
  0
TABLE
  2
STYLE
 70
     6
  0
STYLE
  2
STANDARD
 70
     0
 40
0.0
 41
1.0
 50
0.0
 71
     0
 42
0.2
  3
txt
  4

  0
STYLE
  2
ANNOTATIVE
 70
     0
 40
0.0
 41
1.0
 50
0.0
 71
     0
 42
0.2
  3
txt
  4

  0
STYLE
  2
MMISOCP
 70
     0
 40
0.0
 41
1.0
 50
0.0
 71
     0
 42
2.5
  3
isocp.shx
  4

  0
STYLE
  2
SX
 70
     0
 40
1.0
 41
1.0
 50
0.0
 71
     0
 42
1.0
  3
simplex.shx
  4

  0
STYLE
  2
TEXT_3_5MM
 70
     0
 40
0.0
 41
0.899999976158142
 50
0.0
 71
     0
 42
0.2
  3
txt
  4

  0
STYLE
  2
FRANKE
 70
     0
 40
0.0
 41
1.0
 50
0.0
 71
     0
 42
40.0
  3
txt
  4

  0
ENDTAB
  0
TABLE
  2
VIEW
 70
     8
  0
ENDTAB
  0
TABLE
  2
UCS
 70
     0
  0
ENDTAB
  0
TABLE
  2
APPID
 70
    11
  0
APPID
  2
ACAD
 70
     0
  0
APPID
  2
ACADANNOTATIVE
 70
     0
  0
APPID
  2
ACAD_NAV_VCDISPLAY
 70
     0
  0
APPID
  2
ACAD_EXEMPT_FROM_CAD_STANDARDS
 70
     0
  0
APPID
  2
ACAD_PSEXT
 70
     0
  0
APPID
  2
ACAD_DSTYLE_DIMJAG
 70
     0
  0
APPID
  2
ACAD_DSTYLE_DIMTALN
 70
     0
  0
APPID
  2
ACAD_DSTYLE_DIMRADIAL_EXTENSION
 70
     0
  0
APPID
  2
ACAD_DSTYLE_DIMBREAK
 70
     0
  0
APPID
  2
TOP
 70
     0
  0
APPID
  2
ACAD_MLEADERVER
 70
     0
  0
ENDTAB
  0
TABLE
  2
DIMSTYLE
 70
    11
  0
DIMSTYLE
  2
STANDARD
 70
     0
  3

  4

  5

  6

  7

 40
1.0
 41
0.18
 42
0.0625
 43
0.38
 44
0.18
 45
0.0
 46
0.0
 47
0.0
 48
0.0
140
0.18
141
0.09
142
0.0
143
25.3999999999999986
144
1.0
145
0.0
146
1.0
147
0.09
 71
     0
 72
     0
 73
     1
 74
     1
 75
     0
 76
     0
 77
     0
 78
     0
170
     0
171
     2
172
     0
173
     0
174
     0
175
     0
176
     0
177
     0
178
     0
  0
DIMSTYLE
  2
ANNOTATIVE
 70
     0
  3

  4

  5

  6

  7

 40
1.0
 41
0.18
 42
0.0625
 43
0.38
 44
0.18
 45
0.0
 46
0.0
 47
0.0
 48
0.0
140
0.18
141
0.09
142
0.0
143
25.3999999999999986
144
1.0
145
0.0
146
1.0
147
0.09
 71
     0
 72
     0
 73
     1
 74
     1
 75
     0
 76
     0
 77
     0
 78
     0
170
     0
171
     2
172
     0
173
     0
174
     0
175
     0
176
     0
177
     0
178
     0
  0
DIMSTYLE
  2
ISO-25
 70
     0
  3

  4

  5

  6

  7

 40
1.0
 41
2.5
 42
0.625
 43
3.75
 44
1.25
 45
0.0
 46
0.0
 47
0.0
 48
0.0
140
2.5
141
2.5
142
0.0
143
0.03937007874016
144
1.0
145
0.0
146
1.0
147
0.625
 71
     0
 72
     0
 73
     0
 74
     0
 75
     0
 76
     0
 77
     1
 78
     8
170
     0
171
     3
172
     1
173
     0
174
     0
175
     0
176
     0
177
     0
178
     0
  0
DIMSTYLE
  2
MM_KBT
 70
     0
  3

  4

  5

  6
SMALL
  7
CLOSEDBLANK
 40
0.0
 41
3.5
 42
0.0
 43
20.0
 44
2.0
 45
0.0
 46
0.0
 47
0.0
 48
0.0
140
3.5
141
0.0
142
0.0
143
0.0394
144
1.0
145
0.0
146
1.0
147
0.625
 71
     0
 72
     0
 73
     0
 74
     0
 75
     0
 76
     1
 77
     2
 78
     8
170
     0
171
     2
172
     1
173
     1
174
     0
175
     0
176
     0
177
     0
178
     5
  0
DIMSTYLE
  2
MMM
 70
     0
  3

  4

  5

  6

  7

 40
0.0
 41
2.5
 42
2.0
 43
10.0
 44
2.0
 45
0.0
 46
0.0
 47
0.0
 48
0.0
140
3.5
141
0.0
142
0.0
143
0.0394
144
1.0
145
0.0
146
1.0
147
0.625
 71
     0
 72
     0
 73
     0
 74
     0
 75
     0
 76
     0
 77
     1
 78
     8
170
     0
171
     2
172
     1
173
     0
174
     0
175
     0
176
     3
177
     3
178
     2
  0
DIMSTYLE
  2
AM_ISO
 70
     0
  3

  4
"
  5

  6

  7

 40
1.0
 41
2.5
 42
1.0
 43
10.0
 44
1.0
 45
0.0
 46
0.0
 47
0.1
 48
0.1
140
3.5
141
0.0
142
0.0
143
0.0393701
144
1.0
145
0.0
146
0.71
147
1.5
 71
     0
 72
     0
 73
     0
 74
     0
 75
     0
 76
     0
 77
     1
 78
     8
170
     0
171
     2
172
     1
173
     0
174
     0
175
     0
176
   256
177
   256
178
     2
  0
DIMSTYLE
  2
KINDRED
 70
     0
  3

  4

  5

  6

  7

 40
2.0
 41
0.25
 42
0.25
 43
0.375
 44
0.25
 45
0.0
 46
0.0
 47
0.0
 48
0.0
140
1.0
141
0.25
142
0.0
143
25.3999999999999986
144
1.0
145
0.0
146
1.0
147
0.25
 71
     0
 72
     0
 73
     1
 74
     1
 75
     0
 76
     0
 77
     0
 78
     0
170
     0
171
     2
172
     0
173
     0
174
     0
175
     0
176
     1
177
     1
178
     1
  0
DIMSTYLE
  2
KS-STANDARD
 70
     0
  3

  4
mm
  5
CLOSED
  6

  7

 40
7.0
 41
2.5
 42
0.5
 43
1.0
 44
1.0
 45
0.00000001
 46
2.0
 47
0.0
 48
0.0
140
2.5
141
0.0
142
0.0
143
25.3999999999999986
144
1.0
145
0.0
146
0.625
147
0.8000000000000002
 71
     0
 72
     0
 73
     0
 74
     0
 75
     0
 76
     0
 77
     0
 78
     8
170
     0
171
     1
172
     0
173
     0
174
     0
175
     0
176
     3
177
     3
178
     3
  0
DIMSTYLE
  2
LEAD_OF_KS-STANDARD
 70
     0
  3

  4

  5

  6

  7

 40
6.6666666666666661
 41
2.5
 42
0.0
 43
6.0
 44
3.174999999999998
 45
0.00000001
 46
10.0
 47
0.0
 48
0.0
140
3.5
141
0.09
142
0.0
143
0.03937
144
1.0
145
0.0
146
0.7142857142857145
147
0.8000000000000002
 71
     0
 72
     0
 73
     0
 74
     1
 75
     0
 76
     0
 77
     1
 78
     8
170
     0
171
     3
172
     0
173
     0
174
     0
175
     0
176
     4
177
     7
178
     7
  0
DIMSTYLE
  2
LEAD_OF_KS-STANDARD$0
 70
     0
  3

  4

  5

  6

  7

 40
6.6666666666666661
 41
2.5
 42
0.0
 43
6.0
 44
3.174999999999998
 45
0.00000001
 46
10.0
 47
0.0
 48
0.0
140
3.5
141
0.09
142
0.0
143
0.03937
144
1.0
145
0.0
146
0.7142857142857145
147
0.8000000000000002
 71
     0
 72
     0
 73
     0
 74
     1
 75
     0
 76
     0
 77
     1
 78
     8
170
     0
171
     3
172
     0
173
     0
174
     0
175
     0
176
     4
177
     7
178
     7
  0
DIMSTYLE
  2
LEAD_OF_KS-STANDARD$4
 70
     0
  3

  4

  5
CLOSED
  6

  7

 40
6.6666666666666661
 41
2.5
 42
0.0
 43
6.0
 44
3.174999999999998
 45
0.00000001
 46
10.0
 47
0.0
 48
0.0
140
3.5
141
0.09
142
0.0
143
0.03937
144
1.0
145
0.0
146
0.7142857142857145
147
0.8000000000000002
 71
     0
 72
     0
 73
     0
 74
     1
 75
     0
 76
     0
 77
     1
 78
     8
170
     0
171
     3
172
     0
173
     0
174
     0
175
     0
176
     4
177
     7
178
     7
  0
ENDTAB
  0
ENDSEC
  0
SECTION
  2
BLOCKS
  0
BLOCK
  8
0
  2
$MODEL_SPACE
 70
     0
 10
0.0
 20
0.0
 30
0.0
  3
$MODEL_SPACE
  1

  0
ENDBLK
  5
72
  8
0
  0
BLOCK
 67
     1
  8
0
  2
$PAPER_SPACE
 70
     0
 10
0.0
 20
0.0
 30
0.0
  3
$PAPER_SPACE
  1

  0
ENDBLK
  5
6E
 67
     1
  8
0
  0
BLOCK
  8
0
  2
_CLOSEDBLANK
 70
     0
 10
0.0
 20
0.0
 30
0.0
  3
_CLOSEDBLANK
  1

  0
LINE
  5
AC
  8
0
  6
BYBLOCK
 62
     0
 10
-1.0
 20
0.1666666666666666
 30
0.0
 11
0.0
 21
0.0
 31
0.0
  0
LINE
  5
AD
  8
0
  6
BYBLOCK
 62
     0
 10
0.0
 20
0.0
 30
0.0
 11
-1.0
 21
-0.1666666666666666
 31
0.0
  0
LINE
  5
AE
  8
0
  6
BYBLOCK
 62
     0
 10
-1.0
 20
0.1666666666666666
 30
0.0
 11
-1.0
 21
-0.1666666666666666
 31
0.0
  0
ENDBLK
  5
AF
  8
0
  0
BLOCK
  8
0
  2
_SMALL
 70
     0
 10
0.0
 20
0.0
 30
0.0
  3
_SMALL
  1

  0
CIRCLE
  5
B2
  8
0
 62
     0
 10
0.0
 20
0.0
 30
0.0
 40
0.25
  0
ENDBLK
  5
B3
  8
0
  0
BLOCK
  8
0
  2
*D3
 70
     1
 10
0.0
 20
0.0
 30
0.0
  3
*D3
  1

  0
LINE
  5
3BF
  8
0
 62
     0
 10
952.4521408794752233
 20
-201.4875061253389958
 30
0.0
 11
952.4521408794752233
 21
-205.7503214339967883
 31
0.0
  0
LINE
  5
3C0
  8
0
 62
     0
 10
965.9560778873492382
 20
-201.4875061253389958
 30
0.0
 11
965.9560778873492382
 21
-205.7503214339967883
 31
0.0
  0
LINE
  5
3C1
  8
0
 62
     0
 10
952.6321408794751733
 20
-205.5703214339968099
 30
0.0
 11
955.4057760500788845
 21
-205.5703214339968099
 31
0.0
  0
LINE
  5
3C2
  8
0
 62
     0
 10
965.7760778873492882
 20
-205.5703214339968099
 30
0.0
 11
963.0024427167454633
 21
-205.5703214339968099
 31
0.0
  0
SOLID
  5
3C3
  8
0
 62
     0
 10
952.6321408794751733
 20
-205.5403214339968088
 30
0.0
 11
952.6321408794751733
 21
-205.600321433996811
 31
0.0
 12
952.4521408794752233
 22
-205.5703214339968099
 32
0.0
 13
952.4521408794752233
 23
-205.5703214339968099
 33
0.0
  0
SOLID
  5
3C4
  8
0
 62
     0
 10
965.7760778873492882
 20
-205.5403214339968088
 30
0.0
 11
965.7760778873492882
 21
-205.600321433996811
 31
0.0
 12
965.9560778873492382
 22
-205.5703214339968099
 32
0.0
 13
965.9560778873492382
 23
-205.5703214339968099
 33
0.0
  0
INSERT
  5
3C5
  8
0
  2
*U21
 10
0.0
 20
0.0
 30
0.0
  0
POINT
  5
3C6
  8
DEFPOINTS
 62
     0
 10
952.4521408794752233
 20
-201.4250061253389958
 30
0.0
  0
POINT
  5
3C7
  8
DEFPOINTS
 62
     0
 10
965.9560778873492382
 20
-201.4250061253389958
 30
0.0
  0
POINT
  5
3C8
  8
DEFPOINTS
 62
     0
 10
965.9560778873492382
 20
-205.5703214339968099
 30
0.0
  0
ENDBLK
  5
296
  8
0
  0
BLOCK
  8
0
  2
*D4
 70
     1
 10
0.0
 20
0.0
 30
0.0
  3
*D4
  1

  0
LINE
  5
3C9
  8
0
 62
     0
 10
934.9167078086090896
 20
-201.4875061253389958
 30
0.0
 11
934.9167078086090896
 21
-205.56358163475889
 31
0.0
  0
LINE
  5
3CA
  8
0
 62
     0
 10
951.4521408794752233
 20
-201.4875061253389958
 30
0.0
 11
951.4521408794752233
 21
-205.56358163475889
 31
0.0
  0
LINE
  5
3CB
  8
0
 62
     0
 10
935.0967078086091533
 20
-205.3835816347587979
 30
0.0
 11
939.3860910107088102
 21
-205.3835816347587979
 31
0.0
  0
LINE
  5
3CC
  8
0
 62
     0
 10
951.2721408794752733
 20
-205.3835816347587979
 30
0.0
 11
946.982757677375389
 21
-205.3835816347587979
 31
0.0
  0
SOLID
  5
3CD
  8
0
 62
     0
 10
935.0967078086091533
 20
-205.3535816347589105
 30
0.0
 11
935.0967078086091533
 21
-205.4135816347589127
 31
0.0
 12
934.9167078086090896
 22
-205.3835816347587979
 32
0.0
 13
934.9167078086090896
 23
-205.3835816347587979
 33
0.0
  0
SOLID
  5
3CE
  8
0
 62
     0
 10
951.2721408794752733
 20
-205.3535816347589105
 30
0.0
 11
951.2721408794752733
 21
-205.4135816347589127
 31
0.0
 12
951.4521408794752233
 22
-205.3835816347587979
 32
0.0
 13
951.4521408794752233
 23
-205.3835816347587979
 33
0.0
  0
INSERT
  5
3CF
  8
0
  2
*U22
 10
0.0
 20
0.0
 30
0.0
  0
POINT
  5
3D0
  8
DEFPOINTS
 62
     0
 10
934.9167078086090896
 20
-201.4250061253389958
 30
0.0
  0
POINT
  5
3D1
  8
DEFPOINTS
 62
     0
 10
951.4521408794752233
 20
-201.4250061253389958
 30
0.0
  0
POINT
  5
3D2
  8
DEFPOINTS
 62
     0
 10
951.4521408794752233
 20
-205.3835816347587979
 30
0.0
  0
ENDBLK
  5
2B0
  8
0
  0
BLOCK
  8
0
  2
*D5
 70
     1
 10
0.0
 20
0.0
 30
0.0
  3
*D5
  1

  0
LINE
  5
3B5
  8
0
 62
     0
 10
963.1500652558174806
 20
-185.2124077001421938
 30
0.0
 11
969.8717971167448013
 21
-185.2124077001421938
 31
0.0
  0
LINE
  5
3B6
  8
0
 62
     0
 10
963.1500652558174806
 20
-202.2124077001423075
 30
0.0
 11
969.8717971167448013
 21
-202.2124077001423075
 31
0.0
  0
LINE
  5
3B7
  8
0
 62
     0
 10
969.6917971167448513
 20
-185.3924077001422006
 30
0.0
 11
969.6917971167448513
 21
-190.08074103347559
 31
0.0
  0
LINE
  5
3B8
  8
0
 62
     0
 10
969.6917971167448513
 20
-202.0324077001423007
 30
0.0
 11
969.6917971167448513
 21
-197.3440743668089112
 31
0.0
  0
SOLID
  5
3B9
  8
0
 62
     0
 10
969.6617971167449923
 20
-185.3924077001422006
 30
0.0
 11
969.7217971167448241
 21
-185.3924077001422006
 31
0.0
 12
969.6917971167448513
 22
-185.2124077001421938
 32
0.0
 13
969.6917971167448513
 23
-185.2124077001421938
 33
0.0
  0
SOLID
  5
3BA
  8
0
 62
     0
 10
969.6617971167449923
 20
-202.0324077001423007
 30
0.0
 11
969.7217971167448241
 21
-202.0324077001423007
 31
0.0
 12
969.6917971167448513
 22
-202.2124077001423075
 32
0.0
 13
969.6917971167448513
 23
-202.2124077001423075
 33
0.0
  0
INSERT
  5
3BB
  8
0
  2
*U20
 10
0.0
 20
0.0
 30
0.0
  0
POINT
  5
3BC
  8
DEFPOINTS
 62
     0
 10
963.087565255817367
 20
-185.2124077001421938
 30
0.0
  0
POINT
  5
3BD
  8
DEFPOINTS
 62
     0
 10
963.087565255817367
 20
-202.2124077001423075
 30
0.0
  0
POINT
  5
3BE
  8
DEFPOINTS
 62
     0
 10
969.6917971167448513
 20
-202.2124077001423075
 30
0.0
  0
ENDBLK
  5
2EE
  8
0
  0
BLOCK
  8
0
  2
*D6
 70
     1
 10
0.0
 20
0.0
 30
0.0
  3
*D6
  1

  0
LINE
  5
3AB
  8
0
 62
     0
 10
960.9866759850415292
 20
-184.621856519039909
 30
0.0
 11
973.5154440529973954
 21
-184.621856519039909
 31
0.0
  0
LINE
  5
3AC
  8
0
 62
     0
 10
960.9866759850415292
 20
-202.8029588812445922
 30
0.0
 11
973.5154440529973954
 21
-202.8029588812445922
 31
0.0
  0
LINE
  5
3AD
  8
0
 62
     0
 10
973.3354440529974454
 20
-184.8018565190398874
 30
0.0
 11
973.3354440529974454
 21
-190.1640743668089044
 31
0.0
  0
LINE
  5
3AE
  8
0
 62
     0
 10
973.3354440529974454
 20
-202.6229588812446138
 30
0.0
 11
973.3354440529974454
 21
-197.2607410334755969
 31
0.0
  0
SOLID
  5
3AF
  8
0
 62
     0
 10
973.305444052997359
 20
-184.8018565190398874
 30
0.0
 11
973.3654440529974181
 21
-184.8018565190398874
 31
0.0
 12
973.3354440529974454
 22
-184.621856519039909
 32
0.0
 13
973.3354440529974454
 23
-184.621856519039909
 33
0.0
  0
SOLID
  5
3B0
  8
0
 62
     0
 10
973.305444052997359
 20
-202.6229588812446138
 30
0.0
 11
973.3654440529974181
 21
-202.6229588812446138
 31
0.0
 12
973.3354440529974454
 22
-202.8029588812445922
 32
0.0
 13
973.3354440529974454
 23
-202.8029588812445922
 33
0.0
  0
INSERT
  5
3B1
  8
0
  2
*U19
 10
0.0
 20
0.0
 30
0.0
  0
POINT
  5
3B2
  8
DEFPOINTS
 62
     0
 10
960.9241759850416429
 20
-184.621856519039909
 30
0.0
  0
POINT
  5
3B3
  8
DEFPOINTS
 62
     0
 10
960.9241759850416429
 20
-202.8029588812445922
 30
0.0
  0
POINT
  5
3B4
  8
DEFPOINTS
 62
     0
 10
973.3354440529974454
 20
-202.8029588812445922
 30
0.0
  0
ENDBLK
  5
308
  8
0
  0
BLOCK
  8
0
  2
*D7
 70
     1
 10
0.0
 20
0.0
 30
0.0
  3
*D7
  1

  0
LINE
  5
40E
  8
0
 62
     0
 10
934.326156627506748
 20
-199.0829516717020908
 30
0.0
 11
934.326156627506748
 21
-208.6826503149383996
 31
0.0
  0
LINE
  5
40F
  8
0
 62
     0
 10
966.5466290684515798
 20
-199.0829516717020908
 30
0.0
 11
966.5466290684515798
 21
-208.6826503149383996
 31
0.0
  0
LINE
  5
410
  8
0
 62
     0
 10
934.506156627506698
 20
-208.5026503149383075
 30
0.0
 11
946.5963928479792457
 21
-208.5026503149383075
 31
0.0
  0
LINE
  5
411
  8
0
 62
     0
 10
966.3666290684517435
 20
-208.5026503149383075
 30
0.0
 11
954.2763928479793094
 21
-208.5026503149383075
 31
0.0
  0
SOLID
  5
412
  8
0
 62
     0
 10
934.506156627506698
 20
-208.4726503149383916
 30
0.0
 11
934.506156627506698
 21
-208.5326503149383939
 31
0.0
 12
934.326156627506748
 22
-208.5026503149383075
 32
0.0
 13
934.326156627506748
 23
-208.5026503149383075
 33
0.0
  0
SOLID
  5
413
  8
0
 62
     0
 10
966.3666290684517435
 20
-208.4726503149383916
 30
0.0
 11
966.3666290684517435
 21
-208.5326503149383939
 31
0.0
 12
966.5466290684515798
 22
-208.5026503149383075
 32
0.0
 13
966.5466290684515798
 23
-208.5026503149383075
 33
0.0
  0
INSERT
  5
414
  8
0
  2
*U23
 10
0.0
 20
0.0
 30
0.0
  0
POINT
  5
415
  8
DEFPOINTS
 62
     0
 10
934.326156627506748
 20
-199.0204516717020908
 30
0.0
  0
POINT
  5
416
  8
DEFPOINTS
 62
     0
 10
966.5466290684515798
 20
-199.0204516717020908
 30
0.0
  0
POINT
  5
417
  8
DEFPOINTS
 62
     0
 10
966.5466290684515798
 20
-208.5026503149383075
 30
0.0
  0
ENDBLK
  5
3F7
  8
0
  0
BLOCK
  8
0
  2
*D8
 70
     1
 10
0.0
 20
0.0
 30
0.0
  3
*D8
  1

  0
LINE
  5
457
  8
0
 62
     0
 10
932.5695904501831137
 20
-183.4323206464904956
 30
0.0
 11
932.7495904501831774
 21
-183.4323206464906093
 31
0.0
  0
LINE
  5
458
  8
0
 62
     0
 10
932.7495904501831774
 20
-183.4323206464906093
 30
0.0
 11
934.52814287293495
 21
-184.9778897302309133
 31
0.0
  0
INSERT
  5
459
  8
0
  2
*U24
 10
0.0
 20
0.0
 30
0.0
  0
SOLID
  5
45A
  8
0
 62
     0
 10
934.547820996180576
 20
-184.9552452725087051
 30
0.0
 11
934.5084647496895514
 21
-185.0005341879532068
 31
0.0
 12
934.6640096192684268
 22
-185.0959584697039872
 32
0.0
 13
934.6640096192684268
 23
-185.0959584697039872
 33
0.0
  0
LINE
  5
45B
  8
0
 62
     0
 10
935.6141093834128242
 20
-185.9998092749449938
 30
0.0
 11
935.7941093834127742
 21
-185.9998092749449938
 31
0.0
  0
LINE
  5
45C
  8
0
 62
     0
 10
935.7041093834129697
 20
-186.089809274944912
 30
0.0
 11
935.7041093834129697
 21
-185.9098092749449052
 31
0.0
  0
POINT
  5
45D
  8
DEFPOINTS
 62
     0
 10
934.6640096192684268
 20
-185.0959584697039872
 30
0.0
  0
POINT
  5
45E
  8
DEFPOINTS
 62
     0
 10
935.7041093834129697
 20
-185.9998092749449938
 30
0.0
  0
ENDBLK
  5
41C
  8
0
  0
BLOCK
  8
0
  2
*D9
 70
     1
 10
0.0
 20
0.0
 30
0.0
  3
*D9
  1

  0
LINE
  5
47F
  8
0
 62
     0
 10
934.9167078086090896
 20
-199.6058801644402934
 30
0.0
 11
934.9167078086090896
 21
-207.3037460055763006
 31
0.0
  0
LINE
  5
480
  8
0
 62
     0
 10
965.9560778873492382
 20
-199.6058801644402934
 30
0.0
 11
965.9560778873492382
 21
-207.3037460055763006
 31
0.0
  0
LINE
  5
481
  8
0
 62
     0
 10
935.0967078086091533
 20
-207.1237460055762938
 30
0.0
 11
949.8513928479791275
 21
-207.1237460055762938
 31
0.0
  0
LINE
  5
482
  8
0
 62
     0
 10
965.7760778873492882
 20
-207.1237460055762938
 30
0.0
 11
951.0213928479792003
 21
-207.1237460055762938
 31
0.0
  0
SOLID
  5
483
  8
0
 62
     0
 10
935.0967078086091533
 20
-207.0937460055762926
 30
0.0
 11
935.0967078086091533
 21
-207.1537460055762949
 31
0.0
 12
934.9167078086090896
 22
-207.1237460055762938
 32
0.0
 13
934.9167078086090896
 23
-207.1237460055762938
 33
0.0
  0
SOLID
  5
484
  8
0
 62
     0
 10
965.7760778873492882
 20
-207.0937460055762926
 30
0.0
 11
965.7760778873492882
 21
-207.1537460055762949
 31
0.0
 12
965.9560778873492382
 22
-207.1237460055762938
 32
0.0
 13
965.9560778873492382
 23
-207.1237460055762938
 33
0.0
  0
INSERT
  5
485
  8
0
  2
*U25
 10
0.0
 20
0.0
 30
0.0
  0
POINT
  5
486
  8
DEFPOINTS
 62
     0
 10
934.9167078086090896
 20
-199.5433801644402934
 30
0.0
  0
POINT
  5
487
  8
DEFPOINTS
 62
     0
 10
965.9560778873492382
 20
-199.5433801644402934
 30
0.0
  0
POINT
  5
488
  8
DEFPOINTS
 62
     0
 10
965.9560778873492382
 20
-207.1237460055762938
 30
0.0
  0
ENDBLK
  5
473
  8
0
  0
BLOCK
  8
0
  2
_CLOSED
 70
     0
 10
0.0
 20
0.0
 30
0.0
  3
_CLOSED
  1

  0
LINE
  5
49C
  8
0
  6
BYBLOCK
 62
     0
 10
-1.0
 20
0.1666666666666666
 30
0.0
 11
0.0
 21
0.0
 31
0.0
  0
LINE
  5
49D
  8
0
  6
BYBLOCK
 62
     0
 10
0.0
 20
0.0
 30
0.0
 11
-1.0
 21
-0.1666666666666666
 31
0.0
  0
LINE
  5
49E
  8
0
  6
BYBLOCK
 62
     0
 10
-1.0
 20
0.1666666666666666
 30
0.0
 11
-1.0
 21
-0.1666666666666666
 31
0.0
  0
LINE
  5
49F
  8
0
  6
BYBLOCK
 62
     0
 10
0.0
 20
0.0
 30
0.0
 11
-1.0
 21
0.0
 31
0.0
  0
ENDBLK
  5
4A0
  8
0
  0
BLOCK
  8
0
  2
*U11
 70
     1
 10
0.0
 20
0.0
 30
0.0
  3
*U11
  1

  0
TEXT
  5
4ED
  8
P-0000
 62
     7
 10
2864.8660724999699596
 20
1453.9049742811259875
 30
0.0
 40
3.999999999999996
  1
Pour obtenir de meilleurs résultats, Franke recommande de confier le montage de cette unité à
  7
FRANKE
  0
TEXT
  5
4EE
  8
P-0000
 62
     7
 10
2864.9128257467227741
 20
1447.142203718356086
 30
0.0
 40
3.999999999999996
  1
un installateur professionnel. Cet évier a été spécialement conçu pour un montage en dessous
  7
FRANKE
  0
TEXT
  5
4EF
  8
P-0000
 62
     7
 10
2864.9881504220479655
 20
1440.4547578309100118
 30
0.0
 40
3.999999999999996
  1
d'un comptoir à surface massive uniquement. Ne pas installer un évier endommagé. Inspecter
  7
FRANKE
  0
TEXT
  5
4F0
  8
P-0000
 62
     7
 10
2864.9829556168538147
 20
1433.7880911642439514
 30
0.0
 40
3.999999999999996
  1
soigneusement.
  7
FRANKE
  0
TEXT
  5
4F1
  8
P-0000
 62
     7
 10
2864.8660724999699596
 20
1420.3586539348059432
 30
0.0
 40
3.999999999999996
  1
NOTE : le gabarit fourni (ou le fichier dxf téléchargé à partir du site Web) sert uniquement de
  7
FRANKE
  0
TEXT
  5
4F2
  8
P-0000
 62
     7
 10
2864.9829556168538147
 20
1413.5958833720360417
 30
0.0
 40
3.999999999999996
  1
guide. Pour une découpure parfaite, TOUJOURS travailler avec l'évier et les accessoires que l'on
  7
FRANKE
  0
TEXT
  5
4F3
  8
P-0000
 62
     7
 10
2864.9881504220479655
 20
1405.8435024196548966
 30
0.0
 40
3.999999999999996
  1
a en main. FRANKE N'ASSUME AUCUNE RESPONSABILITÉ EN CAS MAUVAISE DÉCOUPURE
  7
FRANKE
  0
TEXT
  5
4F4
  8
P-0000
 62
     7
 10
2864.8660724999699596
 20
1398.0911214672730694
 30
0.0
 40
3.999999999999996
  1
DE COMPTOIR OU D'INSTALLATION INADÉQUATE
  7
FRANKE
  0
TEXT
  5
4F5
  8
P-0000
 62
     7
 10
2864.8219166558142206
 20
1384.7318141079670113
 30
0.0
 40
3.999999999999996
  1
1. Réaliser la découpure à l'endroit voulu de la surface de montage à l'aide de ce gabarit (ou du
  7
FRANKE
  0
TEXT
  5
4F6
  8
P-0000
 62
     7
 10
2865.2115270454241909
 20
1378.044368220520937
 30
0.0
 40
3.999999999999996
  1
fichier dxf téléchargé à partir de notre site Web). Ne pas oublier de comparer l'évier à installer
  7
FRANKE
  0
TEXT
  5
4F7
  8
P-0000
 62
     7
 10
2864.9881504220479655
 20
1371.3569223330750901
 30
0.0
 40
3.999999999999996
  1
avec le gabarit utilisé pour assurer un montage parfait. La taille de la découpure doit être exacte
  7
FRANKE
  0
TEXT
  5
4F8
  8
P-0000
 62
     7
 10
2864.9777608116592091
 20
1364.6746712508240762
 30
0.0
 40
3.999999999999996
  1
car cet évier se monte avec des accessoires adaptés avec précision à la découpure. Tenir
  7
FRANKE
  0
TEXT
  5
4F9
  8
P-0000
 62
     7
 10
2864.9777608116592091
 20
1357.9924201685730623
 30
0.0
 40
3.999999999999996
  1
compte également de l'espace nécessaire à l'installation des autres produits sur le dessus de
  7
FRANKE
  0
TEXT
  5
4FA
  8
P-0000
 62
     7
 10
2864.9777608116592091
 20
1351.3101690863220483
 30
0.0
 40
3.999999999999996
  1
comptoir, à proximité de l'évier, comme les robinets ou les distributeurs de savon.
  7
FRANKE
  0
TEXT
  5
4FB
  8
P-0000
 62
     7
 10
2864.9673712012690885
 20
1337.8807318568849496
 30
0.0
 40
3.999999999999996
  1
2. Il est de la responsabilité du fournisseur/de l'installateur du dessus de comptoir de décider de
  7
FRANKE
  0
TEXT
  5
4FC
  8
P-0000
 62
     7
 10
2864.907630941529078
 20
1331.1984807746330262
 30
0.0
 40
3.999999999999996
  1
la méthode d'ancrage idéale en tenant compte de l'application et du matériau utilisé. Déterminer
  7
FRANKE
  0
TEXT
  5
4FD
  8
P-0000
 62
     7
 10
2864.907630941529078
 20
1324.5110348871869519
 30
0.0
 40
3.999999999999996
  1
le meilleur emplacement des agrafes de fixation fournies; idéalement, les espacer uniformément
  7
FRANKE
  0
TEXT
  5
4FE
  8
P-0000
 62
     7
 10
2864.9881504220479655
 20
1317.828783804935938
 30
0.0
 40
3.999999999999996
  1
autour du rebord de l'évier sur tous les côtés. Percer les trous à l'avance et installer les
  7
FRANKE
  0
TEXT
  5
4FF
  8
P-0000
 62
     7
 10
2864.9881504220479655
 20
1311.0660132421660364
 30
0.0
 40
3.999999999999996
  1
ancrages. Les vis de fixation et/ou autres pièces de quincaillerie nécessaires à l'ancrage ne sont
  7
FRANKE
  0
TEXT
  5
500
  8
P-0000
 62
     7
 10
2864.9024361363340176
 20
1304.303242679394998
 30
0.0
 40
3.999999999999996
  1
pas comprises. Sans les serrer, rattacher les agrafes de fixation au dessus de comptoir en
  7
FRANKE
  0
TEXT
  5
501
  8
P-0000
 62
     7
 10
2864.9128257467227741
 20
1297.6209915971439841
 30
0.0
 40
3.999999999999996
  1
utilisant l'ancrage sélectionné.
  7
FRANKE
  0
TEXT
  5
502
  8
P-0000
 62
     7
 10
2865.0089296428282069
 20
1284.1915543677071128
 30
0.0
 40
3.999999999999996
  1
3. Mettre un cordon uniforme de silicone le long du bord de la cuvette et/ou le long de la face
  7
FRANKE
  0
TEXT
  5
503
  8
P-0000
 62
     7
 10
2864.907630941529078
 20
1277.5041084802610385
 30
0.0
 40
3.999999999999996
  1
inférieure du dessus de comptoir.
  7
FRANKE
  0
TEXT
  5
504
  8
P-0000
 62
     7
 10
2865.0582802921780967
 20
1264.1499959261489039
 30
0.0
 40
3.999999999999996
  1
4. Positionner et aligner l'évier de manière uniforme sur l'ouverture qui a été découpée.
  7
FRANKE
  0
TEXT
  5
505
  8
P-0000
 62
     7
 10
2864.9465919804911209
 20
1257.3872253633780929
 30
0.0
 40
3.999999999999996
  1
Comprimer l'évier sur le joint de silicone et serrer partiellement les agrafes de fixation sur l'évier
  7
FRANKE
  0
TEXT
  5
506
  8
P-0000
 62
     7
 10
2864.9024361363340176
 20
1250.7205586967108957
 30
0.0
 40
3.999999999999996
  1
pour qu'il reste en place.
  7
FRANKE
  0
TEXT
  5
507
  8
P-0000
 62
     7
 10
2864.9933452272430259
 20
1237.3664461425989884
 30
0.0
 40
3.999999999999996
  1
5. Vérifier l'alignement une dernière fois pour s'assurer que l'ouverture de l'évier est alignée
  7
FRANKE
  0
TEXT
  5
508
  8
P-0000
 62
     7
 10
2864.9128257467227741
 20
1230.6790002551520047
 30
0.0
 40
3.999999999999996
  1
uniformément avec la découpure dans le dessus de comptoir, comme illustré par l'image
  7
FRANKE
  0
TEXT
  5
509
  8
P-0000
 62
     7
 10
2864.9777608116592091
 20
1223.9915543677070673
 30
0.0
 40
3.999999999999996
  1
ci-dessous. Faire les ajustements nécessaires pour obtenir un alignement parfait.
  7
FRANKE
  0
TEXT
  5
50A
  8
P-0000
 62
     7
 10
2864.9725660064650583
 20
1210.6322470084000997
 30
0.0
 40
3.999999999999996
  1
6. Lorsque l'alignement est satisfaisant, serrer à fond les agrafes de fixation sur le rebord de
  7
FRANKE
  0
TEXT
  5
50B
  8
P-0000
 62
     7
 10
2864.907630941529078
 20
1203.9499959261490858
 30
0.0
 40
3.999999999999996
  1
l'évier et ôter l'excès de silicone.
  7
FRANKE
  0
TEXT
  5
50C
  8
P-0000
 62
     7
 10
2864.9465919804911209
 20
1197.1872253633780474
 30
0.0
 40
3.999999999999996
  1
CONSEIL : une fois la silicone durcie, essuyer le bord intérieur avec un linge imbibé d'alcool
  7
FRANKE
  0
TEXT
  5
50D
  8
P-0000
 62
     7
 10
2864.9881504220479655
 20
1190.424454800607009
 30
0.0
 40
3.999999999999996
  1
dénaturé. Cela permet de polir les endroits rugueux.
  7
FRANKE
  0
ENDBLK
  5
50E
  8
0
  0
BLOCK
  8
0
  2
*U12
 70
     1
 10
0.0
 20
0.0
 30
0.0
  3
*U12
  1

  0
TEXT
  5
511
  8
P-0000
 62
     7
 10
2678.7470768498860707
 20
1451.8929718087240417
 30
0.0
 40
4.5
  1
For best results, Franke recommends this unit be mounted by a professional
  7
FRANKE
  0
TEXT
  5
512
  8
P-0000
 62
     7
 10
2678.7938300966388852
 20
1445.1195951853480892
 30
0.0
 40
4.5
  1
installer.  This sink is specifically designed to be undermounted in a solid
  7
FRANKE
  0
TEXT
  5
513
  8
P-0000
 62
     7
 10
2678.8785703563789866
 20
1438.3462185619709999
 30
0.0
 40
4.5
  1
surface countertop only. Do not install a damaged sink. Inspect carefully.
  7
FRANKE
  0
TEXT
  5
514
  8
P-0000
 62
     7
 10
2678.7470768498860707
 20
1424.7381016788540364
 30
0.0
 40
4.5
  1
NOTE: The template included (or dxf file downloaded from website) is only a
  7
FRANKE
  0
TEXT
  5
515
  8
P-0000
 62
     7
 10
2678.8785703563789866
 20
1417.879984795737073
 30
0.0
 40
4.5
  1
guide. The actual sink and accessories should ALWAYS be present to ensure
  7
FRANKE
  0
TEXT
  5
516
  8
P-0000
 62
     7
 10
2678.8844145122229747
 20
1411.0218679126201096
 30
0.0
 40
4.5
  1
a perfect cut.  FRANKE  IS NOT RESPONSIBLE FOR AN IMPROPERLY CUT
  7
FRANKE
  0
TEXT
  5
517
  8
P-0000
 62
     7
 10
2678.8376612654701603
 20
1404.1637510295029188
 30
0.0
 40
4.5
  1
COUNTERTOP OR IMPROPER INSTALLATION
  7
FRANKE
  0
TEXT
  5
518
  8
P-0000
 62
     7
 10
2678.697401525209898
 20
1390.5556341463859553
 30
0.0
 40
4.5
  1
1. Create the cut-out in the desired location of the mounting surface using
  7
FRANKE
  0
TEXT
  5
519
  8
P-0000
 62
     7
 10
2679.1474015252110803
 20
1383.7822575230100028
 30
0.0
 40
4.5
  1
this template (or the dxf file downloaded from our website). Make sure to
  7
FRANKE
  0
TEXT
  5
51A
  8
P-0000
 62
     7
 10
2678.8727262005349985
 20
1377.0088808996329135
 30
0.0
 40
4.5
  1
compare the actual sink with the template being used to ensure a perfect fit.
  7
FRANKE
  0
TEXT
  5
51B
  8
P-0000
 62
     7
 10
2679.0626612654700693
 20
1370.2355042762560515
 30
0.0
 40
4.5
  1
The size of the cut-out should be exact as this sink uses coordinating
  7
FRANKE
  0
TEXT
  5
51C
  8
P-0000
 62
     7
 10
2678.8844145122229747
 20
1363.462127652880099
 30
0.0
 40
4.5
  1
accessories which fit precisely with the cut out.  Also be aware of the
  7
FRANKE
  0
TEXT
  5
51D
  8
P-0000
 62
     7
 10
2678.8785703563789866
 20
1356.6887510295030097
 30
0.0
 40
4.5
  1
spacing requirements of any other products that will be mounted to the
  7
FRANKE
  0
TEXT
  5
51E
  8
P-0000
 62
     7
 10
2678.8727262005349985
 20
1349.9153744061259204
 30
0.0
 40
4.5
  1
countertop next to the sink such as faucets or soap dispensers.
  7
FRANKE
  0
TEXT
  5
51F
  8
P-0000
 62
     7
 10
2678.8610378888470223
 20
1336.3072575230089569
 30
0.0
 40
4.5
  1
2. It will be the responsibility of the countertop supplier/installer to decide the
  7
FRANKE
  0
TEXT
  5
520
  8
P-0000
 62
     7
 10
2678.7938300966388852
 20
1329.5572575230089569
 30
0.0
 40
4.5
  1
ideal anchoring method based on the application and
  7
FRANKE
  0
TEXT
  5
521
  8
P-0000
 62
     7
 10
2678.8727262005349985
 20
1322.7838808996330044
 30
0.0
 40
4.5
  1
countertop material being used. Determine best placement of the clip
  7
FRANKE
  0
TEXT
  5
522
  8
P-0000
 62
     7
 10
2678.7821417849499994
 20
1316.0338808996330044
 30
0.0
 40
4.5
  1
brackets provided, ideally they should be evenly spaced around the sink
  7
FRANKE
  0
TEXT
  5
523
  8
P-0000
 62
     7
 10
2678.7938300966388852
 20
1309.2838808996330044
 30
0.0
 40
4.5
  1
ledge on all sides.  Pre-drill holes and install anchors.  Mounting screws
  7
FRANKE
  0
TEXT
  5
524
  8
P-0000
 62
     7
 10
2678.8844145122229747
 20
1302.425764016516041
 30
0.0
 40
4.5
  1
and/or other hardware associated with anchoring not included.  Attach clip
  7
FRANKE
  0
TEXT
  5
525
  8
P-0000
 62
     7
 10
2678.7821417849499994
 20
1295.675764016516041
 30
0.0
 40
4.5
  1
brackets loosely to the countertop using selected anchor.
  7
FRANKE
  0
TEXT
  5
526
  8
P-0000
 62
     7
 10
2678.9077911355998367
 20
1282.0676471333990776
 30
0.0
 40
4.5
  1
3. Apply a bead of silicone evenly along the bowl rim and/or along the
  7
FRANKE
  0
TEXT
  5
527
  8
P-0000
 62
     7
 10
2678.7996742524828733
 20
1275.2942705100219882
 30
0.0
 40
4.5
  1
underside of countertop.
  7
FRANKE
  0
TEXT
  5
528
  8
P-0000
 62
     7
 10
2678.9633106161190881
 20
1261.7708938866460358
 30
0.0
 40
4.5
  1
4. Position and align sink evenly over the opening of the cut out. Press sink
  7
FRANKE
  0
TEXT
  5
529
  8
P-0000
 62
     7
 10
2678.7938300966388852
 20
1255.0208938866460358
 30
0.0
 40
4.5
  1
into silicone seal and partially tighten the clip brackets
  7
FRANKE
  0
TEXT
  5
52A
  8
P-0000
 62
     7
 10
2678.8844145122229747
 20
1248.2708938866460358
 30
0.0
 40
4.5
  1
against the sink so it stays in place.
  7
FRANKE
  0
TEXT
  5
52B
  8
P-0000
 62
     7
 10
2678.8902586680669629
 20
1234.6627770035290723
 30
0.0
 40
4.5
  1
5. Check alignment one final time to ensure the sink opening is evenly
  7
FRANKE
  0
TEXT
  5
52C
  8
P-0000
 62
     7
 10
2678.8844145122229747
 20
1227.9127770035290723
 30
0.0
 40
4.5
  1
aligned with the countertop cut out as outlined in the image below.Make
  7
FRANKE
  0
TEXT
  5
52D
  8
P-0000
 62
     7
 10
2678.8844145122229747
 20
1221.139400380151983
 30
0.0
 40
4.5
  1
adjustments as necessary to obtain perfect alignment.
  7
FRANKE
  0
TEXT
  5
52E
  8
P-0000
 62
     7
 10
2678.8668820446910104
 20
1207.5312834970350195
 30
0.0
 40
4.5
  1
6. Once satisfactory alignment is achieved, fully tighten clip brackets against
  7
FRANKE
  0
TEXT
  5
52F
  8
P-0000
 62
     7
 10
2679.1474015252110803
 20
1200.7579068736579302
 30
0.0
 40
4.5
  1
the rim of the sink and remove excess silicone.
  7
FRANKE
  0
TEXT
  5
530
  8
P-0000
 62
     7
 10
2678.7470768498860707
 20
1193.9845302502819777
 30
0.0
 40
4.5
  1
HINT: After silicone cures, wipe inside edge with denatured alcohol. This will
  7
FRANKE
  0
TEXT
  5
531
  8
P-0000
 62
     7
 10
2678.8785703563789866
 20
1187.2345302502819777
 30
0.0
 40
4.5
  1
smooth out any rough areas.
  7
FRANKE
  0
ENDBLK
  5
532
  8
0
  0
BLOCK
  8
0
  2
*U13
 70
     1
 10
0.0
 20
0.0
 30
0.0
  3
*U13
  1

  0
TEXT
  5
535
  8
P-0000
 62
     7
 10
2601.2052802866360253
 20
1370.1271937568160411
 30
0.0
 40
4.0
  1
Questions? Appelez le service
  7
FRANKE
  0
TEXT
  5
536
  8
P-0000
 62
     7
 10
2601.2468387281937794
 20
1364.1031937568159265
 30
0.0
 40
4.0
  1
à la clientèle États-Unis, au
  7
FRANKE
  0
TEXT
  5
537
  8
P-0000
 62
     7
 10
2601.0806049619600344
 20
1358.0791937568160392
 30
0.0
 40
4.0
  1
1-800-626-5771
  7
FRANKE
  0
ENDBLK
  5
538
  8
0
  0
BLOCK
  8
0
  2
*U14
 70
     1
 10
0.0
 20
0.0
 30
0.0
  3
*U14
  1

  0
TEXT
  5
53B
  8
P-0000
 62
     7
 10
2601.2052802866360253
 20
1392.8048391010379419
 30
0.0
 40
4.0
  1
Questions?  Call Franke
  7
FRANKE
  0
TEXT
  5
53C
  8
P-0000
 62
     7
 10
2601.2052802866360253
 20
1386.7808391010380547
 30
0.0
 40
4.0
  1
Customer Service USA
  7
FRANKE
  0
TEXT
  5
53D
  8
P-0000
 62
     7
 10
2601.0806049619600344
 20
1380.7568391010379401
 30
0.0
 40
4.0
  1
1-800-626-5771
  7
FRANKE
  0
ENDBLK
  5
53E
  8
0
  0
BLOCK
  8
0
  2
*U15
 70
     1
 10
0.0
 20
0.0
 30
0.0
  3
*U15
  1

  0
TEXT
  5
541
  8
P-0000
 10
3067.7236673529491782
 20
1457.25297337181496
 30
0.0
 40
3.705638474999998
  1
Para obtener mejores resultados, Franke recomienda que esta unidad sea montada por
  7
FRANKE
  0
TEXT
  5
542
  8
P-0000
 10
3067.7920791401797942
 20
1450.6738719760849108
 30
0.0
 40
3.705638474999998
  1
un instalador profesional.  Esta tarja está diseñada de manera específica para ser
  7
FRANKE
  0
TEXT
  5
543
  8
P-0000
 10
3067.9830620461989383
 20
1444.094770580353952
 30
0.0
 40
3.705638474999998
  1
submontada únicamente en una superficie sólida bajo encimera. No instale tarjas
  7
FRANKE
  0
TEXT
  5
544
  8
P-0000
 10
3067.9403046791808265
 20
1437.5156691846239028
 30
0.0
 40
3.705638474999998
  1
dañadas. Examínela cuidadosamente.
  7
FRANKE
  0
TEXT
  5
545
  8
P-0000
 10
3067.7236673529491782
 20
1424.5997581396040914
 30
0.0
 40
3.705638474999998
  1
NOTA: La plantilla incluida (o archivo dxf que se descarga desde el sitio web) es sólo una
  7
FRANKE
  0
TEXT
  5
546
  8
P-0000
 10
3068.0628757979688999
 20
1418.0206567438729053
 30
0.0
 40
3.705638474999998
  1
guía. La tarja y los accesorios deben estar SIEMPRE presentes para garantizar un corte
  7
FRANKE
  0
TEXT
  5
547
  8
P-0000
 10
3067.7778266845070902
 20
1411.447256330412074
 30
0.0
 40
3.705638474999998
  1
perfecto. FRANKE NO SE HACE RESPONSABLE POR UNA ENCIMERA MAL CORTADA O
  7
FRANKE
  0
TEXT
  5
548
  8
P-0000
 10
3067.7236673529491782
 20
1404.0500639790470814
 30
0.0
 40
3.705638474999998
  1
POR UNA INSTALACIÓN INCORRECTA
  7
FRANKE
  0
TEXT
  5
549
  8
P-0000
 10
3067.7179663706801875
 20
1391.1826112833159641
 30
0.0
 40
3.705638474999998
  1
1. Cree el recorte en la ubicación deseada de la superficie de montaje usando esta
  7
FRANKE
  0
TEXT
  5
54A
  8
P-0000
 10
3067.7778266845070902
 20
1384.5550515382969934
 30
0.0
 40
3.705638474999998
  1
plantilla (o el archivo dxf descargado de nuestro sitio web). Asegúrese de comparar la
  7
FRANKE
  0
TEXT
  5
54B
  8
P-0000
 10
3068.1198856206610799
 20
1377.9816511248350253
 30
0.0
 40
3.705638474999998
  1
tarja con la plantilla que se utiliza para garantizar un ajuste perfecto.  El tamaño del
  7
FRANKE
  0
TEXT
  5
54C
  8
P-0000
 10
3067.9574076259877984
 20
1371.4282041493158886
 30
0.0
 40
3.705638474999998
  1
corte debe ser exacto, ya que esta tarja utiliza accesorios que encajan exactamente en
  7
FRANKE
  0
TEXT
  5
54D
  8
P-0000
 10
3067.7778266845070902
 20
1364.8491027535840203
 30
0.0
 40
3.705638474999998
  1
la parte cortada.  También, tenga en mente los requisitos de espacio para otros
  7
FRANKE
  0
TEXT
  5
54E
  8
P-0000
 10
3067.7778266845070902
 20
1358.2700013578551079
 30
0.0
 40
3.705638474999998
  1
productos que se montarán en la encimera al lado de la tarja, como grifos o
  7
FRANKE
  0
TEXT
  5
54F
  8
P-0000
 10
3067.9403046791808265
 20
1351.6908999621239218
 30
0.0
 40
3.705638474999998
  1
dispensadores de jabón.
  7
FRANKE
  0
TEXT
  5
550
  8
P-0000
 10
3067.8889958387571824
 20
1338.6296138692389377
 30
0.0
 40
3.705638474999998
  1
2. Será responsabilidad del proveedor/instalador de la encimera elegir el método de
  7
FRANKE
  0
TEXT
  5
551
  8
P-0000
 10
3067.9517066437178983
 20
1332.0505124735079789
 30
0.0
 40
3.705638474999998
  1
anclaje ideal, tomando en cuenta el uso y el material de la encimera que se esté
  7
FRANKE
  0
TEXT
  5
552
  8
P-0000
 10
3067.7920791401797942
 20
1325.4714110777779297
 30
0.0
 40
3.705638474999998
  1
utilizando. Determine cuál es la mejor ubicación de las abrazaderas escuadra
  7
FRANKE
  0
TEXT
  5
553
  8
P-0000
 10
3067.7778266845070902
 20
1318.8923096820469709
 30
0.0
 40
3.705638474999998
  1
proporcionadas, lo ideal es que estén distribuidas uniformemente alrededor de las
  7
FRANKE
  0
TEXT
  5
554
  8
P-0000
 10
3067.9830620461989383
 20
1312.3189092685859123
 30
0.0
 40
3.705638474999998
  1
salientes de la tarja en todos los lados.  Taladre orificios e instale los anclajes.  Los
  7
FRANKE
  0
TEXT
  5
555
  8
P-0000
 10
3068.1198856206610799
 20
1305.7398078728549535
 30
0.0
 40
3.705638474999998
  1
tornillos de montaje u otros materiales relacionados con el anclaje no están incluidos.
  7
FRANKE
  0
TEXT
  5
556
  8
P-0000
 10
3067.7236673529491782
 20
1299.1863608973360442
 30
0.0
 40
3.705638474999998
  1
Fije las abrazaderas escuadra a la encimera, sin apretar,  haciendo uso del anclaje
  7
FRANKE
  0
TEXT
  5
557
  8
P-0000
 10
3067.9830620461989383
 20
1292.632913921815998
 30
0.0
 40
3.705638474999998
  1
seleccionado.
  7
FRANKE
  0
TEXT
  5
558
  8
P-0000
 10
3067.9203512412382224
 20
1279.5716278289319234
 30
0.0
 40
3.705638474999998
  1
3. Aplique un cordón de silicona uniformemente a lo largo del borde de la tina y/o a lo
  7
FRANKE
  0
TEXT
  5
559
  8
P-0000
 10
3067.7778266845070902
 20
1272.9982274154710922
 30
0.0
 40
3.705638474999998
  1
largo de la parte inferior de la encimera.
  7
FRANKE
  0
TEXT
  5
55A
  8
P-0000
 10
3068.0771282536411491
 20
1260.1364757020089655
 30
0.0
 40
3.705638474999998
  1
4. Coloque y alinee la tarja uniformemente sobre la abertura del corte. Presione la tarja
  7
FRANKE
  0
TEXT
  5
55B
  8
P-0000
 10
3067.9830620461989383
 20
1253.5830287264900562
 30
0.0
 40
3.705638474999998
  1
sobre el sellado de silicona y apriete parcialmente las abrazaderas escuadra contra la
  7
FRANKE
  0
TEXT
  5
55C
  8
P-0000
 10
3068.1198856206610799
 20
1247.0295817509709195
 30
0.0
 40
3.705638474999998
  1
tarja para mantenerla en su lugar.
  7
FRANKE
  0
TEXT
  5
55D
  8
P-0000
 10
3067.9260522235072131
 20
1234.1621290552400296
 30
0.0
 40
3.705638474999998
  1
5. Compruebe la alineación una última vez para asegurarse de que la abertura de la
  7
FRANKE
  0
TEXT
  5
55E
  8
P-0000
 10
3068.1198856206610799
 20
1227.5830276595099804
 30
0.0
 40
3.705638474999998
  1
tarja esté uniformemente alineada con el corte de la encimera, tal como se indica en la
  7
FRANKE
  0
TEXT
  5
55F
  8
P-0000
 10
3067.9830620461989383
 20
1221.0039262637790216
 30
0.0
 40
3.705638474999998
  1
siguiente imagen. Realice los ajustes necesarios para obtener una alineación perfecta.
  7
FRANKE
  0
TEXT
  5
560
  8
P-0000
 10
3067.9089492766988769
 20
1208.1364735680479043
 30
0.0
 40
3.705638474999998
  1
6. Una vez que se logre la alineación adecuada, apriete completamente las abrazaderas
  7
FRANKE
  0
TEXT
  5
561
  8
P-0000
 10
3067.9488561525840851
 20
1201.583026592528995
 30
0.0
 40
3.705638474999998
  1
escuadra contra el borde de la tarja y retire el exceso de silicona.  SUGERENCIA:
  7
FRANKE
  0
TEXT
  5
562
  8
P-0000
 10
3067.7236673529491782
 20
1195.0039251967980363
 30
0.0
 40
3.705638474999998
  1
Después de que la silicona se seque, limpie el borde interior con alcohol
  7
FRANKE
  0
TEXT
  5
563
  8
P-0000
 10
3067.9403046791808265
 20
1188.4248238010670775
 30
0.0
 40
3.705638474999998
  1
desnaturalizado. Esto suavizará cualquier área áspera.
  7
FRANKE
  0
ENDBLK
  5
564
  8
0
  0
BLOCK
  8
0
  2
*U16
 70
     1
 10
0.0
 20
0.0
 30
0.0
  3
*U16
  1

  0
TEXT
  5
567
  8
P-0000
 10
2600.2891419392440184
 20
1345.4485648597310501
 30
0.0
 40
3.391678999999999
  1
¿Preguntas?  Llame al Servicio al
  7
FRANKE
  0
TEXT
  5
568
  8
P-0000
 10
2600.2813149877051728
 20
1339.8763648597309839
 30
0.0
 40
3.391678999999999
  1
Cliente de Franke en EE.UU.
  7
FRANKE
  0
TEXT
  5
569
  8
P-0000
 10
2600.0804232315508671
 20
1334.3041648597300082
 30
0.0
 40
3.391678999999999
  1
1-800-626-5771
  7
FRANKE
  0
ENDBLK
  5
56A
  8
0
  0
BLOCK
  8
0
  2
*D18
 70
     1
 10
0.0
 20
0.0
 30
0.0
  3
*D18
  1

  0
LINE
  5
983
  8
0
 62
     0
 10
10.7694187662401397
 20
16.3573170812191186
 30
0.0
 11
10.65191876624014
 21
16.3573170812191186
 31
0.0
  0
LINE
  5
984
  8
0
 62
     0
 10
10.7694187662401202
 20
-0.8789033907808914
 30
0.0
 11
10.6519187662400991
 21
-0.8789033907808915
 31
0.0
  0
LINE
  5
985
  8
0
 62
     0
 10
10.8319187662401397
 20
16.1773170812191189
 30
0.0
 11
10.8319187662401397
 21
7.9192068452191151
 31
0.0
  0
LINE
  5
986
  8
0
 62
     0
 10
10.8319187662401397
 20
-0.6989033907808914
 30
0.0
 11
10.8319187662401397
 21
7.5592068452191148
 31
0.0
  0
SOLID
  5
987
  8
0
 62
     0
 10
10.8019187662401404
 20
16.1773170812191189
 30
0.0
 11
10.8619187662401409
 21
16.1773170812191189
 31
0.0
 12
10.8319187662401397
 22
16.3573170812191186
 32
0.0
 13
10.8319187662401397
 23
16.3573170812191186
 33
0.0
  0
SOLID
  5
988
  8
0
 62
     0
 10
10.8019187662401404
 20
-0.6989033907808914
 30
0.0
 11
10.8619187662401409
 21
-0.6989033907808914
 31
0.0
 12
10.8319187662401397
 22
-0.8789033907808914
 32
0.0
 13
10.8319187662401397
 23
-0.8789033907808914
 33
0.0
  0
INSERT
  5
989
  8
0
  2
*U27
 10
0.0
 20
0.0
 30
0.0
  0
POINT
  5
98A
  8
DEFPOINTS
 62
     0
 10
10.8319187662401397
 20
16.3573170812191186
 30
0.0
  0
POINT
  5
98B
  8
DEFPOINTS
 62
     0
 10
10.8319187662401202
 20
-0.8789033907808914
 30
0.0
  0
POINT
  5
98C
  8
DEFPOINTS
 62
     0
 10
10.8319187662401397
 20
-0.8789033907808914
 30
0.0
  0
ENDBLK
  5
977
  8
0
  0
BLOCK
  8
0
  2
*U19
 70
     1
 10
0.0
 20
0.0
 30
0.0
  3
*U19
  1

  0
TEXT
  5
B00
  8
0
 62
     0
 10
973.5854440529973317
 20
-197.1707410334757924
 30
0.0
 40
0.5
  1
18.1811 [461.80MM]
 50
90.0
  0
ENDBLK
  5
B02
  8
0
  0
BLOCK
  8
0
  2
*U20
 70
     1
 10
0.0
 20
0.0
 30
0.0
  3
*U20
  1

  0
TEXT
  5
B04
  8
0
 62
     0
 10
969.9417971167447377
 20
-197.2540743668091068
 30
0.0
 40
0.5
  1
17.0000 [431.80MM]
 50
90.0
  0
ENDBLK
  5
B06
  8
0
  0
BLOCK
  8
0
  2
*U21
 70
     1
 10
0.0
 20
0.0
 30
0.0
  3
*U21
  1

  0
TEXT
  5
B08
  8
0
 62
     0
 10
955.4957760500789163
 20
-205.8203214339968099
 30
0.0
 40
0.5
  1
13.5039 [343.00MM]
  0
ENDBLK
  5
B0A
  8
0
  0
BLOCK
  8
0
  2
*U22
 70
     1
 10
0.0
 20
0.0
 30
0.0
  3
*U22
  1

  0
TEXT
  5
B0C
  8
0
 62
     0
 10
939.4760910107088421
 20
-205.6335816347587979
 30
0.0
 40
0.5
  1
16.5354 [420.00MM]
  0
ENDBLK
  5
B0E
  8
0
  0
BLOCK
  8
0
  2
*U23
 70
     1
 10
0.0
 20
0.0
 30
0.0
  3
*U23
  1

  0
TEXT
  5
B10
  8
0
 62
     0
 10
946.6863928479791639
 20
-208.7526503149383075
 30
0.0
 40
0.5
  1
32.2205 [818.40MM]
  0
ENDBLK
  5
B12
  8
0
  0
BLOCK
  8
0
  2
*U24
 70
     1
 10
0.0
 20
0.0
 30
0.0
  3
*U24
  1

  0
TEXT
  5
B14
  8
0
 62
     0
 10
930.1695904501832501
 20
-183.522320646490499
 30
0.0
 40
0.18
  1
R1.3780 [R35.00]
  0
ENDBLK
  5
B16
  8
0
  0
BLOCK
  8
0
  2
*U25
 70
     1
 10
0.0
 20
0.0
 30
0.0
  3
*U25
  1

  0
TEXT
  5
B18
  8
0
 62
     0
 10
949.9413928479790457
 20
-207.2137460055762972
 30
0.0
 40
0.18
  1
31.0394
  0
ENDBLK
  5
B1A
  8
0
  0
BLOCK
  8
0
  2
*U26
 70
     1
 10
0.0
 20
0.0
 30
0.0
  3
*U26
  1

  0
TEXT
  5
B1D
  8
0
 10
14.0424319562003994
 20
1.1907414651469761
 30
0.0
 40
0.5351151519415908
  1
TEM.PTX160-31
  0
ENDBLK
  5
B1F
  8
0
  0
BLOCK
  8
0
  2
*U27
 70
     1
 10
0.0
 20
0.0
 30
0.0
  3
*U27
  1

  0
TEXT
  5
B21
  8
0
 62
     0
 10
10.3219187662401399
 20
7.6492068452191102
 30
0.0
 40
0.18
  1
17.2362
  0
ENDBLK
  5
B23
  8
0
  0
ENDSEC
  0
SECTION
  2
ENTITIES
  0
LINE
  5
48A
  8
0
 10
982.1567759487206786
 20
-202.3305179361422006
 30
0.0
 11
1011.6213428778539765
 21
-202.3305179361422006
 31
0.0
  0
LINE
  5
48B
  8
0
 10
982.1567759487206786
 20
-185.094297464142187
 30
0.0
 11
1011.6213428778539765
 21
-185.0942974641421017
 31
0.0
  0
ARC
  5
48C
  8
0
 10
1011.6213428778539765
 20
-185.9998092749453065
 30
0.0
 40
0.90551181080315
 50
0.0
 51
90.0
  0
ARC
  5
48D
  8
0
 10
1011.6213428778539765
 20
-201.4250061253389958
 30
0.0
 40
0.90551181080315
 50
270.0
 51
0.0
  0
LINE
  5
48E
  8
0
 10
1012.5268546886569538
 20
-185.9998092749453065
 30
0.0
 11
1012.5268546886569538
 21
-201.4250061253389958
 31
0.0
  0
LINE
  5
48F
  8
0
 10
981.2512641379174738
 20
-185.9998092749453065
 30
0.0
 11
981.2512641379174738
 21
-201.4250061253389958
 31
0.0
  0
ARC
  5
490
  8
0
 10
982.1567759487206786
 20
-185.9998092749453065
 30
0.0
 40
0.90551181080315
 50
90.0
 51
180.0
  0
ARC
  5
491
  8
0
 10
982.1567759487206786
 20
-201.4250061253389958
 30
0.0
 40
0.90551181080315
 50
180.0
 51
270.0
  0
VIEWPORT
  5
947
 67
     1
  8
0
 10
16.0590294332790116
 20
7.1997728694103946
 30
0.0
 40
60.9272199715531784
 41
37.3406562698791404
 68
     1
 69
     1
1001
ACAD
1000
MVIEW
1002
{
1070
    16
1010
0.0
1020
0.0
1030
0.0
1010
0.0
1020
0.0
1030
1.0
1040
0.0
1040
37.3406562698791404
1040
16.0590294332790116
1040
7.1997728694103946
1040
50.0
1040
0.0
1040
0.0
1070
     0
1070
  1000
1070
     1
1070
     1
1070
     0
1070
     0
1070
     0
1070
     0
1040
0.0
1040
0.0
1040
0.0
1040
0.5
1040
0.5
1040
0.5
1040
0.5
1070
     0
1002
{
1002
}
1002
}
  0
ARC
  5
95D
 67
     1
  8
0
 10
0.228985703414601
 20
0.0266084200222672
 30
0.0
 40
0.90551181080315
 50
180.0
 51
270.0
  0
ARC
  5
95E
 67
     1
  8
0
 10
0.228985703414601
 20
15.4518052704159494
 30
0.0
 40
0.90551181080315
 50
90.0
 51
180.0
  0
LINE
  5
95F
 67
     1
  8
0
 10
0.228985703414601
 20
16.3573170812191009
 30
0.0
 11
29.6935526325484709
 21
16.3573170812191293
 31
0.0
  0
LINE
  5
960
 67
     1
  8
0
 10
0.228985703414601
 20
-0.8789033907808806
 30
0.0
 11
29.6935526325484709
 21
-0.8789033907809091
 31
0.0
  0
ARC
  5
961
 67
     1
  8
0
 10
29.6935526325484709
 20
0.0266084200222672
 30
0.0
 40
0.90551181080315
 50
270.0
 51
0.0
  0
LINE
  5
962
 67
     1
  8
0
 10
30.5990644433515584
 20
15.4518052704159494
 30
0.0
 11
30.5990644433515584
 21
0.0266084200222672
 31
0.0
  0
ARC
  5
963
 67
     1
  8
0
 10
29.6935526325484709
 20
15.4518052704159494
 30
0.0
 40
0.90551181080315
 50
0.0
 51
90.0
  0
LINE
  5
964
 67
     1
  8
0
 10
-0.6765261073886037
 20
15.4518052704159494
 30
0.0
 11
-0.6765261073886037
 21
0.0266084200222672
 31
0.0
  0
ENDSEC
  0
EOF
