  0
SECTION
  2
HEADER
  9
$ACADVER
  1
AC1009
  9
$INSBASE
 10
0.0
 20
0.0
 30
0.0
  9
$EXTMIN
 10
-539.9706333864769476
 20
6.8560287785642116
 30
0.0
  9
$EXTMAX
 10
87.0818985094291946
 20
24.0922492505642403
 30
0.0
  9
$LIMMIN
 10
0.0
 20
0.0
  9
$LIMMAX
 10
12.0
 20
9.0
  9
$ORTHOMODE
 70
     1
  9
$REGENMODE
 70
     1
  9
$FILLMODE
 70
     1
  9
$QTEXTMODE
 70
     0
  9
$MIRRTEXT
 70
     0
  9
$DRAGMODE
 70
     2
  9
$LTSCALE
 40
1.0
  9
$OSMODE
 70
   695
  9
$ATTMODE
 70
     1
  9
$TEXTSIZE
 40
0.2
  9
$TRACEWID
 40
0.05
  9
$TEXTSTYLE
  7
STANDARD
  9
$CLAYER
  8
0
  9
$CELTYPE
  6
BYLAYER
  9
$CECOLOR
 62
   256
  9
$DIMSCALE
 40
1.0
  9
$DIMASZ
 40
0.18
  9
$DIMEXO
 40
0.0625
  9
$DIMDLI
 40
0.38
  9
$DIMRND
 40
0.0
  9
$DIMDLE
 40
0.0
  9
$DIMEXE
 40
0.18
  9
$DIMTP
 40
0.0
  9
$DIMTM
 40
0.0
  9
$DIMTXT
 40
0.18
  9
$DIMCEN
 40
0.09
  9
$DIMTSZ
 40
0.0
  9
$DIMTOL
 70
     0
  9
$DIMLIM
 70
     0
  9
$DIMTIH
 70
     1
  9
$DIMTOH
 70
     1
  9
$DIMSE1
 70
     0
  9
$DIMSE2
 70
     0
  9
$DIMTAD
 70
     0
  9
$DIMZIN
 70
     0
  9
$DIMBLK
  1

  9
$DIMASO
 70
     1
  9
$DIMSHO
 70
     1
  9
$DIMPOST
  1

  9
$DIMAPOST
  1

  9
$DIMALT
 70
     0
  9
$DIMALTD
 70
     2
  9
$DIMALTF
 40
25.3999999999999986
  9
$DIMLFAC
 40
1.0
  9
$DIMTOFL
 70
     0
  9
$DIMTVP
 40
0.0
  9
$DIMTIX
 70
     0
  9
$DIMSOXD
 70
     0
  9
$DIMSAH
 70
     0
  9
$DIMBLK1
  1

  9
$DIMBLK2
  1

  9
$DIMSTYLE
  2
STANDARD
  9
$DIMCLRD
 70
     0
  9
$DIMCLRE
 70
     0
  9
$DIMCLRT
 70
     0
  9
$DIMTFAC
 40
1.0
  9
$DIMGAP
 40
0.09
  9
$LUNITS
 70
     2
  9
$LUPREC
 70
     4
  9
$SKETCHINC
 40
0.1
  9
$FILLETRAD
 40
0.0
  9
$AUNITS
 70
     0
  9
$AUPREC
 70
     0
  9
$MENU
  1
.
  9
$ELEVATION
 40
0.0
  9
$PELEVATION
 40
0.0
  9
$THICKNESS
 40
0.0
  9
$LIMCHECK
 70
     0
  9
$BLIPMODE
 70
     0
  9
$CHAMFERA
 40
0.0
  9
$CHAMFERB
 40
0.0
  9
$SKPOLY
 70
     0
  9
$TDCREATE
 40
2459053.6613657409325242
  9
$TDUPDATE
 40
2459231.4732870371080935
  9
$TDINDWG
 40
0.0497569444
  9
$TDUSRTIMER
 40
0.0497569444
  9
$USRTIMER
 70
     1
  9
$ANGBASE
 50
0.0
  9
$ANGDIR
 70
     0
  9
$PDMODE
 70
     0
  9
$PDSIZE
 40
0.0
  9
$PLINEWID
 40
0.0
  9
$COORDS
 70
     1
  9
$SPLFRAME
 70
     0
  9
$SPLINETYPE
 70
     6
  9
$SPLINESEGS
 70
     8
  9
$ATTDIA
 70
     1
  9
$ATTREQ
 70
     1
  9
$HANDLING
 70
     1
  9
$HANDSEED
  5
8C5
  9
$SURFTAB1
 70
     6
  9
$SURFTAB2
 70
     6
  9
$SURFTYPE
 70
     6
  9
$SURFU
 70
     6
  9
$SURFV
 70
     6
  9
$UCSNAME
  2

  9
$UCSORG
 10
0.0
 20
0.0
 30
0.0
  9
$UCSXDIR
 10
1.0
 20
0.0
 30
0.0
  9
$UCSYDIR
 10
0.0
 20
1.0
 30
0.0
  9
$PUCSNAME
  2

  9
$PUCSORG
 10
0.0
 20
0.0
 30
0.0
  9
$PUCSXDIR
 10
1.0
 20
0.0
 30
0.0
  9
$PUCSYDIR
 10
0.0
 20
1.0
 30
0.0
  9
$USERI1
 70
     0
  9
$USERI2
 70
     0
  9
$USERI3
 70
     0
  9
$USERI4
 70
     0
  9
$USERI5
 70
     0
  9
$USERR1
 40
0.0
  9
$USERR2
 40
0.0
  9
$USERR3
 40
0.0
  9
$USERR4
 40
0.0
  9
$USERR5
 40
0.0
  9
$WORLDVIEW
 70
     1
  9
$SHADEDGE
 70
     3
  9
$SHADEDIF
 70
    70
  9
$TILEMODE
 70
     1
  9
$MAXACTVP
 70
    64
  9
$PLIMCHECK
 70
     0
  9
$PEXTMIN
 10
-1.7268890677235751
 20
0.409108867465509
 30
0.0
  9
$PEXTMAX
 10
35.1392526621505112
 20
17.6453293394655404
 30
0.0
  9
$PLIMMIN
 10
0.0
 20
0.0
  9
$PLIMMAX
 10
12.0
 20
9.0
  9
$UNITMODE
 70
     0
  9
$VISRETAIN
 70
     1
  9
$PLINEGEN
 70
     0
  9
$PSLTSCALE
 70
     1
  0
ENDSEC
  0
SECTION
  2
TABLES
  0
TABLE
  2
VPORT
 70
     1
  0
VPORT
  2
*ACTIVE
 70
     0
 10
0.0
 20
0.0
 11
1.0
 21
1.0
 12
68.7497533457507188
 22
13.9816700614546594
 13
0.0
 23
0.0
 14
0.5
 24
0.5
 15
0.5
 25
0.5
 16
0.0
 26
0.0
 36
1.0
 17
0.0
 27
0.0
 37
0.0
 40
34.0659561298533831
 41
1.63165905631659
 42
50.0
 43
0.0
 44
0.0
 50
0.0
 51
0.0
 71
     0
 72
  1000
 73
     1
 74
     3
 75
     0
 76
     0
 77
     0
 78
     0
  0
ENDTAB
  0
TABLE
  2
LTYPE
 70
     1
  0
LTYPE
  2
CONTINUOUS
 70
     0
  3
Solid line
 72
    65
 73
     0
 40
0.0
  0
ENDTAB
  0
TABLE
  2
LAYER
 70
     7
  0
LAYER
  2
0
 70
     0
 62
     7
  6
CONTINUOUS
  0
LAYER
  2
VISIBLE_EDGES_ISO_
 70
     0
 62
     7
  6
CONTINUOUS
  0
LAYER
  2
VISIBLE_TANGENT_EDGES_ISO_
 70
     0
 62
     7
  6
CONTINUOUS
  0
LAYER
  2
DEFPOINTS
 70
     0
 62
     7
  6
CONTINUOUS
  0
LAYER
  2
P-0000
 70
     0
 62
     7
  6
CONTINUOUS
  0
LAYER
  2
V__070
 70
     0
 62
     1
  6
CONTINUOUS
  0
LAYER
  2
TEMPLATE
 70
     0
 62
     6
  6
CONTINUOUS
  0
ENDTAB
  0
TABLE
  2
STYLE
 70
     3
  0
STYLE
  2
STANDARD
 70
     0
 40
0.0
 41
1.0
 50
0.0
 71
     0
 42
0.2
  3
txt
  4

  0
STYLE
  2
ANNOTATIVE
 70
     0
 40
0.0
 41
1.0
 50
0.0
 71
     0
 42
0.2
  3
txt
  4

  0
STYLE
  2
FRANKE
 70
     0
 40
0.0
 41
1.0
 50
0.0
 71
     0
 42
40.0
  3
txt
  4

  0
ENDTAB
  0
TABLE
  2
VIEW
 70
     8
  0
ENDTAB
  0
TABLE
  2
UCS
 70
     0
  0
ENDTAB
  0
TABLE
  2
APPID
 70
     8
  0
APPID
  2
ACAD
 70
     0
  0
APPID
  2
ACADANNOTATIVE
 70
     0
  0
APPID
  2
ACAD_NAV_VCDISPLAY
 70
     0
  0
APPID
  2
ACAD_DSTYLE_DIMRADIAL_EXTENSION
 70
     0
  0
APPID
  2
ACAD_EXEMPT_FROM_CAD_STANDARDS
 70
     0
  0
APPID
  2
TOP
 70
     0
  0
APPID
  2
ACAD_PSEXT
 70
     0
  0
APPID
  2
ACAD_MLEADERVER
 70
     0
  0
ENDTAB
  0
TABLE
  2
DIMSTYLE
 70
     2
  0
DIMSTYLE
  2
STANDARD
 70
     0
  3

  4

  5

  6

  7

 40
1.0
 41
0.18
 42
0.0625
 43
0.38
 44
0.18
 45
0.0
 46
0.0
 47
0.0
 48
0.0
140
0.18
141
0.09
142
0.0
143
25.3999999999999986
144
1.0
145
0.0
146
1.0
147
0.09
 71
     0
 72
     0
 73
     1
 74
     1
 75
     0
 76
     0
 77
     0
 78
     0
170
     0
171
     2
172
     0
173
     0
174
     0
175
     0
176
     0
177
     0
178
     0
  0
DIMSTYLE
  2
ANNOTATIVE
 70
     0
  3

  4

  5

  6

  7

 40
1.0
 41
0.18
 42
0.0625
 43
0.38
 44
0.18
 45
0.0
 46
0.0
 47
0.0
 48
0.0
140
0.18
141
0.09
142
0.0
143
25.3999999999999986
144
1.0
145
0.0
146
1.0
147
0.09
 71
     0
 72
     0
 73
     1
 74
     1
 75
     0
 76
     0
 77
     0
 78
     0
170
     0
171
     2
172
     0
173
     0
174
     0
175
     0
176
     0
177
     0
178
     0
  0
ENDTAB
  0
ENDSEC
  0
SECTION
  2
BLOCKS
  0
BLOCK
  8
0
  2
$MODEL_SPACE
 70
     0
 10
0.0
 20
0.0
 30
0.0
  3
$MODEL_SPACE
  1

  0
ENDBLK
  5
72
  8
0
  0
BLOCK
 67
     1
  8
0
  2
$PAPER_SPACE
 70
     0
 10
0.0
 20
0.0
 30
0.0
  3
$PAPER_SPACE
  1

  0
ENDBLK
  5
6E
 67
     1
  8
0
  0
BLOCK
  8
0
  2
*D1
 70
     1
 10
0.0
 20
0.0
 30
0.0
  3
*D1
  1

  0
LINE
  5
2CE
  8
0
 62
     0
 10
23.0293666135229813
 20
8.4196900842216102
 30
0.0
 11
23.0293666135229813
 21
4.156874775563824
 31
0.0
  0
LINE
  5
2CF
  8
0
 62
     0
 10
36.5333036213970033
 20
8.4196900842216102
 30
0.0
 11
36.5333036213970033
 21
4.156874775563824
 31
0.0
  0
LINE
  5
2D0
  8
0
 62
     0
 10
23.209366613522981
 20
4.3368747755638237
 30
0.0
 11
25.9830017841266603
 21
4.3368747755638237
 31
0.0
  0
LINE
  5
2D1
  8
0
 62
     0
 10
36.3533036213969964
 20
4.3368747755638237
 30
0.0
 11
33.5796684507933207
 21
4.3368747755638237
 31
0.0
  0
SOLID
  5
2D2
  8
0
 62
     0
 10
23.209366613522981
 20
4.366874775563824
 30
0.0
 11
23.209366613522981
 21
4.3068747755638244
 31
0.0
 12
23.0293666135229813
 22
4.3368747755638237
 32
0.0
 13
23.0293666135229813
 23
4.3368747755638237
 33
0.0
  0
SOLID
  5
2D3
  8
0
 62
     0
 10
36.3533036213969964
 20
4.366874775563824
 30
0.0
 11
36.3533036213969964
 21
4.3068747755638244
 31
0.0
 12
36.5333036213970033
 22
4.3368747755638237
 32
0.0
 13
36.5333036213970033
 23
4.3368747755638237
 33
0.0
  0
INSERT
  5
2D4
  8
0
  2
*U18
 10
0.0
 20
0.0
 30
0.0
  0
POINT
  5
2D5
  8
DEFPOINTS
 62
     0
 10
23.0293666135229813
 20
8.4821900842216102
 30
0.0
  0
POINT
  5
2D6
  8
DEFPOINTS
 62
     0
 10
36.5333036213970033
 20
8.4821900842216102
 30
0.0
  0
POINT
  5
2D7
  8
DEFPOINTS
 62
     0
 10
36.5333036213970033
 20
4.3368747755638237
 30
0.0
  0
ENDBLK
  5
284
  8
0
  0
BLOCK
  8
0
  2
*D2
 70
     1
 10
0.0
 20
0.0
 30
0.0
  3
*D2
  1

  0
LINE
  5
330
  8
0
 62
     0
 10
-0.096617636477113
 20
8.4196900842216102
 30
0.0
 11
-0.0966176364771132
 21
4.3436145748017818
 31
0.0
  0
LINE
  5
331
  8
0
 62
     0
 10
22.0293666135229316
 20
8.4196900842216102
 30
0.0
 11
22.0293666135229316
 21
4.3436145748017818
 31
0.0
  0
LINE
  5
332
  8
0
 62
     0
 10
0.0833823635228868
 20
4.5236145748017824
 30
0.0
 11
7.1680411551895746
 21
4.5236145748017824
 31
0.0
  0
LINE
  5
333
  8
0
 62
     0
 10
21.8493666135229283
 20
4.5236145748017824
 30
0.0
 11
14.7647078218562395
 21
4.5236145748017824
 31
0.0
  0
SOLID
  5
334
  8
0
 62
     0
 10
0.0833823635228868
 20
4.5536145748017818
 30
0.0
 11
0.0833823635228868
 21
4.4936145748017822
 31
0.0
 12
-0.0966176364771132
 22
4.5236145748017824
 32
0.0
 13
-0.0966176364771132
 23
4.5236145748017824
 33
0.0
  0
SOLID
  5
335
  8
0
 62
     0
 10
21.8493666135229283
 20
4.5536145748017818
 30
0.0
 11
21.8493666135229283
 21
4.4936145748017822
 31
0.0
 12
22.0293666135229316
 22
4.5236145748017824
 32
0.0
 13
22.0293666135229316
 23
4.5236145748017824
 33
0.0
  0
INSERT
  5
336
  8
0
  2
*U20
 10
0.0
 20
0.0
 30
0.0
  0
POINT
  5
337
  8
DEFPOINTS
 62
     0
 10
-0.096617636477113
 20
8.4821900842216102
 30
0.0
  0
POINT
  5
338
  8
DEFPOINTS
 62
     0
 10
22.0293666135229316
 20
8.4821900842216102
 30
0.0
  0
POINT
  5
339
  8
DEFPOINTS
 62
     0
 10
22.0293666135229316
 20
4.5236145748017824
 30
0.0
  0
ENDBLK
  5
291
  8
0
  0
BLOCK
  8
0
  2
*D3
 70
     1
 10
0.0
 20
0.0
 30
0.0
  3
*D3
  1

  0
LINE
  5
29F
  8
0
 62
     0
 10
33.7272909898647484
 20
24.6947885094184905
 30
0.0
 11
40.4490228507926801
 21
24.6947885094184905
 31
0.0
  0
LINE
  5
2A0
  8
0
 62
     0
 10
33.7272909898647484
 20
7.6947885094184443
 30
0.0
 11
40.4490228507926872
 21
7.6947885094184461
 31
0.0
  0
LINE
  5
2A1
  8
0
 62
     0
 10
40.2690228507926804
 20
24.5147885094184907
 30
0.0
 11
40.2690228507926804
 21
19.8264551760851298
 31
0.0
  0
LINE
  5
2A2
  8
0
 62
     0
 10
40.2690228507926875
 20
7.8747885094184449
 30
0.0
 11
40.2690228507926875
 21
12.5631218427517908
 31
0.0
  0
SOLID
  5
2A3
  8
0
 62
     0
 10
40.2390228507926793
 20
24.5147885094184907
 30
0.0
 11
40.2990228507926815
 21
24.5147885094184907
 31
0.0
 12
40.2690228507926804
 22
24.6947885094184905
 32
0.0
 13
40.2690228507926804
 23
24.6947885094184905
 33
0.0
  0
SOLID
  5
2A4
  8
0
 62
     0
 10
40.2390228507926935
 20
7.8747885094184449
 30
0.0
 11
40.2990228507926886
 21
7.8747885094184449
 31
0.0
 12
40.2690228507926875
 22
7.6947885094184461
 32
0.0
 13
40.2690228507926875
 23
7.6947885094184461
 33
0.0
  0
INSERT
  5
2A5
  8
0
  2
*U17
 10
0.0
 20
0.0
 30
0.0
  0
POINT
  5
2A6
  8
DEFPOINTS
 62
     0
 10
33.6647909898647484
 20
24.6947885094184905
 30
0.0
  0
POINT
  5
2A7
  8
DEFPOINTS
 62
     0
 10
33.6647909898647484
 20
7.6947885094184443
 30
0.0
  0
POINT
  5
2A8
  8
DEFPOINTS
 62
     0
 10
40.2690228507926875
 20
7.6947885094184461
 30
0.0
  0
ENDBLK
  5
29E
  8
0
  0
BLOCK
  8
0
  2
*D4
 70
     1
 10
0.0
 20
0.0
 30
0.0
  3
*D4
  1

  0
LINE
  5
34C
  8
0
 62
     0
 10
30.7585582579804289
 20
25.2853396905208214
 30
0.0
 11
43.2873263259368031
 21
25.2853396905208285
 31
0.0
  0
LINE
  5
34D
  8
0
 62
     0
 10
30.7585582579804289
 20
7.1042373283161311
 30
0.0
 11
43.2873263259368102
 21
7.104237328316132
 31
0.0
  0
LINE
  5
34E
  8
0
 62
     0
 10
43.1073263259368034
 20
25.1053396905208288
 30
0.0
 11
43.1073263259368034
 21
19.7431218427518083
 31
0.0
  0
LINE
  5
34F
  8
0
 62
     0
 10
43.1073263259368105
 20
7.2842373283161317
 30
0.0
 11
43.1073263259368105
 21
12.6464551760851407
 31
0.0
  0
SOLID
  5
350
  8
0
 62
     0
 10
43.0773263259368022
 20
25.1053396905208288
 30
0.0
 11
43.1373263259367974
 21
25.1053396905208288
 31
0.0
 12
43.1073263259368034
 22
25.2853396905208285
 32
0.0
 13
43.1073263259368034
 23
25.2853396905208285
 33
0.0
  0
SOLID
  5
351
  8
0
 62
     0
 10
43.0773263259368093
 20
7.2842373283161317
 30
0.0
 11
43.1373263259368116
 21
7.2842373283161317
 31
0.0
 12
43.1073263259368105
 22
7.104237328316132
 32
0.0
 13
43.1073263259368105
 23
7.104237328316132
 33
0.0
  0
INSERT
  5
352
  8
0
  2
*U22
 10
0.0
 20
0.0
 30
0.0
  0
POINT
  5
353
  8
DEFPOINTS
 62
     0
 10
30.6960582579804289
 20
25.2853396905208214
 30
0.0
  0
POINT
  5
354
  8
DEFPOINTS
 62
     0
 10
30.6960582579804289
 20
7.1042373283161311
 30
0.0
  0
POINT
  5
355
  8
DEFPOINTS
 62
     0
 10
43.1073263259368105
 20
7.104237328316132
 30
0.0
  0
ENDBLK
  5
2AB
  8
0
  0
BLOCK
  8
0
  2
*D5
 70
     1
 10
0.0
 20
0.0
 30
0.0
  3
*D5
  1

  0
LINE
  5
33A
  8
0
 62
     0
 10
-0.6871688175794546
 20
10.8242445378584602
 30
0.0
 11
-0.6871688175794552
 21
1.2245458946222629
 31
0.0
  0
LINE
  5
33B
  8
0
 62
     0
 10
37.1238548024994017
 20
10.8242445378584602
 30
0.0
 11
37.1238548024994017
 21
1.2245458946222629
 31
0.0
  0
LINE
  5
33C
  8
0
 62
     0
 10
-0.5071688175794551
 20
1.4045458946222631
 30
0.0
 11
14.5033429924599702
 21
1.4045458946222631
 31
0.0
  0
LINE
  5
33D
  8
0
 62
     0
 10
36.943854802499402
 20
1.4045458946222631
 30
0.0
 11
21.9333429924599699
 21
1.4045458946222631
 31
0.0
  0
SOLID
  5
33E
  8
0
 62
     0
 10
-0.5071688175794551
 20
1.434545894622264
 30
0.0
 11
-0.5071688175794551
 21
1.3745458946222631
 31
0.0
 12
-0.6871688175794552
 22
1.4045458946222631
 32
0.0
 13
-0.6871688175794552
 23
1.4045458946222631
 33
0.0
  0
SOLID
  5
33F
  8
0
 62
     0
 10
36.943854802499402
 20
1.434545894622264
 30
0.0
 11
36.943854802499402
 21
1.3745458946222631
 31
0.0
 12
37.1238548024994017
 22
1.4045458946222631
 32
0.0
 13
37.1238548024994017
 23
1.4045458946222631
 33
0.0
  0
INSERT
  5
340
  8
0
  2
*U21
 10
0.0
 20
0.0
 30
0.0
  0
POINT
  5
341
  8
DEFPOINTS
 62
     0
 10
-0.6871688175794546
 20
10.8867445378584602
 30
0.0
  0
POINT
  5
342
  8
DEFPOINTS
 62
     0
 10
37.1238548024994017
 20
10.8867445378584602
 30
0.0
  0
POINT
  5
343
  8
DEFPOINTS
 62
     0
 10
37.1238548024994017
 20
1.4045458946222631
 30
0.0
  0
ENDBLK
  5
2B8
  8
0
  0
BLOCK
  8
0
  2
*D6
 70
     1
 10
0.0
 20
0.0
 30
0.0
  3
*D6
  1

  0
LINE
  5
328
  8
0
 62
     0
 10
-2.4437349949036662
 20
26.474875563069741
 30
0.0
 11
-2.263734994903595
 21
26.474875563069741
 31
0.0
  0
LINE
  5
329
  8
0
 62
     0
 10
-2.263734994903595
 20
26.474875563069741
 30
0.0
 11
-0.4851825721518424
 21
24.9293064793294192
 31
0.0
  0
INSERT
  5
32A
  8
0
  2
*U19
 10
0.0
 20
0.0
 30
0.0
  0
SOLID
  5
32B
  8
0
 62
     0
 10
-0.4655044489063141
 20
24.9519509370516488
 30
0.0
 11
-0.5048606953973707
 21
24.9066620216071897
 31
0.0
 12
-0.3493158258184685
 22
24.81123773985626
 32
0.0
 13
-0.3493158258184685
 23
24.81123773985626
 33
0.0
  0
LINE
  5
32C
  8
0
 62
     0
 10
0.6007839383260852
 20
23.9073869346152996
 30
0.0
 11
0.7807839383260867
 21
23.9073869346152996
 31
0.0
  0
LINE
  5
32D
  8
0
 62
     0
 10
0.6907839383260868
 20
23.8173869346152998
 30
0.0
 11
0.6907839383260868
 21
23.9973869346152995
 31
0.0
  0
POINT
  5
32E
  8
DEFPOINTS
 62
     0
 10
-0.3493158258184685
 20
24.81123773985626
 30
0.0
  0
POINT
  5
32F
  8
DEFPOINTS
 62
     0
 10
0.6907839383260868
 20
23.9073869346152996
 30
0.0
  0
ENDBLK
  5
2C5
  8
0
  0
BLOCK
  8
0
  2
*U8
 70
     1
 10
0.0
 20
0.0
 30
0.0
  3
*U8
  1

  0
TEXT
  5
426
  8
P-0000
 62
     7
 10
2864.8660724999699596
 20
1453.9049742811259875
 30
0.0
 40
3.999999999999996
  1
Pour obtenir de meilleurs résultats, Franke recommande de confier le montage de cette unité à
  7
FRANKE
  0
TEXT
  5
427
  8
P-0000
 62
     7
 10
2864.9128257467227741
 20
1447.142203718356086
 30
0.0
 40
3.999999999999996
  1
un installateur professionnel. Cet évier a été spécialement conçu pour un montage en dessous
  7
FRANKE
  0
TEXT
  5
428
  8
P-0000
 62
     7
 10
2864.9881504220479655
 20
1440.4547578309100118
 30
0.0
 40
3.999999999999996
  1
d'un comptoir à surface massive uniquement. Ne pas installer un évier endommagé. Inspecter
  7
FRANKE
  0
TEXT
  5
429
  8
P-0000
 62
     7
 10
2864.9829556168538147
 20
1433.7880911642439514
 30
0.0
 40
3.999999999999996
  1
soigneusement.
  7
FRANKE
  0
TEXT
  5
42A
  8
P-0000
 62
     7
 10
2864.8660724999699596
 20
1420.3586539348059432
 30
0.0
 40
3.999999999999996
  1
NOTE : le gabarit fourni (ou le fichier dxf téléchargé à partir du site Web) sert uniquement de
  7
FRANKE
  0
TEXT
  5
42B
  8
P-0000
 62
     7
 10
2864.9829556168538147
 20
1413.5958833720360417
 30
0.0
 40
3.999999999999996
  1
guide. Pour une découpure parfaite, TOUJOURS travailler avec l'évier et les accessoires que l'on
  7
FRANKE
  0
TEXT
  5
42C
  8
P-0000
 62
     7
 10
2864.9881504220479655
 20
1405.8435024196548966
 30
0.0
 40
3.999999999999996
  1
a en main. FRANKE N'ASSUME AUCUNE RESPONSABILITÉ EN CAS MAUVAISE DÉCOUPURE
  7
FRANKE
  0
TEXT
  5
42D
  8
P-0000
 62
     7
 10
2864.8660724999699596
 20
1398.0911214672730694
 30
0.0
 40
3.999999999999996
  1
DE COMPTOIR OU D'INSTALLATION INADÉQUATE
  7
FRANKE
  0
TEXT
  5
42E
  8
P-0000
 62
     7
 10
2864.8219166558142206
 20
1384.7318141079670113
 30
0.0
 40
3.999999999999996
  1
1. Réaliser la découpure à l'endroit voulu de la surface de montage à l'aide de ce gabarit (ou du
  7
FRANKE
  0
TEXT
  5
42F
  8
P-0000
 62
     7
 10
2865.2115270454241909
 20
1378.044368220520937
 30
0.0
 40
3.999999999999996
  1
fichier dxf téléchargé à partir de notre site Web). Ne pas oublier de comparer l'évier à installer
  7
FRANKE
  0
TEXT
  5
430
  8
P-0000
 62
     7
 10
2864.9881504220479655
 20
1371.3569223330750901
 30
0.0
 40
3.999999999999996
  1
avec le gabarit utilisé pour assurer un montage parfait. La taille de la découpure doit être exacte
  7
FRANKE
  0
TEXT
  5
431
  8
P-0000
 62
     7
 10
2864.9777608116592091
 20
1364.6746712508240762
 30
0.0
 40
3.999999999999996
  1
car cet évier se monte avec des accessoires adaptés avec précision à la découpure. Tenir
  7
FRANKE
  0
TEXT
  5
432
  8
P-0000
 62
     7
 10
2864.9777608116592091
 20
1357.9924201685730623
 30
0.0
 40
3.999999999999996
  1
compte également de l'espace nécessaire à l'installation des autres produits sur le dessus de
  7
FRANKE
  0
TEXT
  5
433
  8
P-0000
 62
     7
 10
2864.9777608116592091
 20
1351.3101690863220483
 30
0.0
 40
3.999999999999996
  1
comptoir, à proximité de l'évier, comme les robinets ou les distributeurs de savon.
  7
FRANKE
  0
TEXT
  5
434
  8
P-0000
 62
     7
 10
2864.9673712012690885
 20
1337.8807318568849496
 30
0.0
 40
3.999999999999996
  1
2. Il est de la responsabilité du fournisseur/de l'installateur du dessus de comptoir de décider de
  7
FRANKE
  0
TEXT
  5
435
  8
P-0000
 62
     7
 10
2864.907630941529078
 20
1331.1984807746330262
 30
0.0
 40
3.999999999999996
  1
la méthode d'ancrage idéale en tenant compte de l'application et du matériau utilisé. Déterminer
  7
FRANKE
  0
TEXT
  5
436
  8
P-0000
 62
     7
 10
2864.907630941529078
 20
1324.5110348871869519
 30
0.0
 40
3.999999999999996
  1
le meilleur emplacement des agrafes de fixation fournies; idéalement, les espacer uniformément
  7
FRANKE
  0
TEXT
  5
437
  8
P-0000
 62
     7
 10
2864.9881504220479655
 20
1317.828783804935938
 30
0.0
 40
3.999999999999996
  1
autour du rebord de l'évier sur tous les côtés. Percer les trous à l'avance et installer les
  7
FRANKE
  0
TEXT
  5
438
  8
P-0000
 62
     7
 10
2864.9881504220479655
 20
1311.0660132421660364
 30
0.0
 40
3.999999999999996
  1
ancrages. Les vis de fixation et/ou autres pièces de quincaillerie nécessaires à l'ancrage ne sont
  7
FRANKE
  0
TEXT
  5
439
  8
P-0000
 62
     7
 10
2864.9024361363340176
 20
1304.303242679394998
 30
0.0
 40
3.999999999999996
  1
pas comprises. Sans les serrer, rattacher les agrafes de fixation au dessus de comptoir en
  7
FRANKE
  0
TEXT
  5
43A
  8
P-0000
 62
     7
 10
2864.9128257467227741
 20
1297.6209915971439841
 30
0.0
 40
3.999999999999996
  1
utilisant l'ancrage sélectionné.
  7
FRANKE
  0
TEXT
  5
43B
  8
P-0000
 62
     7
 10
2865.0089296428282069
 20
1284.1915543677071128
 30
0.0
 40
3.999999999999996
  1
3. Mettre un cordon uniforme de silicone le long du bord de la cuvette et/ou le long de la face
  7
FRANKE
  0
TEXT
  5
43C
  8
P-0000
 62
     7
 10
2864.907630941529078
 20
1277.5041084802610385
 30
0.0
 40
3.999999999999996
  1
inférieure du dessus de comptoir.
  7
FRANKE
  0
TEXT
  5
43D
  8
P-0000
 62
     7
 10
2865.0582802921780967
 20
1264.1499959261489039
 30
0.0
 40
3.999999999999996
  1
4. Positionner et aligner l'évier de manière uniforme sur l'ouverture qui a été découpée.
  7
FRANKE
  0
TEXT
  5
43E
  8
P-0000
 62
     7
 10
2864.9465919804911209
 20
1257.3872253633780929
 30
0.0
 40
3.999999999999996
  1
Comprimer l'évier sur le joint de silicone et serrer partiellement les agrafes de fixation sur l'évier
  7
FRANKE
  0
TEXT
  5
43F
  8
P-0000
 62
     7
 10
2864.9024361363340176
 20
1250.7205586967108957
 30
0.0
 40
3.999999999999996
  1
pour qu'il reste en place.
  7
FRANKE
  0
TEXT
  5
440
  8
P-0000
 62
     7
 10
2864.9933452272430259
 20
1237.3664461425989884
 30
0.0
 40
3.999999999999996
  1
5. Vérifier l'alignement une dernière fois pour s'assurer que l'ouverture de l'évier est alignée
  7
FRANKE
  0
TEXT
  5
441
  8
P-0000
 62
     7
 10
2864.9128257467227741
 20
1230.6790002551520047
 30
0.0
 40
3.999999999999996
  1
uniformément avec la découpure dans le dessus de comptoir, comme illustré par l'image
  7
FRANKE
  0
TEXT
  5
442
  8
P-0000
 62
     7
 10
2864.9777608116592091
 20
1223.9915543677070673
 30
0.0
 40
3.999999999999996
  1
ci-dessous. Faire les ajustements nécessaires pour obtenir un alignement parfait.
  7
FRANKE
  0
TEXT
  5
443
  8
P-0000
 62
     7
 10
2864.9725660064650583
 20
1210.6322470084000997
 30
0.0
 40
3.999999999999996
  1
6. Lorsque l'alignement est satisfaisant, serrer à fond les agrafes de fixation sur le rebord de
  7
FRANKE
  0
TEXT
  5
444
  8
P-0000
 62
     7
 10
2864.907630941529078
 20
1203.9499959261490858
 30
0.0
 40
3.999999999999996
  1
l'évier et ôter l'excès de silicone.
  7
FRANKE
  0
TEXT
  5
445
  8
P-0000
 62
     7
 10
2864.9465919804911209
 20
1197.1872253633780474
 30
0.0
 40
3.999999999999996
  1
CONSEIL : une fois la silicone durcie, essuyer le bord intérieur avec un linge imbibé d'alcool
  7
FRANKE
  0
TEXT
  5
446
  8
P-0000
 62
     7
 10
2864.9881504220479655
 20
1190.424454800607009
 30
0.0
 40
3.999999999999996
  1
dénaturé. Cela permet de polir les endroits rugueux.
  7
FRANKE
  0
ENDBLK
  5
447
  8
0
  0
BLOCK
  8
0
  2
*U9
 70
     1
 10
0.0
 20
0.0
 30
0.0
  3
*U9
  1

  0
TEXT
  5
44A
  8
P-0000
 62
     7
 10
2678.7470768498860707
 20
1451.8929718087240417
 30
0.0
 40
4.5
  1
For best results, Franke recommends this unit be mounted by a professional
  7
FRANKE
  0
TEXT
  5
44B
  8
P-0000
 62
     7
 10
2678.7938300966388852
 20
1445.1195951853480892
 30
0.0
 40
4.5
  1
installer.  This sink is specifically designed to be undermounted in a solid
  7
FRANKE
  0
TEXT
  5
44C
  8
P-0000
 62
     7
 10
2678.8785703563789866
 20
1438.3462185619709999
 30
0.0
 40
4.5
  1
surface countertop only. Do not install a damaged sink. Inspect carefully.
  7
FRANKE
  0
TEXT
  5
44D
  8
P-0000
 62
     7
 10
2678.7470768498860707
 20
1424.7381016788540364
 30
0.0
 40
4.5
  1
NOTE: The template included (or dxf file downloaded from website) is only a
  7
FRANKE
  0
TEXT
  5
44E
  8
P-0000
 62
     7
 10
2678.8785703563789866
 20
1417.879984795737073
 30
0.0
 40
4.5
  1
guide. The actual sink and accessories should ALWAYS be present to ensure
  7
FRANKE
  0
TEXT
  5
44F
  8
P-0000
 62
     7
 10
2678.8844145122229747
 20
1411.0218679126201096
 30
0.0
 40
4.5
  1
a perfect cut.  FRANKE  IS NOT RESPONSIBLE FOR AN IMPROPERLY CUT
  7
FRANKE
  0
TEXT
  5
450
  8
P-0000
 62
     7
 10
2678.8376612654701603
 20
1404.1637510295029188
 30
0.0
 40
4.5
  1
COUNTERTOP OR IMPROPER INSTALLATION
  7
FRANKE
  0
TEXT
  5
451
  8
P-0000
 62
     7
 10
2678.697401525209898
 20
1390.5556341463859553
 30
0.0
 40
4.5
  1
1. Create the cut-out in the desired location of the mounting surface using
  7
FRANKE
  0
TEXT
  5
452
  8
P-0000
 62
     7
 10
2679.1474015252110803
 20
1383.7822575230100028
 30
0.0
 40
4.5
  1
this template (or the dxf file downloaded from our website). Make sure to
  7
FRANKE
  0
TEXT
  5
453
  8
P-0000
 62
     7
 10
2678.8727262005349985
 20
1377.0088808996329135
 30
0.0
 40
4.5
  1
compare the actual sink with the template being used to ensure a perfect fit.
  7
FRANKE
  0
TEXT
  5
454
  8
P-0000
 62
     7
 10
2679.0626612654700693
 20
1370.2355042762560515
 30
0.0
 40
4.5
  1
The size of the cut-out should be exact as this sink uses coordinating
  7
FRANKE
  0
TEXT
  5
455
  8
P-0000
 62
     7
 10
2678.8844145122229747
 20
1363.462127652880099
 30
0.0
 40
4.5
  1
accessories which fit precisely with the cut out.  Also be aware of the
  7
FRANKE
  0
TEXT
  5
456
  8
P-0000
 62
     7
 10
2678.8785703563789866
 20
1356.6887510295030097
 30
0.0
 40
4.5
  1
spacing requirements of any other products that will be mounted to the
  7
FRANKE
  0
TEXT
  5
457
  8
P-0000
 62
     7
 10
2678.8727262005349985
 20
1349.9153744061259204
 30
0.0
 40
4.5
  1
countertop next to the sink such as faucets or soap dispensers.
  7
FRANKE
  0
TEXT
  5
458
  8
P-0000
 62
     7
 10
2678.8610378888470223
 20
1336.3072575230089569
 30
0.0
 40
4.5
  1
2. It will be the responsibility of the countertop supplier/installer to decide the
  7
FRANKE
  0
TEXT
  5
459
  8
P-0000
 62
     7
 10
2678.7938300966388852
 20
1329.5572575230089569
 30
0.0
 40
4.5
  1
ideal anchoring method based on the application and
  7
FRANKE
  0
TEXT
  5
45A
  8
P-0000
 62
     7
 10
2678.8727262005349985
 20
1322.7838808996330044
 30
0.0
 40
4.5
  1
countertop material being used. Determine best placement of the clip
  7
FRANKE
  0
TEXT
  5
45B
  8
P-0000
 62
     7
 10
2678.7821417849499994
 20
1316.0338808996330044
 30
0.0
 40
4.5
  1
brackets provided, ideally they should be evenly spaced around the sink
  7
FRANKE
  0
TEXT
  5
45C
  8
P-0000
 62
     7
 10
2678.7938300966388852
 20
1309.2838808996330044
 30
0.0
 40
4.5
  1
ledge on all sides.  Pre-drill holes and install anchors.  Mounting screws
  7
FRANKE
  0
TEXT
  5
45D
  8
P-0000
 62
     7
 10
2678.8844145122229747
 20
1302.425764016516041
 30
0.0
 40
4.5
  1
and/or other hardware associated with anchoring not included.  Attach clip
  7
FRANKE
  0
TEXT
  5
45E
  8
P-0000
 62
     7
 10
2678.7821417849499994
 20
1295.675764016516041
 30
0.0
 40
4.5
  1
brackets loosely to the countertop using selected anchor.
  7
FRANKE
  0
TEXT
  5
45F
  8
P-0000
 62
     7
 10
2678.9077911355998367
 20
1282.0676471333990776
 30
0.0
 40
4.5
  1
3. Apply a bead of silicone evenly along the bowl rim and/or along the
  7
FRANKE
  0
TEXT
  5
460
  8
P-0000
 62
     7
 10
2678.7996742524828733
 20
1275.2942705100219882
 30
0.0
 40
4.5
  1
underside of countertop.
  7
FRANKE
  0
TEXT
  5
461
  8
P-0000
 62
     7
 10
2678.9633106161190881
 20
1261.7708938866460358
 30
0.0
 40
4.5
  1
4. Position and align sink evenly over the opening of the cut out. Press sink
  7
FRANKE
  0
TEXT
  5
462
  8
P-0000
 62
     7
 10
2678.7938300966388852
 20
1255.0208938866460358
 30
0.0
 40
4.5
  1
into silicone seal and partially tighten the clip brackets
  7
FRANKE
  0
TEXT
  5
463
  8
P-0000
 62
     7
 10
2678.8844145122229747
 20
1248.2708938866460358
 30
0.0
 40
4.5
  1
against the sink so it stays in place.
  7
FRANKE
  0
TEXT
  5
464
  8
P-0000
 62
     7
 10
2678.8902586680669629
 20
1234.6627770035290723
 30
0.0
 40
4.5
  1
5. Check alignment one final time to ensure the sink opening is evenly
  7
FRANKE
  0
TEXT
  5
465
  8
P-0000
 62
     7
 10
2678.8844145122229747
 20
1227.9127770035290723
 30
0.0
 40
4.5
  1
aligned with the countertop cut out as outlined in the image below.Make
  7
FRANKE
  0
TEXT
  5
466
  8
P-0000
 62
     7
 10
2678.8844145122229747
 20
1221.139400380151983
 30
0.0
 40
4.5
  1
adjustments as necessary to obtain perfect alignment.
  7
FRANKE
  0
TEXT
  5
467
  8
P-0000
 62
     7
 10
2678.8668820446910104
 20
1207.5312834970350195
 30
0.0
 40
4.5
  1
6. Once satisfactory alignment is achieved, fully tighten clip brackets against
  7
FRANKE
  0
TEXT
  5
468
  8
P-0000
 62
     7
 10
2679.1474015252110803
 20
1200.7579068736579302
 30
0.0
 40
4.5
  1
the rim of the sink and remove excess silicone.
  7
FRANKE
  0
TEXT
  5
469
  8
P-0000
 62
     7
 10
2678.7470768498860707
 20
1193.9845302502819777
 30
0.0
 40
4.5
  1
HINT: After silicone cures, wipe inside edge with denatured alcohol. This will
  7
FRANKE
  0
TEXT
  5
46A
  8
P-0000
 62
     7
 10
2678.8785703563789866
 20
1187.2345302502819777
 30
0.0
 40
4.5
  1
smooth out any rough areas.
  7
FRANKE
  0
ENDBLK
  5
46B
  8
0
  0
BLOCK
  8
0
  2
*U10
 70
     1
 10
0.0
 20
0.0
 30
0.0
  3
*U10
  1

  0
TEXT
  5
46E
  8
P-0000
 62
     7
 10
2601.2052802866360253
 20
1370.1271937568160411
 30
0.0
 40
4.0
  1
Questions? Appelez le service
  7
FRANKE
  0
TEXT
  5
46F
  8
P-0000
 62
     7
 10
2601.2468387281937794
 20
1364.1031937568159265
 30
0.0
 40
4.0
  1
à la clientèle États-Unis, au
  7
FRANKE
  0
TEXT
  5
470
  8
P-0000
 62
     7
 10
2601.0806049619600344
 20
1358.0791937568160392
 30
0.0
 40
4.0
  1
1-800-626-5771
  7
FRANKE
  0
ENDBLK
  5
471
  8
0
  0
BLOCK
  8
0
  2
*U11
 70
     1
 10
0.0
 20
0.0
 30
0.0
  3
*U11
  1

  0
TEXT
  5
474
  8
P-0000
 62
     7
 10
2601.2052802866360253
 20
1392.8048391010379419
 30
0.0
 40
4.0
  1
Questions?  Call Franke
  7
FRANKE
  0
TEXT
  5
475
  8
P-0000
 62
     7
 10
2601.2052802866360253
 20
1386.7808391010380547
 30
0.0
 40
4.0
  1
Customer Service USA
  7
FRANKE
  0
TEXT
  5
476
  8
P-0000
 62
     7
 10
2601.0806049619600344
 20
1380.7568391010379401
 30
0.0
 40
4.0
  1
1-800-626-5771
  7
FRANKE
  0
ENDBLK
  5
477
  8
0
  0
BLOCK
  8
0
  2
*U12
 70
     1
 10
0.0
 20
0.0
 30
0.0
  3
*U12
  1

  0
TEXT
  5
47A
  8
P-0000
 10
3067.7236673529491782
 20
1457.25297337181496
 30
0.0
 40
3.705638474999998
  1
Para obtener mejores resultados, Franke recomienda que esta unidad sea montada por
  7
FRANKE
  0
TEXT
  5
47B
  8
P-0000
 10
3067.7920791401797942
 20
1450.6738719760849108
 30
0.0
 40
3.705638474999998
  1
un instalador profesional.  Esta tarja está diseñada de manera específica para ser
  7
FRANKE
  0
TEXT
  5
47C
  8
P-0000
 10
3067.9830620461989383
 20
1444.094770580353952
 30
0.0
 40
3.705638474999998
  1
submontada únicamente en una superficie sólida bajo encimera. No instale tarjas
  7
FRANKE
  0
TEXT
  5
47D
  8
P-0000
 10
3067.9403046791808265
 20
1437.5156691846239028
 30
0.0
 40
3.705638474999998
  1
dañadas. Examínela cuidadosamente.
  7
FRANKE
  0
TEXT
  5
47E
  8
P-0000
 10
3067.7236673529491782
 20
1424.5997581396040914
 30
0.0
 40
3.705638474999998
  1
NOTA: La plantilla incluida (o archivo dxf que se descarga desde el sitio web) es sólo una
  7
FRANKE
  0
TEXT
  5
47F
  8
P-0000
 10
3068.0628757979688999
 20
1418.0206567438729053
 30
0.0
 40
3.705638474999998
  1
guía. La tarja y los accesorios deben estar SIEMPRE presentes para garantizar un corte
  7
FRANKE
  0
TEXT
  5
480
  8
P-0000
 10
3067.7778266845070902
 20
1411.447256330412074
 30
0.0
 40
3.705638474999998
  1
perfecto. FRANKE NO SE HACE RESPONSABLE POR UNA ENCIMERA MAL CORTADA O
  7
FRANKE
  0
TEXT
  5
481
  8
P-0000
 10
3067.7236673529491782
 20
1404.0500639790470814
 30
0.0
 40
3.705638474999998
  1
POR UNA INSTALACIÓN INCORRECTA
  7
FRANKE
  0
TEXT
  5
482
  8
P-0000
 10
3067.7179663706801875
 20
1391.1826112833159641
 30
0.0
 40
3.705638474999998
  1
1. Cree el recorte en la ubicación deseada de la superficie de montaje usando esta
  7
FRANKE
  0
TEXT
  5
483
  8
P-0000
 10
3067.7778266845070902
 20
1384.5550515382969934
 30
0.0
 40
3.705638474999998
  1
plantilla (o el archivo dxf descargado de nuestro sitio web). Asegúrese de comparar la
  7
FRANKE
  0
TEXT
  5
484
  8
P-0000
 10
3068.1198856206610799
 20
1377.9816511248350253
 30
0.0
 40
3.705638474999998
  1
tarja con la plantilla que se utiliza para garantizar un ajuste perfecto.  El tamaño del
  7
FRANKE
  0
TEXT
  5
485
  8
P-0000
 10
3067.9574076259877984
 20
1371.4282041493158886
 30
0.0
 40
3.705638474999998
  1
corte debe ser exacto, ya que esta tarja utiliza accesorios que encajan exactamente en
  7
FRANKE
  0
TEXT
  5
486
  8
P-0000
 10
3067.7778266845070902
 20
1364.8491027535840203
 30
0.0
 40
3.705638474999998
  1
la parte cortada.  También, tenga en mente los requisitos de espacio para otros
  7
FRANKE
  0
TEXT
  5
487
  8
P-0000
 10
3067.7778266845070902
 20
1358.2700013578551079
 30
0.0
 40
3.705638474999998
  1
productos que se montarán en la encimera al lado de la tarja, como grifos o
  7
FRANKE
  0
TEXT
  5
488
  8
P-0000
 10
3067.9403046791808265
 20
1351.6908999621239218
 30
0.0
 40
3.705638474999998
  1
dispensadores de jabón.
  7
FRANKE
  0
TEXT
  5
489
  8
P-0000
 10
3067.8889958387571824
 20
1338.6296138692389377
 30
0.0
 40
3.705638474999998
  1
2. Será responsabilidad del proveedor/instalador de la encimera elegir el método de
  7
FRANKE
  0
TEXT
  5
48A
  8
P-0000
 10
3067.9517066437178983
 20
1332.0505124735079789
 30
0.0
 40
3.705638474999998
  1
anclaje ideal, tomando en cuenta el uso y el material de la encimera que se esté
  7
FRANKE
  0
TEXT
  5
48B
  8
P-0000
 10
3067.7920791401797942
 20
1325.4714110777779297
 30
0.0
 40
3.705638474999998
  1
utilizando. Determine cuál es la mejor ubicación de las abrazaderas escuadra
  7
FRANKE
  0
TEXT
  5
48C
  8
P-0000
 10
3067.7778266845070902
 20
1318.8923096820469709
 30
0.0
 40
3.705638474999998
  1
proporcionadas, lo ideal es que estén distribuidas uniformemente alrededor de las
  7
FRANKE
  0
TEXT
  5
48D
  8
P-0000
 10
3067.9830620461989383
 20
1312.3189092685859123
 30
0.0
 40
3.705638474999998
  1
salientes de la tarja en todos los lados.  Taladre orificios e instale los anclajes.  Los
  7
FRANKE
  0
TEXT
  5
48E
  8
P-0000
 10
3068.1198856206610799
 20
1305.7398078728549535
 30
0.0
 40
3.705638474999998
  1
tornillos de montaje u otros materiales relacionados con el anclaje no están incluidos.
  7
FRANKE
  0
TEXT
  5
48F
  8
P-0000
 10
3067.7236673529491782
 20
1299.1863608973360442
 30
0.0
 40
3.705638474999998
  1
Fije las abrazaderas escuadra a la encimera, sin apretar,  haciendo uso del anclaje
  7
FRANKE
  0
TEXT
  5
490
  8
P-0000
 10
3067.9830620461989383
 20
1292.632913921815998
 30
0.0
 40
3.705638474999998
  1
seleccionado.
  7
FRANKE
  0
TEXT
  5
491
  8
P-0000
 10
3067.9203512412382224
 20
1279.5716278289319234
 30
0.0
 40
3.705638474999998
  1
3. Aplique un cordón de silicona uniformemente a lo largo del borde de la tina y/o a lo
  7
FRANKE
  0
TEXT
  5
492
  8
P-0000
 10
3067.7778266845070902
 20
1272.9982274154710922
 30
0.0
 40
3.705638474999998
  1
largo de la parte inferior de la encimera.
  7
FRANKE
  0
TEXT
  5
493
  8
P-0000
 10
3068.0771282536411491
 20
1260.1364757020089655
 30
0.0
 40
3.705638474999998
  1
4. Coloque y alinee la tarja uniformemente sobre la abertura del corte. Presione la tarja
  7
FRANKE
  0
TEXT
  5
494
  8
P-0000
 10
3067.9830620461989383
 20
1253.5830287264900562
 30
0.0
 40
3.705638474999998
  1
sobre el sellado de silicona y apriete parcialmente las abrazaderas escuadra contra la
  7
FRANKE
  0
TEXT
  5
495
  8
P-0000
 10
3068.1198856206610799
 20
1247.0295817509709195
 30
0.0
 40
3.705638474999998
  1
tarja para mantenerla en su lugar.
  7
FRANKE
  0
TEXT
  5
496
  8
P-0000
 10
3067.9260522235072131
 20
1234.1621290552400296
 30
0.0
 40
3.705638474999998
  1
5. Compruebe la alineación una última vez para asegurarse de que la abertura de la
  7
FRANKE
  0
TEXT
  5
497
  8
P-0000
 10
3068.1198856206610799
 20
1227.5830276595099804
 30
0.0
 40
3.705638474999998
  1
tarja esté uniformemente alineada con el corte de la encimera, tal como se indica en la
  7
FRANKE
  0
TEXT
  5
498
  8
P-0000
 10
3067.9830620461989383
 20
1221.0039262637790216
 30
0.0
 40
3.705638474999998
  1
siguiente imagen. Realice los ajustes necesarios para obtener una alineación perfecta.
  7
FRANKE
  0
TEXT
  5
499
  8
P-0000
 10
3067.9089492766988769
 20
1208.1364735680479043
 30
0.0
 40
3.705638474999998
  1
6. Una vez que se logre la alineación adecuada, apriete completamente las abrazaderas
  7
FRANKE
  0
TEXT
  5
49A
  8
P-0000
 10
3067.9488561525840851
 20
1201.583026592528995
 30
0.0
 40
3.705638474999998
  1
escuadra contra el borde de la tarja y retire el exceso de silicona.  SUGERENCIA:
  7
FRANKE
  0
TEXT
  5
49B
  8
P-0000
 10
3067.7236673529491782
 20
1195.0039251967980363
 30
0.0
 40
3.705638474999998
  1
Después de que la silicona se seque, limpie el borde interior con alcohol
  7
FRANKE
  0
TEXT
  5
49C
  8
P-0000
 10
3067.9403046791808265
 20
1188.4248238010670775
 30
0.0
 40
3.705638474999998
  1
desnaturalizado. Esto suavizará cualquier área áspera.
  7
FRANKE
  0
ENDBLK
  5
49D
  8
0
  0
BLOCK
  8
0
  2
*U13
 70
     1
 10
0.0
 20
0.0
 30
0.0
  3
*U13
  1

  0
TEXT
  5
4A0
  8
P-0000
 10
2600.2891419392440184
 20
1345.4485648597310501
 30
0.0
 40
3.391678999999999
  1
¿Preguntas?  Llame al Servicio al
  7
FRANKE
  0
TEXT
  5
4A1
  8
P-0000
 10
2600.2813149877051728
 20
1339.8763648597309839
 30
0.0
 40
3.391678999999999
  1
Cliente de Franke en EE.UU.
  7
FRANKE
  0
TEXT
  5
4A2
  8
P-0000
 10
2600.0804232315508671
 20
1334.3041648597300082
 30
0.0
 40
3.391678999999999
  1
1-800-626-5771
  7
FRANKE
  0
ENDBLK
  5
4A3
  8
0
  0
BLOCK
  8
0
  2
A$C22B56169
 70
     0
 10
0.0
 20
0.0
 30
0.0
  3
A$C22B56169
  1

  0
ARC
  5
782
  8
0
 10
0.9055118676345728
 20
0.9055117560340022
 30
0.0
 40
0.90551181080315
 50
180.0
 51
270.0
  0
ARC
  5
783
  8
0
 10
0.9055118676345728
 20
16.3307086064276916
 30
0.0
 40
0.90551181080315
 50
90.0
 51
180.0
  0
LINE
  5
784
  8
0
 10
0.9055118676345728
 20
17.2362204172308395
 30
0.0
 11
30.3700787967684391
 21
17.2362204172308715
 31
0.0
  0
LINE
  5
785
  8
0
 10
0.9055118676345728
 20
-0.0000000547691457
 30
0.0
 11
30.3700787967684391
 21
-0.0000000547691741
 31
0.0
  0
ARC
  5
786
  8
0
 10
30.3700787967684391
 20
0.9055117560340022
 30
0.0
 40
0.90551181080315
 50
270.0
 51
0.0
  0
LINE
  5
787
  8
0
 10
31.2755906075715302
 20
16.3307086064276916
 30
0.0
 11
31.2755906075715302
 21
0.9055117560340022
 31
0.0
  0
ARC
  5
788
  8
0
 10
30.3700787967684391
 20
16.3307086064276916
 30
0.0
 40
0.90551181080315
 50
0.0
 51
90.0
  0
LINE
  5
789
  8
0
 10
0.0000000568313681
 20
16.3307086064276916
 30
0.0
 11
0.0000000568313681
 21
0.9055117560340022
 31
0.0
  0
INSERT
  5
78A
  8
0
  2
*U25
 10
0.0
 20
0.0
 30
0.0
  0
ENDBLK
  5
78E
  8
0
  0
BLOCK
  8
0
  2
*U17
 70
     1
 10
0.0
 20
0.0
 30
0.0
  3
*U17
  1

  0
TEXT
  5
89F
  8
0
 62
     0
 10
40.5190228507926733
 20
12.65312184275178
 30
0.0
 40
0.5
  1
17.0000 [431.80MM]
 50
90.0
  0
ENDBLK
  5
8A1
  8
0
  0
BLOCK
  8
0
  2
*U18
 70
     1
 10
0.0
 20
0.0
 30
0.0
  3
*U18
  1

  0
TEXT
  5
8A3
  8
0
 62
     0
 10
26.0730017841266495
 20
4.0868747755638237
 30
0.0
 40
0.5
  1
13.5039 [343.00MM]
  0
ENDBLK
  5
8A5
  8
0
  0
BLOCK
  8
0
  2
*U19
 70
     1
 10
0.0
 20
0.0
 30
0.0
  3
*U19
  1

  0
TEXT
  5
8A7
  8
0
 62
     0
 10
-4.8437349949036621
 20
26.3848755630697411
 30
0.0
 40
0.18
  1
R1.3780 [R35.00]
  0
ENDBLK
  5
8A9
  8
0
  0
BLOCK
  8
0
  2
*U20
 70
     1
 10
0.0
 20
0.0
 30
0.0
  3
*U20
  1

  0
TEXT
  5
8AB
  8
0
 62
     0
 10
7.2580411551895754
 20
4.2736145748017824
 30
0.0
 40
0.5
  1
22.1260 [562.00MM]
  0
ENDBLK
  5
8AD
  8
0
  0
BLOCK
  8
0
  2
*U21
 70
     1
 10
0.0
 20
0.0
 30
0.0
  3
*U21
  1

  0
TEXT
  5
8AF
  8
0
 62
     0
 10
14.59334299245997
 20
1.1545458946222631
 30
0.0
 40
0.5
  1
37.8110 [960.40MM]
  0
ENDBLK
  5
8B1
  8
0
  0
BLOCK
  8
0
  2
*U22
 70
     1
 10
0.0
 20
0.0
 30
0.0
  3
*U22
  1

  0
TEXT
  5
8B3
  8
0
 62
     0
 10
43.3573263259368034
 20
12.7364551760851299
 30
0.0
 40
0.5
  1
18.1811 [461.80MM]
 50
90.0
  0
ENDBLK
  5
8B5
  8
0
  0
BLOCK
  8
0
  2
*U23
 70
     1
 10
0.0
 20
0.0
 30
0.0
  3
*U23
  1

  0
TEXT
  5
8B7
  8
0
 62
     0
 10
17.6783429924599211
 20
30.28592069350535
 30
0.0
 40
0.18
  1
36.6299
  0
ENDBLK
  5
8B9
  8
0
  0
BLOCK
  8
0
  2
*U24
 70
     1
 10
0.0
 20
0.0
 30
0.0
  3
*U24
  1

  0
TEXT
  5
8BC
  8
0
 10
14.0424319562003994
 20
1.1907414651469761
 30
0.0
 40
0.5351151519415908
  1
TEM.PTX160-31
  0
ENDBLK
  5
8BE
  8
0
  0
BLOCK
  8
0
  2
*U25
 70
     1
 10
0.0
 20
0.0
 30
0.0
  3
*U25
  1

  0
TEXT
  5
8C0
  8
0
 10
14.0424319562003994
 20
1.1907414651469761
 30
0.0
 40
0.5351151519415908
  1
TEM.PTX160-31
  0
ENDBLK
  5
8C2
  8
0
  0
ENDSEC
  0
SECTION
  2
ENTITIES
  0
LINE
  5
304
  8
0
 10
-539.9706333864769476
 20
23.9073869346152996
 30
0.0
 11
-539.9706333864769476
 21
8.4821900842216102
 31
0.0
  0
ARC
  5
412
  8
0
 10
86.1763866986260467
 20
23.186737439761071
 30
0.0
 40
0.90551181080315
 50
0.0
 51
90.0
  0
LINE
  5
415
  8
0
 10
51.1212685903582766
 20
24.0922492505642296
 30
0.0
 11
86.1763866986260467
 21
24.0922492505642403
 31
0.0
  0
ARC
  5
416
  8
0
 10
51.1212685903582766
 20
23.186737439761071
 30
0.0
 40
0.90551181080315
 50
90.0
 51
180.0
  0
LINE
  5
417
  8
0
 10
50.2157567795551216
 20
23.186737439761071
 30
0.0
 11
50.2157567795551216
 21
7.7615405893673808
 31
0.0
  0
ARC
  5
418
  8
0
 10
51.1212685903582766
 20
7.7615405893673808
 30
0.0
 40
0.90551181080315
 50
180.0
 51
270.0
  0
LINE
  5
419
  8
0
 10
51.1212685903582766
 20
6.8560287785642311
 30
0.0
 11
86.1763866986260467
 21
6.8560287785642116
 31
0.0
  0
ARC
  5
41A
  8
0
 10
86.1763866986260467
 20
7.7615405893673808
 30
0.0
 40
0.90551181080315
 50
270.0
 51
0.0
  0
LINE
  5
41B
  8
0
 10
87.0818985094291236
 20
23.186737439761071
 30
0.0
 11
87.0818985094291236
 21
7.7615405893673808
 31
0.0
  0
VIEWPORT
  5
753
 67
     1
  8
0
 10
15.8513736682189705
 20
7.3187852221169178
 30
0.0
 40
60.0683960397610122
 41
36.8143061549654718
 68
     1
 69
     1
1001
ACAD
1000
MVIEW
1002
{
1070
    16
1010
0.0
1020
0.0
1030
0.0
1010
0.0
1020
0.0
1030
1.0
1040
0.0
1040
36.8143061549654718
1040
15.8513736682189705
1040
7.3187852221169178
1040
50.0
1040
0.0
1040
0.0
1070
     0
1070
  1000
1070
     1
1070
     1
1070
     0
1070
     0
1070
     0
1070
     0
1040
0.0
1040
0.0
1040
0.0
1040
0.5
1040
0.5
1040
0.5
1040
0.5
1070
     0
1002
{
1002
}
1002
}
  0
ARC
  5
7AB
 67
     1
  8
0
 10
-0.8213772569204209
 20
1.314620678268678
 30
0.0
 40
0.90551181080315
 50
180.0
 51
270.0
  0
ARC
  5
7AC
 67
     1
  8
0
 10
-0.8213772569204209
 20
16.7398175286623712
 30
0.0
 40
0.90551181080315
 50
90.0
 51
180.0
  0
LINE
  5
7AD
 67
     1
  8
0
 10
-0.8213772569204209
 20
17.6453293394655191
 30
0.0
 11
34.2337408513473633
 21
17.6453293394655404
 31
0.0
  0
LINE
  5
7AE
 67
     1
  8
0
 10
-0.8213772569204209
 20
0.4091088674655286
 30
0.0
 11
34.2337408513473633
 21
0.409108867465509
 31
0.0
  0
ARC
  5
7AF
 67
     1
  8
0
 10
34.2337408513473633
 20
1.314620678268678
 30
0.0
 40
0.90551181080315
 50
270.0
 51
0.0
  0
LINE
  5
7B0
 67
     1
  8
0
 10
35.1392526621504402
 20
16.7398175286623712
 30
0.0
 11
35.1392526621504402
 21
1.314620678268678
 31
0.0
  0
ARC
  5
7B1
 67
     1
  8
0
 10
34.2337408513473633
 20
16.7398175286623712
 30
0.0
 40
0.90551181080315
 50
0.0
 51
90.0
  0
LINE
  5
7B2
 67
     1
  8
0
 10
-1.7268890677235751
 20
16.7398175286623712
 30
0.0
 11
-1.7268890677235751
 21
1.314620678268678
 31
0.0
  0
ENDSEC
  0
EOF
