  0
SECTION
  2
HEADER
  9
$ACADVER
  1
AC1009
  9
$INSBASE
 10
0.0
 20
0.0
 30
0.0
  9
$EXTMIN
 10
4.4298706385654754
 20
3.9245910899767078
 30
-0.0015258207003583
  9
$EXTMAX
 10
23.55523685779799
 20
22.75721744419684
 30
0.0000000349246037
  9
$LIMMIN
 10
0.0
 20
0.0
  9
$LIMMAX
 10
12.0
 20
9.0
  9
$ORTHOMODE
 70
     0
  9
$REGENMODE
 70
     1
  9
$FILLMODE
 70
     1
  9
$QTEXTMODE
 70
     0
  9
$MIRRTEXT
 70
     0
  9
$DRAGMODE
 70
     2
  9
$LTSCALE
 40
1.0
  9
$OSMODE
 70
   191
  9
$ATTMODE
 70
     1
  9
$TEXTSIZE
 40
0.2
  9
$TRACEWID
 40
0.05
  9
$TEXTSTYLE
  7
STANDARD
  9
$CLAYER
  8
0
  9
$CELTYPE
  6
BYLAYER
  9
$CECOLOR
 62
   256
  9
$DIMSCALE
 40
1.0
  9
$DIMASZ
 40
0.18
  9
$DIMEXO
 40
0.0625
  9
$DIMDLI
 40
0.38
  9
$DIMRND
 40
0.0
  9
$DIMDLE
 40
0.0
  9
$DIMEXE
 40
0.18
  9
$DIMTP
 40
0.0
  9
$DIMTM
 40
0.0
  9
$DIMTXT
 40
0.18
  9
$DIMCEN
 40
0.09
  9
$DIMTSZ
 40
0.0
  9
$DIMTOL
 70
     0
  9
$DIMLIM
 70
     0
  9
$DIMTIH
 70
     1
  9
$DIMTOH
 70
     1
  9
$DIMSE1
 70
     0
  9
$DIMSE2
 70
     0
  9
$DIMTAD
 70
     0
  9
$DIMZIN
 70
     0
  9
$DIMBLK
  1

  9
$DIMASO
 70
     1
  9
$DIMSHO
 70
     1
  9
$DIMPOST
  1

  9
$DIMAPOST
  1

  9
$DIMALT
 70
     0
  9
$DIMALTD
 70
     2
  9
$DIMALTF
 40
25.399999999999999
  9
$DIMLFAC
 40
1.0
  9
$DIMTOFL
 70
     0
  9
$DIMTVP
 40
0.0
  9
$DIMTIX
 70
     0
  9
$DIMSOXD
 70
     0
  9
$DIMSAH
 70
     0
  9
$DIMBLK1
  1

  9
$DIMBLK2
  1

  9
$DIMSTYLE
  2
STANDARD
  9
$DIMCLRD
 70
     0
  9
$DIMCLRE
 70
     0
  9
$DIMCLRT
 70
     0
  9
$DIMTFAC
 40
1.0
  9
$DIMGAP
 40
0.09
  9
$LUNITS
 70
     2
  9
$LUPREC
 70
     4
  9
$SKETCHINC
 40
0.1
  9
$FILLETRAD
 40
0.0
  9
$AUNITS
 70
     0
  9
$AUPREC
 70
     0
  9
$MENU
  1
.
  9
$ELEVATION
 40
0.0
  9
$PELEVATION
 40
0.0
  9
$THICKNESS
 40
0.0
  9
$LIMCHECK
 70
     0
  9
$BLIPMODE
 70
     0
  9
$CHAMFERA
 40
0.0
  9
$CHAMFERB
 40
0.0
  9
$SKPOLY
 70
     0
  9
$TDCREATE
 40
2454369.5831271992
  9
$TDUPDATE
 40
2454369.583577523
  9
$TDINDWG
 40
0.0004512269
  9
$TDUSRTIMER
 40
0.0004512269
  9
$USRTIMER
 70
     1
  9
$ANGBASE
 50
0.0
  9
$ANGDIR
 70
     0
  9
$PDMODE
 70
     0
  9
$PDSIZE
 40
0.0
  9
$PLINEWID
 40
0.0
  9
$COORDS
 70
     1
  9
$SPLFRAME
 70
     0
  9
$SPLINETYPE
 70
     6
  9
$SPLINESEGS
 70
     8
  9
$ATTDIA
 70
     0
  9
$ATTREQ
 70
     1
  9
$HANDLING
 70
     1
  9
$HANDSEED
  5
78
  9
$SURFTAB1
 70
     6
  9
$SURFTAB2
 70
     6
  9
$SURFTYPE
 70
     6
  9
$SURFU
 70
     6
  9
$SURFV
 70
     6
  9
$UCSNAME
  2

  9
$UCSORG
 10
0.0
 20
0.0
 30
0.0
  9
$UCSXDIR
 10
1.0
 20
0.0
 30
0.0
  9
$UCSYDIR
 10
0.0
 20
1.0
 30
0.0
  9
$PUCSNAME
  2

  9
$PUCSORG
 10
0.0
 20
0.0
 30
0.0
  9
$PUCSXDIR
 10
1.0
 20
0.0
 30
0.0
  9
$PUCSYDIR
 10
0.0
 20
1.0
 30
0.0
  9
$USERI1
 70
     0
  9
$USERI2
 70
     0
  9
$USERI3
 70
     0
  9
$USERI4
 70
     0
  9
$USERI5
 70
     0
  9
$USERR1
 40
0.0
  9
$USERR2
 40
0.0
  9
$USERR3
 40
0.0
  9
$USERR4
 40
0.0
  9
$USERR5
 40
0.0
  9
$WORLDVIEW
 70
     1
  9
$SHADEDGE
 70
     3
  9
$SHADEDIF
 70
    70
  9
$TILEMODE
 70
     1
  9
$MAXACTVP
 70
    64
  9
$PLIMCHECK
 70
     0
  9
$PEXTMIN
 10
1.0000000000000000E+020
 20
1.0000000000000000E+020
 30
1.0000000000000000E+020
  9
$PEXTMAX
 10
-1.0000000000000000E+020
 20
-1.0000000000000000E+020
 30
-1.0000000000000000E+020
  9
$PLIMMIN
 10
0.0
 20
0.0
  9
$PLIMMAX
 10
12.0
 20
9.0
  9
$UNITMODE
 70
     0
  9
$VISRETAIN
 70
     1
  9
$PLINEGEN
 70
     0
  9
$PSLTSCALE
 70
     1
  0
ENDSEC
  0
SECTION
  2
TABLES
  0
TABLE
  2
VPORT
 70
     3
  0
VPORT
  2
*ACTIVE
 70
     0
 10
0.0
 20
0.0
 11
1.0
 21
1.0
 12
13.992553748181731
 22
13.340904267086771
 13
0.0
 23
0.0
 14
0.5
 24
0.5
 15
0.5
 25
0.5
 16
0.0
 26
0.0
 36
1.0
 17
0.0
 27
0.0
 37
0.0
 40
18.972819602514569
 41
1.88695652173913
 42
50.0
 43
0.0
 44
0.0
 50
0.0
 51
0.0
 71
     0
 72
  1000
 73
     1
 74
     3
 75
     0
 76
     0
 77
     0
 78
     0
  0
ENDTAB
  0
TABLE
  2
LTYPE
 70
     1
  0
LTYPE
  2
CONTINUOUS
 70
     0
  3
Solid line
 72
    65
 73
     0
 40
0.0
  0
ENDTAB
  0
TABLE
  2
LAYER
 70
     2
  0
LAYER
  2
0
 70
     0
 62
     7
  6
CONTINUOUS
  0
LAYER
  2
TEMPLATE
 70
     0
 62
     6
  6
CONTINUOUS
  0
ENDTAB
  0
TABLE
  2
STYLE
 70
     2
  0
STYLE
  2
STANDARD
 70
     0
 40
0.0
 41
1.0
 50
0.0
 71
     0
 42
0.2
  3
txt
  4

  0
STYLE
  2
SX
 70
     0
 40
1.0
 41
1.0
 50
0.0
 71
     0
 42
1.0
  3
SIMPLEX.SHX
  4

  0
ENDTAB
  0
TABLE
  2
VIEW
 70
     0
  0
ENDTAB
  0
TABLE
  2
UCS
 70
     0
  0
ENDTAB
  0
TABLE
  2
APPID
 70
     1
  0
APPID
  2
ACAD
 70
     0
  0
ENDTAB
  0
TABLE
  2
DIMSTYLE
 70
     2
  0
DIMSTYLE
  2
STANDARD
 70
     0
  3

  4

  5

  6

  7

 40
1.0
 41
0.18
 42
0.0625
 43
0.38
 44
0.18
 45
0.0
 46
0.0
 47
0.0
 48
0.0
140
0.18
141
0.09
142
0.0
143
25.399999999999999
144
1.0
145
0.0
146
1.0
147
0.09
 71
     0
 72
     0
 73
     1
 74
     1
 75
     0
 76
     0
 77
     0
 78
     0
170
     0
171
     2
172
     0
173
     0
174
     0
175
     0
176
     0
177
     0
178
     0
  0
DIMSTYLE
  2
CATALOG
 70
     0
  3
" 
  4
cm
  5

  6
DOT
  7
DOT
 40
2.0
 41
0.25
 42
0.25
 43
0.375
 44
0.25
 45
0.0
 46
0.0
 47
0.0
 48
0.0
140
0.375
141
0.0
142
0.0
143
2.54
144
1.0
145
0.0
146
1.0
147
0.25
 71
     0
 72
     0
 73
     0
 74
     0
 75
     0
 76
     0
 77
     0
 78
     0
170
     1
171
     0
172
     0
173
     1
174
     0
175
     0
176
   256
177
   256
178
   256
  0
ENDTAB
  0
ENDSEC
  0
SECTION
  2
BLOCKS
  0
BLOCK
  8
0
  2
$MODEL_SPACE
 70
     0
 10
0.0
 20
0.0
 30
0.0
  3
$MODEL_SPACE
  1

  0
ENDBLK
  5
25
  8
0
  0
BLOCK
 67
     1
  8
0
  2
$PAPER_SPACE
 70
     0
 10
0.0
 20
0.0
 30
0.0
  3
$PAPER_SPACE
  1

  0
ENDBLK
  5
21
 67
     1
  8
0
  0
BLOCK
  8
0
  2
_DOT
 70
     0
 10
0.0
 20
0.0
 30
0.0
  3
_DOT
  1

  0
POLYLINE
  5
31
  8
0
  6
BYBLOCK
 62
     0
 66
     1
 10
0.0
 20
0.0
 30
0.0
 70
     1
 40
0.5
 41
0.5
  0
VERTEX
  5
75
  8
0
  6
BYBLOCK
 62
     0
 10
-0.25
 20
0.0
 30
0.0
 42
1.0
  0
VERTEX
  5
76
  8
0
  6
BYBLOCK
 62
     0
 10
0.25
 20
0.0
 30
0.0
 42
1.0
  0
SEQEND
  5
77
  8
0
  6
BYBLOCK
 62
     0
  0
LINE
  5
32
  8
0
  6
BYBLOCK
 62
     0
 10
-0.5
 20
0.0
 30
0.0
 11
-1.0
 21
0.0
 31
0.0
  0
ENDBLK
  5
33
  8
0
  0
ENDSEC
  0
SECTION
  2
ENTITIES
  0
CIRCLE
  5
4F
  8
TEMPLATE
 10
10.095596829567519
 20
22.006855029150572
 30
0.0
 40
0.75
  0
CIRCLE
  5
50
  8
TEMPLATE
 10
14.095596829567519
 20
22.006855029150572
 30
0.0
 40
0.75
  0
CIRCLE
  5
51
  8
TEMPLATE
 10
18.095596829567519
 20
22.006855029150572
 30
0.0
 40
0.75
  0
LINE
  5
52
  8
TEMPLATE
  6
CONTINUOUS
 10
18.809480776996491
 20
20.799938021887829
 30
0.0
 11
9.1800028984838917
 21
20.799938021887829
 31
0.0
  0
ARC
  5
53
  8
TEMPLATE
  6
CONTINUOUS
 10
20.80500289848392
 20
18.049938021887819
 30
0.0
 40
2.75
 50
0.0
 51
90.0
  0
LINE
  5
54
  8
TEMPLATE
  6
CONTINUOUS
 10
23.55500289848392
 20
18.049938021887819
 30
0.0
 11
23.55500289848392
 21
14.756855029150559
 31
0.0
  0
LINE
  5
55
  8
TEMPLATE
  6
CONTINUOUS
 10
23.55500289848392
 20
11.756855029150559
 30
0.0
 11
23.55500289848392
 21
7.23743802188784
 31
0.0
  0
LINE
  5
56
  8
TEMPLATE
  6
CONTINUOUS
 10
20.24250289848392
 20
3.92493802188784
 30
0.0
 11
15.595596829567519
 21
3.92493802188784
 31
0.0
  0
LINE
  5
57
  8
TEMPLATE
  6
CONTINUOUS
 10
12.59559682956753
 20
3.92493802188784
 30
0.0
 11
7.7425028984839201
 21
3.92493802188784
 31
0.0
  0
LINE
  5
58
  8
TEMPLATE
  6
CONTINUOUS
 10
4.4300028984838908
 20
18.049938021887829
 30
0.0
 11
4.4300028984839201
 21
14.756855029150559
 31
0.0
  0
LINE
  5
59
  8
TEMPLATE
  6
CONTINUOUS
 10
4.4300028984839201
 20
11.756855029150559
 30
0.0
 11
4.4300028984839201
 21
7.23743802188784
 31
0.0
  0
ARC
  5
5A
  8
TEMPLATE
  6
CONTINUOUS
 10
7.7425028984839201
 20
7.23743802188784
 30
0.0
 40
3.3125
 50
180.0
 51
270.0
  0
ARC
  5
5B
  8
TEMPLATE
  6
CONTINUOUS
 10
20.242502898483892
 20
7.2374380218878178
 30
0.0
 40
3.3125
 50
270.0
 51
0.0
  0
ARC
  5
5C
  8
TEMPLATE
  6
CONTINUOUS
 10
7.1800028984838908
 20
18.049938021887829
 30
0.0
 40
2.75
 50
90.0
 51
180.0
  0
LINE
  5
5D
  8
TEMPLATE
  6
CONTINUOUS
 10
7.1800028984838908
 20
20.799938021887829
 30
0.0
 11
9.1800028984838917
 21
20.799938021887829
 31
0.0
  0
LINE
  5
5E
  8
TEMPLATE
  6
CONTINUOUS
 10
18.809480776996491
 20
20.799938021887829
 30
0.0
 11
20.80500289848392
 21
20.799938021887819
 31
0.0
  0
LINE
  5
5F
  8
TEMPLATE
  6
CONTINUOUS
 10
4.4300028984839201
 20
11.756855029150559
 30
0.0
 11
4.4300028984839201
 21
14.756855029150559
 31
0.0
  0
LINE
  5
60
  8
TEMPLATE
  6
CONTINUOUS
 10
23.55500289848392
 20
11.756855029150559
 30
0.0
 11
23.55500289848392
 21
14.756855029150559
 31
0.0
  0
LINE
  5
61
  8
TEMPLATE
  6
CONTINUOUS
 10
12.59559682956753
 20
3.92493802188784
 30
0.0
 11
15.595596829567519
 21
3.92493802188784
 31
0.0
  0
CIRCLE
  5
62
  8
TEMPLATE
 10
22.095596829567519
 20
22.006855029150572
 30
0.0
 40
0.75
  0
ENDSEC
  0
EOF
