  0
SECTION
  2
HEADER
  9
$ACADVER
  1
AC1009
  9
$INSBASE
 10
0.0
 20
0.0
 30
0.0
  9
$EXTMIN
 10
17.9895588390635908
 20
2.057508588628195
 30
0.0
  9
$EXTMAX
 10
33.1145588390635908
 20
17.1825085886281883
 30
0.0
  9
$LIMMIN
 10
0.0
 20
0.0
  9
$LIMMAX
 10
12.0
 20
9.0
  9
$ORTHOMODE
 70
     0
  9
$REGENMODE
 70
     1
  9
$FILLMODE
 70
     1
  9
$QTEXTMODE
 70
     0
  9
$MIRRTEXT
 70
     0
  9
$DRAGMODE
 70
     2
  9
$LTSCALE
 40
1.0
  9
$OSMODE
 70
   679
  9
$ATTMODE
 70
     1
  9
$TEXTSIZE
 40
0.2
  9
$TRACEWID
 40
0.05
  9
$TEXTSTYLE
  7
STANDARD
  9
$CLAYER
  8
0
  9
$CELTYPE
  6
BYLAYER
  9
$CECOLOR
 62
   256
  9
$DIMSCALE
 40
1.0
  9
$DIMASZ
 40
0.18
  9
$DIMEXO
 40
0.0625
  9
$DIMDLI
 40
0.38
  9
$DIMRND
 40
0.0
  9
$DIMDLE
 40
0.0
  9
$DIMEXE
 40
0.18
  9
$DIMTP
 40
0.0
  9
$DIMTM
 40
0.0
  9
$DIMTXT
 40
0.18
  9
$DIMCEN
 40
0.09
  9
$DIMTSZ
 40
0.0
  9
$DIMTOL
 70
     0
  9
$DIMLIM
 70
     0
  9
$DIMTIH
 70
     1
  9
$DIMTOH
 70
     1
  9
$DIMSE1
 70
     0
  9
$DIMSE2
 70
     0
  9
$DIMTAD
 70
     0
  9
$DIMZIN
 70
     0
  9
$DIMBLK
  1

  9
$DIMASO
 70
     1
  9
$DIMSHO
 70
     1
  9
$DIMPOST
  1

  9
$DIMAPOST
  1

  9
$DIMALT
 70
     0
  9
$DIMALTD
 70
     2
  9
$DIMALTF
 40
25.3999999999999986
  9
$DIMLFAC
 40
1.0
  9
$DIMTOFL
 70
     0
  9
$DIMTVP
 40
0.0
  9
$DIMTIX
 70
     0
  9
$DIMSOXD
 70
     0
  9
$DIMSAH
 70
     0
  9
$DIMBLK1
  1

  9
$DIMBLK2
  1

  9
$DIMSTYLE
  2
STANDARD
  9
$DIMCLRD
 70
     0
  9
$DIMCLRE
 70
     0
  9
$DIMCLRT
 70
     0
  9
$DIMTFAC
 40
1.0
  9
$DIMGAP
 40
0.09
  9
$LUNITS
 70
     2
  9
$LUPREC
 70
     4
  9
$SKETCHINC
 40
0.1
  9
$FILLETRAD
 40
0.0
  9
$AUNITS
 70
     0
  9
$AUPREC
 70
     0
  9
$MENU
  1
.
  9
$ELEVATION
 40
0.0
  9
$PELEVATION
 40
0.0
  9
$THICKNESS
 40
0.0
  9
$LIMCHECK
 70
     0
  9
$BLIPMODE
 70
     0
  9
$CHAMFERA
 40
0.0
  9
$CHAMFERB
 40
0.0
  9
$SKPOLY
 70
     0
  9
$TDCREATE
 40
2459034.625138889066875
  9
$TDUPDATE
 40
2459034.6270370371639729
  9
$TDINDWG
 40
0.0018981481
  9
$TDUSRTIMER
 40
0.0018981481
  9
$USRTIMER
 70
     1
  9
$ANGBASE
 50
0.0
  9
$ANGDIR
 70
     0
  9
$PDMODE
 70
     0
  9
$PDSIZE
 40
0.0
  9
$PLINEWID
 40
0.0
  9
$COORDS
 70
     1
  9
$SPLFRAME
 70
     0
  9
$SPLINETYPE
 70
     6
  9
$SPLINESEGS
 70
     8
  9
$ATTDIA
 70
     1
  9
$ATTREQ
 70
     1
  9
$HANDLING
 70
     1
  9
$HANDSEED
  5
18C
  9
$SURFTAB1
 70
     6
  9
$SURFTAB2
 70
     6
  9
$SURFTYPE
 70
     6
  9
$SURFU
 70
     6
  9
$SURFV
 70
     6
  9
$UCSNAME
  2

  9
$UCSORG
 10
0.0
 20
0.0
 30
0.0
  9
$UCSXDIR
 10
1.0
 20
0.0
 30
0.0
  9
$UCSYDIR
 10
0.0
 20
1.0
 30
0.0
  9
$PUCSNAME
  2

  9
$PUCSORG
 10
0.0
 20
0.0
 30
0.0
  9
$PUCSXDIR
 10
1.0
 20
0.0
 30
0.0
  9
$PUCSYDIR
 10
0.0
 20
1.0
 30
0.0
  9
$USERI1
 70
     0
  9
$USERI2
 70
     0
  9
$USERI3
 70
     0
  9
$USERI4
 70
     0
  9
$USERI5
 70
     0
  9
$USERR1
 40
0.0
  9
$USERR2
 40
0.0
  9
$USERR3
 40
0.0
  9
$USERR4
 40
0.0
  9
$USERR5
 40
0.0
  9
$WORLDVIEW
 70
     1
  9
$SHADEDGE
 70
     3
  9
$SHADEDIF
 70
    70
  9
$TILEMODE
 70
     1
  9
$MAXACTVP
 70
    64
  9
$PLIMCHECK
 70
     0
  9
$PEXTMIN
 10
-12.2655812265031692
 20
22.2872369131048309
 30
0.0
  9
$PEXTMAX
 10
2.8594187734968268
 20
37.4122369131048416
 30
0.0
  9
$PLIMMIN
 10
0.0
 20
0.0
  9
$PLIMMAX
 10
12.0
 20
9.0
  9
$UNITMODE
 70
     0
  9
$VISRETAIN
 70
     1
  9
$PLINEGEN
 70
     0
  9
$PSLTSCALE
 70
     1
  0
ENDSEC
  0
SECTION
  2
TABLES
  0
TABLE
  2
VPORT
 70
     1
  0
VPORT
  2
*ACTIVE
 70
     0
 10
0.0
 20
0.0
 11
1.0
 21
1.0
 12
28.2249501355100705
 22
8.9853926656705454
 13
0.0
 23
0.0
 14
0.5
 24
0.5
 15
0.5
 25
0.5
 16
0.0
 26
0.0
 36
1.0
 17
0.0
 27
0.0
 37
0.0
 40
39.2365059844986774
 41
2.3744292237442921
 42
50.0
 43
0.0
 44
0.0
 50
0.0
 51
0.0
 71
     0
 72
  1000
 73
     1
 74
     3
 75
     0
 76
     0
 77
     0
 78
     0
  0
ENDTAB
  0
TABLE
  2
LTYPE
 70
     2
  0
LTYPE
  2
CONTINUOUS
 70
     0
  3
Solid line
 72
    65
 73
     0
 40
0.0
  0
ENDTAB
  0
TABLE
  2
LAYER
 70
     4
  0
LAYER
  2
0
 70
     0
 62
     7
  6
CONTINUOUS
  0
LAYER
  2
DIM
 70
     0
 62
     1
  6
CONTINUOUS
  0
LAYER
  2
TEMPLATE
 70
     0
 62
     2
  6
CONTINUOUS
  0
LAYER
  2
DEFPOINTS
 70
     0
 62
     7
  6
CONTINUOUS
  0
ENDTAB
  0
TABLE
  2
STYLE
 70
     4
  0
STYLE
  2
STANDARD
 70
     0
 40
0.0
 41
1.0
 50
0.0
 71
     0
 42
0.2
  3
txt
  4

  0
STYLE
  2
ANNOTATIVE
 70
     0
 40
0.0
 41
1.0
 50
0.0
 71
     0
 42
0.2
  3
txt
  4

  0
STYLE
  2
MMISOCP
 70
     0
 40
0.0
 41
1.0
 50
0.0
 71
     0
 42
2.5
  3
isocp.shx
  4

  0
STYLE
  2
SX
 70
     0
 40
1.0
 41
1.0
 50
0.0
 71
     0
 42
1.0
  3
simplex.shx
  4

  0
ENDTAB
  0
TABLE
  2
VIEW
 70
     3
  0
ENDTAB
  0
TABLE
  2
UCS
 70
     0
  0
ENDTAB
  0
TABLE
  2
APPID
 70
     8
  0
APPID
  2
ACAD
 70
     0
  0
APPID
  2
ACADANNOTATIVE
 70
     0
  0
APPID
  2
ACAD_NAV_VCDISPLAY
 70
     0
  0
APPID
  2
ACAD_PSEXT
 70
     0
  0
APPID
  2
ACAD_DSTYLE_DIMJAG
 70
     0
  0
APPID
  2
ACAD_DSTYLE_DIMTALN
 70
     0
  0
APPID
  2
ACAD_EXEMPT_FROM_CAD_STANDARDS
 70
     0
  0
APPID
  2
ACAD_MLEADERVER
 70
     0
  0
ENDTAB
  0
TABLE
  2
DIMSTYLE
 70
     7
  0
DIMSTYLE
  2
STANDARD
 70
     0
  3

  4

  5

  6

  7

 40
1.0
 41
0.18
 42
0.0625
 43
0.38
 44
0.18
 45
0.0
 46
0.0
 47
0.0
 48
0.0
140
0.18
141
0.09
142
0.0
143
25.3999999999999986
144
1.0
145
0.0
146
1.0
147
0.09
 71
     0
 72
     0
 73
     1
 74
     1
 75
     0
 76
     0
 77
     0
 78
     0
170
     0
171
     2
172
     0
173
     0
174
     0
175
     0
176
     0
177
     0
178
     0
  0
DIMSTYLE
  2
ANNOTATIVE
 70
     0
  3

  4

  5

  6

  7

 40
1.0
 41
0.18
 42
0.0625
 43
0.38
 44
0.18
 45
0.0
 46
0.0
 47
0.0
 48
0.0
140
0.18
141
0.09
142
0.0
143
25.3999999999999986
144
1.0
145
0.0
146
1.0
147
0.09
 71
     0
 72
     0
 73
     1
 74
     1
 75
     0
 76
     0
 77
     0
 78
     0
170
     0
171
     2
172
     0
173
     0
174
     0
175
     0
176
     0
177
     0
178
     0
  0
DIMSTYLE
  2
ISO-25
 70
     0
  3

  4

  5

  6

  7

 40
1.0
 41
2.5
 42
0.625
 43
3.75
 44
1.25
 45
0.0
 46
0.0
 47
0.0
 48
0.0
140
2.5
141
2.5
142
0.0
143
0.03937007874016
144
1.0
145
0.0
146
1.0
147
0.625
 71
     0
 72
     0
 73
     0
 74
     0
 75
     0
 76
     0
 77
     1
 78
     8
170
     0
171
     3
172
     1
173
     0
174
     0
175
     0
176
     0
177
     0
178
     0
  0
DIMSTYLE
  2
MM_KBT
 70
     0
  3

  4

  5

  6
SMALL
  7
CLOSEDBLANK
 40
0.0
 41
3.5
 42
0.0
 43
20.0
 44
2.0
 45
0.0
 46
0.0
 47
0.0
 48
0.0
140
3.5
141
0.0
142
0.0
143
0.0394
144
1.0
145
0.0
146
1.0
147
0.625
 71
     0
 72
     0
 73
     0
 74
     0
 75
     0
 76
     1
 77
     2
 78
     8
170
     0
171
     2
172
     1
173
     1
174
     0
175
     0
176
     0
177
     0
178
     5
  0
DIMSTYLE
  2
MMM
 70
     0
  3

  4

  5

  6

  7

 40
0.0
 41
2.5
 42
2.0
 43
10.0
 44
2.0
 45
0.0
 46
0.0
 47
0.0
 48
0.0
140
3.5
141
0.0
142
0.0
143
0.0394
144
1.0
145
0.0
146
1.0
147
0.625
 71
     0
 72
     0
 73
     0
 74
     0
 75
     0
 76
     0
 77
     1
 78
     8
170
     0
171
     2
172
     1
173
     0
174
     0
175
     0
176
     3
177
     3
178
     2
  0
DIMSTYLE
  2
AM_ISO
 70
     0
  3

  4
"
  5

  6

  7

 40
1.0
 41
2.5
 42
1.0
 43
10.0
 44
1.0
 45
0.0
 46
0.0
 47
0.1
 48
0.1
140
3.5
141
0.0
142
0.0
143
0.0393701
144
1.0
145
0.0
146
0.71
147
1.5
 71
     0
 72
     0
 73
     0
 74
     0
 75
     0
 76
     0
 77
     1
 78
     8
170
     0
171
     2
172
     1
173
     0
174
     0
175
     0
176
   256
177
   256
178
     2
  0
DIMSTYLE
  2
KINDRED
 70
     0
  3

  4

  5

  6

  7

 40
2.0
 41
0.25
 42
0.25
 43
0.375
 44
0.25
 45
0.0
 46
0.0
 47
0.0
 48
0.0
140
1.0
141
0.25
142
0.0
143
25.3999999999999986
144
1.0
145
0.0
146
1.0
147
0.25
 71
     0
 72
     0
 73
     1
 74
     1
 75
     0
 76
     0
 77
     0
 78
     0
170
     0
171
     2
172
     0
173
     0
174
     0
175
     0
176
     1
177
     1
178
     1
  0
ENDTAB
  0
ENDSEC
  0
SECTION
  2
BLOCKS
  0
BLOCK
  8
0
  2
$MODEL_SPACE
 70
     0
 10
0.0
 20
0.0
 30
0.0
  3
$MODEL_SPACE
  1

  0
ENDBLK
  5
72
  8
0
  0
BLOCK
 67
     1
  8
0
  2
$PAPER_SPACE
 70
     0
 10
0.0
 20
0.0
 30
0.0
  3
$PAPER_SPACE
  1

  0
ENDBLK
  5
6E
 67
     1
  8
0
  0
BLOCK
  8
0
  2
_CLOSEDBLANK
 70
     0
 10
0.0
 20
0.0
 30
0.0
  3
_CLOSEDBLANK
  1

  0
LINE
  5
7E
  8
0
  6
BYBLOCK
 62
     0
 10
-1.0
 20
0.1666666666666666
 30
0.0
 11
0.0
 21
0.0
 31
0.0
  0
LINE
  5
7F
  8
0
  6
BYBLOCK
 62
     0
 10
0.0
 20
0.0
 30
0.0
 11
-1.0
 21
-0.1666666666666666
 31
0.0
  0
LINE
  5
80
  8
0
  6
BYBLOCK
 62
     0
 10
-1.0
 20
0.1666666666666666
 30
0.0
 11
-1.0
 21
-0.1666666666666666
 31
0.0
  0
ENDBLK
  5
81
  8
0
  0
BLOCK
  8
0
  2
_SMALL
 70
     0
 10
0.0
 20
0.0
 30
0.0
  3
_SMALL
  1

  0
CIRCLE
  5
84
  8
0
 62
     0
 10
0.0
 20
0.0
 30
0.0
 40
0.25
  0
ENDBLK
  5
85
  8
0
  0
BLOCK
  8
0
  2
*D4
 70
     1
 10
0.0
 20
0.0
 30
0.0
  3
*D4
  1

  0
LINE
  5
BF
  8
0
 62
     0
 10
17.9895588390635908
 20
5.53633481226285
 30
0.0
 11
17.9895588390635908
 21
6.6040099199829783
 31
0.0
  0
LINE
  5
C0
  8
0
 62
     0
 10
33.1145588390635908
 20
5.53633481226285
 30
0.0
 11
33.1145588390635908
 21
6.6040099199829783
 31
0.0
  0
LINE
  5
C1
  8
0
 62
     0
 10
18.1695588390635905
 20
6.4240099199829777
 30
0.0
 11
24.9970588390635911
 21
6.4240099199829777
 31
0.0
  0
LINE
  5
C2
  8
0
 62
     0
 10
32.9345588390635911
 20
6.4240099199829777
 30
0.0
 11
26.1070588390635905
 21
6.4240099199829777
 31
0.0
  0
SOLID
  5
C3
  8
0
 62
     0
 10
18.1695588390635905
 20
6.4540099199829779
 30
0.0
 11
18.1695588390635905
 21
6.3940099199829783
 31
0.0
 12
17.9895588390635908
 22
6.4240099199829777
 32
0.0
 13
17.9895588390635908
 23
6.4240099199829777
 33
0.0
  0
SOLID
  5
C4
  8
0
 62
     0
 10
32.9345588390635911
 20
6.4540099199829779
 30
0.0
 11
32.9345588390635911
 21
6.3940099199829783
 31
0.0
 12
33.1145588390635908
 22
6.4240099199829777
 32
0.0
 13
33.1145588390635908
 23
6.4240099199829777
 33
0.0
  0
INSERT
  5
C5
  8
0
  2
*U7
 10
0.0
 20
0.0
 30
0.0
  0
POINT
  5
C6
  8
DEFPOINTS
 62
     0
 10
17.9895588390635908
 20
5.47383481226285
 30
0.0
  0
POINT
  5
C7
  8
DEFPOINTS
 62
     0
 10
33.1145588390635908
 20
5.47383481226285
 30
0.0
  0
POINT
  5
C8
  8
DEFPOINTS
 62
     0
 10
33.1145588390635908
 20
6.4240099199829777
 30
0.0
  0
ENDBLK
  5
B3
  8
0
  0
BLOCK
  8
0
  2
*D5
 70
     1
 10
0.0
 20
0.0
 30
0.0
  3
*D5
  1

  0
LINE
  5
D9
  8
0
 62
     0
 10
26.8778760300223887
 20
17.182508588628199
 30
0.0
 11
26.7603760300223783
 21
17.182508588628199
 31
0.0
  0
LINE
  5
DA
  8
0
 62
     0
 10
26.8778760300223887
 20
2.0575085886281959
 30
0.0
 11
26.7603760300223783
 21
2.0575085886281959
 31
0.0
  0
LINE
  5
DB
  8
0
 62
     0
 10
26.9403760300223993
 20
17.0025085886281992
 30
0.0
 11
26.9403760300223993
 21
9.8000085886281987
 31
0.0
  0
LINE
  5
DC
  8
0
 62
     0
 10
26.94037603002241
 20
2.237508588628196
 30
0.0
 11
26.9403760300223993
 21
9.4400085886281992
 31
0.0
  0
SOLID
  5
DD
  8
0
 62
     0
 10
26.9103760300224017
 20
17.0025085886281992
 30
0.0
 11
26.9703760300224005
 21
17.0025085886281992
 31
0.0
 12
26.9403760300223993
 22
17.182508588628199
 32
0.0
 13
26.9403760300223993
 23
17.182508588628199
 33
0.0
  0
SOLID
  5
DE
  8
0
 62
     0
 10
26.9103760300224089
 20
2.237508588628196
 30
0.0
 11
26.9703760300224111
 21
2.237508588628196
 31
0.0
 12
26.94037603002241
 22
2.0575085886281959
 32
0.0
 13
26.94037603002241
 23
2.0575085886281959
 33
0.0
  0
INSERT
  5
DF
  8
0
  2
*U8
 10
0.0
 20
0.0
 30
0.0
  0
POINT
  5
E0
  8
DEFPOINTS
 62
     0
 10
26.9403760300223887
 20
17.182508588628199
 30
0.0
  0
POINT
  5
E1
  8
DEFPOINTS
 62
     0
 10
26.9403760300223887
 20
2.0575085886281959
 30
0.0
  0
POINT
  5
E2
  8
DEFPOINTS
 62
     0
 10
26.94037603002241
 20
2.0575085886281959
 30
0.0
  0
ENDBLK
  5
CD
  8
0
  0
BLOCK
  8
0
  2
*U7
 70
     1
 10
0.0
 20
0.0
 30
0.0
  3
*U7
  1

  0
TEXT
  5
183
  8
0
 62
     0
 10
25.0870588390635909
 20
6.3340099199829778
 30
0.0
 40
0.18
  1
15.1250
  0
ENDBLK
  5
185
  8
0
  0
BLOCK
  8
0
  2
*U8
 70
     1
 10
0.0
 20
0.0
 30
0.0
  3
*U8
  1

  0
TEXT
  5
187
  8
0
 62
     0
 10
26.4753760300223995
 20
9.5300085886281902
 30
0.0
 40
0.18
  1
15.1250
  0
ENDBLK
  5
189
  8
0
  0
ENDSEC
  0
SECTION
  2
ENTITIES
  0
ARC
  5
A5
  8
0
 10
20.4895588390635908
 20
14.6825085886281901
 30
0.0
 40
2.5
 50
90.0
 51
180.0
  0
LINE
  5
A6
  8
0
 10
30.6145588390635908
 20
17.1825085886281883
 30
0.0
 11
20.4895588390635908
 21
17.1825085886281883
 31
0.0
  0
LINE
  5
A7
  8
0
 10
17.9895588390635908
 20
14.6825085886281901
 30
0.0
 11
17.9895588390635908
 21
4.5575085886281954
 31
0.0
  0
LINE
  5
A8
  8
0
 10
33.1145588390635908
 20
14.6825085886281901
 30
0.0
 11
33.1145588390635908
 21
4.5575085886281954
 31
0.0
  0
LINE
  5
A9
  8
0
 10
30.6145588390635908
 20
2.057508588628195
 30
0.0
 11
20.4895588390635908
 21
2.057508588628195
 31
0.0
  0
ARC
  5
AA
  8
0
 10
30.6145588390635908
 20
14.6825085886281901
 30
0.0
 40
2.5
 50
0.0
 51
90.0
  0
ARC
  5
AB
  8
0
 10
20.4895588390635908
 20
4.5575085886281954
 30
0.0
 40
2.5
 50
180.0
 51
270.0
  0
ARC
  5
AC
  8
0
 10
30.6145588390635908
 20
4.5575085886281954
 30
0.0
 40
2.5
 50
270.0
 51
0.0
  0
VIEWPORT
  5
ED
 67
     1
  8
0
 10
19.1757821694340294
 20
42.121437074933759
 30
0.0
 40
358.2479415714270203
 41
150.8774984695047863
 68
     1
 69
     1
1001
ACAD
1000
MVIEW
1002
{
1070
    16
1010
0.0
1020
0.0
1030
0.0
1010
0.0
1020
0.0
1030
1.0
1040
0.0
1040
150.8774984695047863
1040
19.1757821694340294
1040
42.121437074933759
1040
50.0
1040
0.0
1040
0.0
1070
     0
1070
  1000
1070
     1
1070
     1
1070
     0
1070
     0
1070
     0
1070
     0
1040
0.0
1040
0.0
1040
0.0
1040
0.5
1040
0.5
1040
0.5
1040
0.5
1070
     0
1002
{
1002
}
1002
}
  0
ARC
  5
100
 67
     1
  8
0
 10
-9.7655812265031727
 20
34.9122369131048416
 30
0.0
 40
2.5
 50
90.0
 51
180.0
  0
LINE
  5
101
 67
     1
  8
0
 10
0.3594187734968273
 20
37.4122369131048416
 30
0.0
 11
-9.7655812265031727
 21
37.4122369131048416
 31
0.0
  0
LINE
  5
102
 67
     1
  8
0
 10
-12.2655812265031692
 20
34.9122369131048416
 30
0.0
 11
-12.2655812265031692
 21
24.7872369131048309
 31
0.0
  0
LINE
  5
103
 67
     1
  8
0
 10
2.8594187734968268
 20
34.9122369131048416
 30
0.0
 11
2.8594187734968268
 21
24.7872369131048309
 31
0.0
  0
LINE
  5
104
 67
     1
  8
0
 10
0.3594187734968273
 20
22.2872369131048309
 30
0.0
 11
-9.7655812265031727
 21
22.2872369131048309
 31
0.0
  0
ARC
  5
105
 67
     1
  8
0
 10
0.3594187734968273
 20
34.9122369131048416
 30
0.0
 40
2.5
 50
0.0
 51
90.0
  0
ARC
  5
106
 67
     1
  8
0
 10
-9.7655812265031727
 20
24.7872369131048309
 30
0.0
 40
2.5
 50
180.0
 51
270.0
  0
ARC
  5
107
 67
     1
  8
0
 10
0.3594187734968273
 20
24.7872369131048309
 30
0.0
 40
2.5
 50
270.0
 51
0.0
  0
ENDSEC
  0
EOF
