  0
SECTION
  2
HEADER
  9
$ACADVER
  1
AC1009
  9
$INSBASE
 10
0.0
 20
0.0
 30
0.0
  9
$EXTMIN
 10
5.6623869827800668
 20
1.32797215385246
 30
0.0
  9
$EXTMAX
 10
18.41238698278007
 20
11.702972153852469
 30
0.0
  9
$LIMMIN
 10
0.0
 20
0.0
  9
$LIMMAX
 10
12.0
 20
9.0
  9
$ORTHOMODE
 70
     0
  9
$REGENMODE
 70
     1
  9
$FILLMODE
 70
     1
  9
$QTEXTMODE
 70
     0
  9
$MIRRTEXT
 70
     0
  9
$DRAGMODE
 70
     2
  9
$LTSCALE
 40
1.0
  9
$OSMODE
 70
  2751
  9
$ATTMODE
 70
     1
  9
$TEXTSIZE
 40
0.2
  9
$TRACEWID
 40
0.05
  9
$TEXTSTYLE
  7
STANDARD
  9
$CLAYER
  8
0
  9
$CELTYPE
  6
BYLAYER
  9
$CECOLOR
 62
   256
  9
$DIMSCALE
 40
1.0
  9
$DIMASZ
 40
0.18
  9
$DIMEXO
 40
0.0625
  9
$DIMDLI
 40
0.38
  9
$DIMRND
 40
0.0
  9
$DIMDLE
 40
0.0
  9
$DIMEXE
 40
0.18
  9
$DIMTP
 40
0.0
  9
$DIMTM
 40
0.0
  9
$DIMTXT
 40
0.18
  9
$DIMCEN
 40
0.09
  9
$DIMTSZ
 40
0.0
  9
$DIMTOL
 70
     0
  9
$DIMLIM
 70
     0
  9
$DIMTIH
 70
     1
  9
$DIMTOH
 70
     1
  9
$DIMSE1
 70
     0
  9
$DIMSE2
 70
     0
  9
$DIMTAD
 70
     0
  9
$DIMZIN
 70
     0
  9
$DIMBLK
  1

  9
$DIMASO
 70
     1
  9
$DIMSHO
 70
     1
  9
$DIMPOST
  1

  9
$DIMAPOST
  1

  9
$DIMALT
 70
     0
  9
$DIMALTD
 70
     2
  9
$DIMALTF
 40
25.399999999999999
  9
$DIMLFAC
 40
1.0
  9
$DIMTOFL
 70
     0
  9
$DIMTVP
 40
0.0
  9
$DIMTIX
 70
     0
  9
$DIMSOXD
 70
     0
  9
$DIMSAH
 70
     0
  9
$DIMBLK1
  1

  9
$DIMBLK2
  1

  9
$DIMSTYLE
  2
STANDARD
  9
$DIMCLRD
 70
     0
  9
$DIMCLRE
 70
     0
  9
$DIMCLRT
 70
     0
  9
$DIMTFAC
 40
1.0
  9
$DIMGAP
 40
0.09
  9
$LUNITS
 70
     2
  9
$LUPREC
 70
     4
  9
$SKETCHINC
 40
0.1
  9
$FILLETRAD
 40
0.0
  9
$AUNITS
 70
     0
  9
$AUPREC
 70
     0
  9
$MENU
  1
.
  9
$ELEVATION
 40
0.0
  9
$PELEVATION
 40
0.0
  9
$THICKNESS
 40
0.0
  9
$LIMCHECK
 70
     0
  9
$BLIPMODE
 70
     0
  9
$CHAMFERA
 40
0.0
  9
$CHAMFERB
 40
0.0
  9
$SKPOLY
 70
     0
  9
$TDCREATE
 40
2458212.3560579978
  9
$TDUPDATE
 40
2458212.358179572
  9
$TDINDWG
 40
0.0021228125
  9
$TDUSRTIMER
 40
0.0021227431
  9
$USRTIMER
 70
     1
  9
$ANGBASE
 50
0.0
  9
$ANGDIR
 70
     0
  9
$PDMODE
 70
     0
  9
$PDSIZE
 40
0.0
  9
$PLINEWID
 40
0.0
  9
$COORDS
 70
     1
  9
$SPLFRAME
 70
     0
  9
$SPLINETYPE
 70
     6
  9
$SPLINESEGS
 70
     8
  9
$ATTDIA
 70
     1
  9
$ATTREQ
 70
     1
  9
$HANDLING
 70
     1
  9
$HANDSEED
  5
19F
  9
$SURFTAB1
 70
     6
  9
$SURFTAB2
 70
     6
  9
$SURFTYPE
 70
     6
  9
$SURFU
 70
     6
  9
$SURFV
 70
     6
  9
$UCSNAME
  2

  9
$UCSORG
 10
0.0
 20
0.0
 30
0.0
  9
$UCSXDIR
 10
1.0
 20
0.0
 30
0.0
  9
$UCSYDIR
 10
0.0
 20
1.0
 30
0.0
  9
$PUCSNAME
  2

  9
$PUCSORG
 10
0.0
 20
0.0
 30
0.0
  9
$PUCSXDIR
 10
1.0
 20
0.0
 30
0.0
  9
$PUCSYDIR
 10
0.0
 20
1.0
 30
0.0
  9
$USERI1
 70
     0
  9
$USERI2
 70
     0
  9
$USERI3
 70
     0
  9
$USERI4
 70
     0
  9
$USERI5
 70
     0
  9
$USERR1
 40
0.0
  9
$USERR2
 40
0.0
  9
$USERR3
 40
0.0
  9
$USERR4
 40
0.0
  9
$USERR5
 40
0.0
  9
$WORLDVIEW
 70
     1
  9
$SHADEDGE
 70
     3
  9
$SHADEDIF
 70
    70
  9
$TILEMODE
 70
     0
  9
$MAXACTVP
 70
    64
  9
$PLIMCHECK
 70
     0
  9
$PEXTMIN
 10
-1.62265592341892
 20
0.8430167564319361
 30
0.0
  9
$PEXTMAX
 10
11.12734407658108
 20
11.21801675643194
 30
0.0
  9
$PLIMMIN
 10
0.0
 20
0.0
  9
$PLIMMAX
 10
12.0
 20
9.0
  9
$UNITMODE
 70
     0
  9
$VISRETAIN
 70
     1
  9
$PLINEGEN
 70
     0
  9
$PSLTSCALE
 70
     1
  0
ENDSEC
  0
SECTION
  2
TABLES
  0
TABLE
  2
VPORT
 70
     1
  0
VPORT
  2
*ACTIVE
 70
     0
 10
0.0
 20
0.0
 11
1.0
 21
1.0
 12
13.72465783438807
 22
7.0936922431864788
 13
0.0
 23
0.0
 14
0.5
 24
0.5
 15
0.5
 25
0.5
 16
0.0
 26
0.0
 36
1.0
 17
0.0
 27
0.0
 37
0.0
 40
14.45163097370529
 41
2.2156862745098032
 42
50.0
 43
0.0
 44
0.0
 50
0.0
 51
0.0
 71
     0
 72
  1000
 73
     1
 74
     3
 75
     0
 76
     0
 77
     0
 78
     0
  0
ENDTAB
  0
TABLE
  2
LTYPE
 70
     2
  0
LTYPE
  2
CONTINUOUS
 70
     0
  3
Solid line
 72
    65
 73
     0
 40
0.0
  0
ENDTAB
  0
TABLE
  2
LAYER
 70
     2
  0
LAYER
  2
0
 70
     0
 62
     7
  6
CONTINUOUS
  0
LAYER
  2
TEMPLATE
 70
     0
 62
     2
  6
CONTINUOUS
  0
ENDTAB
  0
TABLE
  2
STYLE
 70
     3
  0
STYLE
  2
STANDARD
 70
     0
 40
0.0
 41
1.0
 50
0.0
 71
     0
 42
0.2
  3
txt
  4

  0
STYLE
  2
ANNOTATIVE
 70
     0
 40
0.0
 41
1.0
 50
0.0
 71
     0
 42
0.2
  3
txt
  4

  0
STYLE
  2
SX
 70
     0
 40
0.6666666666666666
 41
1.0
 50
0.0
 71
     0
 42
0.5
  3
simplex.shx
  4

  0
ENDTAB
  0
TABLE
  2
VIEW
 70
     1
  0
ENDTAB
  0
TABLE
  2
UCS
 70
     0
  0
ENDTAB
  0
TABLE
  2
APPID
 70
     6
  0
APPID
  2
ACAD
 70
     0
  0
APPID
  2
ACADANNOTATIVE
 70
     0
  0
APPID
  2
ACAD_NAV_VCDISPLAY
 70
     0
  0
APPID
  2
ACAD_PSEXT
 70
     0
  0
APPID
  2
ACAD_EXEMPT_FROM_CAD_STANDARDS
 70
     0
  0
APPID
  2
ACAD_MLEADERVER
 70
     0
  0
ENDTAB
  0
TABLE
  2
DIMSTYLE
 70
     3
  0
DIMSTYLE
  2
STANDARD
 70
     0
  3

  4

  5

  6

  7

 40
1.0
 41
0.18
 42
0.0625
 43
0.38
 44
0.18
 45
0.0
 46
0.0
 47
0.0
 48
0.0
140
0.18
141
0.09
142
0.0
143
25.399999999999999
144
1.0
145
0.0
146
1.0
147
0.09
 71
     0
 72
     0
 73
     1
 74
     1
 75
     0
 76
     0
 77
     0
 78
     0
170
     0
171
     2
172
     0
173
     0
174
     0
175
     0
176
     0
177
     0
178
     0
  0
DIMSTYLE
  2
ANNOTATIVE
 70
     0
  3

  4

  5

  6

  7

 40
1.0
 41
0.18
 42
0.0625
 43
0.38
 44
0.18
 45
0.0
 46
0.0
 47
0.0
 48
0.0
140
0.18
141
0.09
142
0.0
143
25.399999999999999
144
1.0
145
0.0
146
1.0
147
0.09
 71
     0
 72
     0
 73
     1
 74
     1
 75
     0
 76
     0
 77
     0
 78
     0
170
     0
171
     2
172
     0
173
     0
174
     0
175
     0
176
     0
177
     0
178
     0
  0
DIMSTYLE
  2
PRICING
 70
     0
  3
" 
  4
cm
  5

  6
DOT
  7
DOT
 40
2.0
 41
0.25
 42
0.25
 43
0.375
 44
0.25
 45
0.0
 46
0.0
 47
0.0
 48
0.0
140
0.375
141
0.0
142
0.0
143
2.54
144
1.0
145
0.0
146
1.0
147
0.25
 71
     0
 72
     0
 73
     0
 74
     0
 75
     0
 76
     0
 77
     0
 78
     0
170
     1
171
     0
172
     0
173
     1
174
     0
175
     0
176
   256
177
   256
178
   256
  0
ENDTAB
  0
ENDSEC
  0
SECTION
  2
BLOCKS
  0
BLOCK
  8
0
  2
$MODEL_SPACE
 70
     0
 10
0.0
 20
0.0
 30
0.0
  3
$MODEL_SPACE
  1

  0
ENDBLK
  5
72
  8
0
  0
BLOCK
 67
     1
  8
0
  2
$PAPER_SPACE
 70
     0
 10
0.0
 20
0.0
 30
0.0
  3
$PAPER_SPACE
  1

  0
ENDBLK
  5
6E
 67
     1
  8
0
  0
BLOCK
  8
0
  2
_DOT
 70
     0
 10
0.0
 20
0.0
 30
0.0
  3
_DOT
  1

  0
POLYLINE
  5
80
  8
0
  6
BYBLOCK
 62
     0
 66
     1
 10
0.0
 20
0.0
 30
0.0
 70
     1
 40
0.5
 41
0.5
  0
VERTEX
  5
17F
  8
0
  6
BYBLOCK
 62
     0
 10
-0.25
 20
0.0
 30
0.0
 42
1.0
  0
VERTEX
  5
180
  8
0
  6
BYBLOCK
 62
     0
 10
0.25
 20
0.0
 30
0.0
 42
1.0
  0
SEQEND
  5
181
  8
0
  6
BYBLOCK
 62
     0
  0
LINE
  5
81
  8
0
  6
BYBLOCK
 62
     0
 10
-0.5
 20
0.0
 30
0.0
 11
-1.0
 21
0.0
 31
0.0
  0
ENDBLK
  5
82
  8
0
  0
BLOCK
  8
0
  2
*U4
 70
     1
 10
0.0
 20
0.0
 30
0.0
  3
*U4
  1

  0
TEXT
  5
18B
  8
0
 10
11.72285799000295
 20
2.6102993360350748
 30
0.0
 40
0.2
  1
QS1113/6
  0
ENDBLK
  5
18D
  8
0
  0
BLOCK
  8
0
  2
*U5
 70
     1
 10
0.0
 20
0.0
 30
0.0
  3
*U5
  1

  0
TEXT
  5
194
  8
0
 10
6.0604710051367192
 20
1.28232717205056
 30
0.0
 40
0.2
  1
QS1113/6
  0
ENDBLK
  5
196
  8
0
  0
BLOCK
  8
0
  2
*U6
 70
     1
 10
0.0
 20
0.0
 30
0.0
  3
*U6
  1

  0
TEXT
  5
19C
  8
0
 10
4.4378150838039678
 20
2.125343938614551
 30
0.0
 40
0.2
  1
QS1113/6
  0
ENDBLK
  5
19E
  8
0
  0
ENDSEC
  0
SECTION
  2
ENTITIES
  0
LINE
  5
96
  8
TEMPLATE
 62
     0
 10
15.799887378363101
 20
11.702972153852469
 30
0.0
 11
8.2748871965870663
 21
11.702972153852469
 31
0.0
  0
POLYLINE
  5
97
  8
TEMPLATE
 62
     0
 66
     1
 10
0.0
 20
0.0
 30
0.0
  0
VERTEX
  5
186
  8
TEMPLATE
 62
     0
 10
8.2748869827800675
 20
1.32797215385246
 30
0.0
  0
VERTEX
  5
187
  8
TEMPLATE
 62
     0
 10
12.03738698278007
 20
1.32797215385246
 30
0.0
  0
VERTEX
  5
188
  8
TEMPLATE
 62
     0
 10
15.79988698278007
 20
1.327972153852464
 30
0.0
  0
SEQEND
  5
189
  8
TEMPLATE
 62
     0
  0
ARC
  5
98
  8
TEMPLATE
 62
     0
 10
8.2748869827800675
 20
9.0904721538524669
 30
0.0
 40
2.6124999999999989
 50
89.999994024273718
 51
179.99999493764469
  0
LINE
  5
99
  8
TEMPLATE
 62
     0
 10
5.6623869827800704
 20
9.0904723349797436
 30
0.0
 11
5.6623869827800704
 21
3.9404721538524572
 31
0.0
  0
ARC
  5
9A
  8
TEMPLATE
 62
     0
 10
8.2748869827800675
 20
3.9404721538524612
 30
0.0
 40
2.6124999999999989
 50
180.0
 51
270.0
  0
ARC
  5
9B
  8
TEMPLATE
 62
     0
 10
15.79988698278007
 20
9.0904721538524704
 30
0.0
 40
2.6124999999999989
 50
0.0000033317996746
 51
89.999994217893658
  0
LINE
  5
9C
  8
TEMPLATE
 62
     0
 10
18.41238698278007
 20
3.9404723583026922
 30
0.0
 11
18.41238698278007
 21
9.0904722730617582
 31
0.0
  0
ARC
  5
9D
  8
TEMPLATE
 62
     0
 10
15.79988698278007
 20
3.9404721538524612
 30
0.0
 40
2.6124999999999989
 50
270.0
 51
0.0000057142124278
  0
INSERT
  5
A0
  8
0
  2
*U4
 10
0.0
 20
0.0
 30
0.0
  0
VIEWPORT
  5
113
 67
     1
  8
0
 10
7.982813134088655
 20
6.0011746566753654
 30
0.0
 40
31.983680196776149
 41
14.435112301199849
 68
     1
 69
     1
1001
ACAD
1000
MVIEW
1002
{
1070
    16
1010
0.0
1020
0.0
1030
0.0
1010
0.0
1020
0.0
1030
1.0
1040
0.0
1040
14.435112301199849
1040
7.982813134088655
1040
6.0011746566753654
1040
50.0
1040
0.0
1040
0.0
1070
     0
1070
  1000
1070
     1
1070
     1
1070
     0
1070
     0
1070
     0
1070
     0
1040
0.0
1040
0.0
1040
0.0
1040
0.5
1040
0.5
1040
0.5
1040
0.5
1070
     0
1002
{
1002
}
1002
}
  0
LINE
  5
123
 67
     1
  8
TEMPLATE
 62
     0
 10
8.5148444721641141
 20
11.21801675643194
 30
0.0
 11
0.9898442903880778
 21
11.21801675643194
 31
0.0
  0
POLYLINE
  5
124
 67
     1
  8
TEMPLATE
 62
     0
 66
     1
 10
0.0
 20
0.0
 30
0.0
  0
VERTEX
  5
197
 67
     1
  8
TEMPLATE
 62
     0
 10
0.9898440765810789
 20
0.8430167564319361
 30
0.0
  0
VERTEX
  5
198
 67
     1
  8
TEMPLATE
 62
     0
 10
4.7523440765810809
 20
0.8430167564319361
 30
0.0
  0
VERTEX
  5
199
 67
     1
  8
TEMPLATE
 62
     0
 10
8.5148440765810847
 20
0.8430167564319397
 30
0.0
  0
SEQEND
  5
19A
 67
     1
  8
TEMPLATE
 62
     0
  0
ARC
  5
125
 67
     1
  8
TEMPLATE
 62
     0
 10
0.9898440765810789
 20
8.6055167564319426
 30
0.0
 40
2.6124999999999989
 50
89.999994024273718
 51
179.99999493764469
  0
LINE
  5
126
 67
     1
  8
TEMPLATE
 62
     0
 10
-1.622655923418918
 20
8.6055169375592193
 30
0.0
 11
-1.622655923418918
 21
3.4555167564319329
 31
0.0
  0
ARC
  5
127
 67
     1
  8
TEMPLATE
 62
     0
 10
0.9898440765810789
 20
3.455516756431936
 30
0.0
 40
2.6124999999999989
 50
180.0
 51
270.0
  0
ARC
  5
128
 67
     1
  8
TEMPLATE
 62
     0
 10
8.5148440765810847
 20
8.6055167564319461
 30
0.0
 40
2.6124999999999989
 50
0.0000033317996746
 51
89.999994217893658
  0
LINE
  5
129
 67
     1
  8
TEMPLATE
 62
     0
 10
11.12734407658108
 20
3.455516960882167
 30
0.0
 11
11.12734407658108
 21
8.6055168756412357
 31
0.0
  0
ARC
  5
12A
 67
     1
  8
TEMPLATE
 62
     0
 10
8.5148440765810847
 20
3.455516756431936
 30
0.0
 40
2.6124999999999989
 50
270.0
 51
0.0000057142124278
  0
INSERT
  5
12B
 67
     1
  8
0
  2
*U6
 10
0.0
 20
0.0
 30
0.0
  0
ENDSEC
  0
EOF
