  0
SECTION
  2
HEADER
  9
$ACADVER
  1
AC1009
  9
$INSBASE
 10
0.0
 20
0.0
 30
0.0
  9
$EXTMIN
 10
120.9474357210154949
 20
65.0068383617370387
 30
0.0
  9
$EXTMAX
 10
144.9474357210154096
 20
85.7568383617370387
 30
0.0
  9
$LIMMIN
 10
0.0
 20
0.0
  9
$LIMMAX
 10
12.0
 20
9.0
  9
$ORTHOMODE
 70
     0
  9
$REGENMODE
 70
     1
  9
$FILLMODE
 70
     1
  9
$QTEXTMODE
 70
     0
  9
$MIRRTEXT
 70
     0
  9
$DRAGMODE
 70
     2
  9
$LTSCALE
 40
1.0
  9
$OSMODE
 70
   695
  9
$ATTMODE
 70
     1
  9
$TEXTSIZE
 40
0.2
  9
$TRACEWID
 40
0.05
  9
$TEXTSTYLE
  7
STANDARD
  9
$CLAYER
  8
0
  9
$CELTYPE
  6
BYLAYER
  9
$CECOLOR
 62
   256
  9
$DIMSCALE
 40
1.0
  9
$DIMASZ
 40
0.18
  9
$DIMEXO
 40
0.0625
  9
$DIMDLI
 40
0.38
  9
$DIMRND
 40
0.0
  9
$DIMDLE
 40
0.0
  9
$DIMEXE
 40
0.18
  9
$DIMTP
 40
0.0
  9
$DIMTM
 40
0.0
  9
$DIMTXT
 40
0.18
  9
$DIMCEN
 40
0.09
  9
$DIMTSZ
 40
0.0
  9
$DIMTOL
 70
     0
  9
$DIMLIM
 70
     0
  9
$DIMTIH
 70
     1
  9
$DIMTOH
 70
     1
  9
$DIMSE1
 70
     0
  9
$DIMSE2
 70
     0
  9
$DIMTAD
 70
     0
  9
$DIMZIN
 70
     0
  9
$DIMBLK
  1

  9
$DIMASO
 70
     1
  9
$DIMSHO
 70
     1
  9
$DIMPOST
  1

  9
$DIMAPOST
  1

  9
$DIMALT
 70
     0
  9
$DIMALTD
 70
     2
  9
$DIMALTF
 40
25.3999999999999986
  9
$DIMLFAC
 40
1.0
  9
$DIMTOFL
 70
     0
  9
$DIMTVP
 40
0.0
  9
$DIMTIX
 70
     0
  9
$DIMSOXD
 70
     0
  9
$DIMSAH
 70
     0
  9
$DIMBLK1
  1

  9
$DIMBLK2
  1

  9
$DIMSTYLE
  2
STANDARD
  9
$DIMCLRD
 70
     0
  9
$DIMCLRE
 70
     0
  9
$DIMCLRT
 70
     0
  9
$DIMTFAC
 40
1.0
  9
$DIMGAP
 40
0.09
  9
$LUNITS
 70
     2
  9
$LUPREC
 70
     4
  9
$SKETCHINC
 40
0.1
  9
$FILLETRAD
 40
0.0
  9
$AUNITS
 70
     0
  9
$AUPREC
 70
     0
  9
$MENU
  1
.
  9
$ELEVATION
 40
0.0
  9
$PELEVATION
 40
0.0
  9
$THICKNESS
 40
0.0
  9
$LIMCHECK
 70
     0
  9
$BLIPMODE
 70
     0
  9
$CHAMFERA
 40
0.0
  9
$CHAMFERB
 40
0.0
  9
$SKPOLY
 70
     0
  9
$TDCREATE
 40
2459083.5025115739554167
  9
$TDUPDATE
 40
2459083.5054629631340504
  9
$TDINDWG
 40
0.0029513889
  9
$TDUSRTIMER
 40
0.0029513889
  9
$USRTIMER
 70
     1
  9
$ANGBASE
 50
0.0
  9
$ANGDIR
 70
     0
  9
$PDMODE
 70
     0
  9
$PDSIZE
 40
0.0
  9
$PLINEWID
 40
0.0
  9
$COORDS
 70
     1
  9
$SPLFRAME
 70
     0
  9
$SPLINETYPE
 70
     6
  9
$SPLINESEGS
 70
     8
  9
$ATTDIA
 70
     1
  9
$ATTREQ
 70
     1
  9
$HANDLING
 70
     1
  9
$HANDSEED
  5
13F
  9
$SURFTAB1
 70
     6
  9
$SURFTAB2
 70
     6
  9
$SURFTYPE
 70
     6
  9
$SURFU
 70
     6
  9
$SURFV
 70
     6
  9
$UCSNAME
  2

  9
$UCSORG
 10
0.0
 20
0.0
 30
0.0
  9
$UCSXDIR
 10
1.0
 20
0.0
 30
0.0
  9
$UCSYDIR
 10
0.0
 20
1.0
 30
0.0
  9
$PUCSNAME
  2

  9
$PUCSORG
 10
0.0
 20
0.0
 30
0.0
  9
$PUCSXDIR
 10
1.0
 20
0.0
 30
0.0
  9
$PUCSYDIR
 10
0.0
 20
1.0
 30
0.0
  9
$USERI1
 70
     0
  9
$USERI2
 70
     0
  9
$USERI3
 70
     0
  9
$USERI4
 70
     0
  9
$USERI5
 70
     0
  9
$USERR1
 40
0.0
  9
$USERR2
 40
0.0
  9
$USERR3
 40
0.0
  9
$USERR4
 40
0.0
  9
$USERR5
 40
0.0
  9
$WORLDVIEW
 70
     1
  9
$SHADEDGE
 70
     3
  9
$SHADEDIF
 70
    70
  9
$TILEMODE
 70
     1
  9
$MAXACTVP
 70
    64
  9
$PLIMCHECK
 70
     0
  9
$PEXTMIN
 10
111.6574225922236963
 20
65.9503697985301187
 30
0.0
  9
$PEXTMAX
 10
135.6574225922236963
 20
86.7003697985301187
 30
0.0
  9
$PLIMMIN
 10
0.0
 20
0.0
  9
$PLIMMAX
 10
12.0
 20
9.0
  9
$UNITMODE
 70
     0
  9
$VISRETAIN
 70
     1
  9
$PLINEGEN
 70
     0
  9
$PSLTSCALE
 70
     1
  0
ENDSEC
  0
SECTION
  2
TABLES
  0
TABLE
  2
VPORT
 70
     1
  0
VPORT
  2
*ACTIVE
 70
     0
 10
0.0
 20
0.0
 11
1.0
 21
1.0
 12
139.7150915028572058
 22
74.1441206859125543
 13
0.0
 23
0.0
 14
0.5
 24
0.5
 15
0.5
 25
0.5
 16
0.0
 26
0.0
 36
1.0
 17
0.0
 27
0.0
 37
0.0
 40
36.9982043315428228
 41
1.960426179604261
 42
50.0
 43
0.0
 44
0.0
 50
0.0
 51
0.0
 71
     0
 72
  1000
 73
     1
 74
     3
 75
     0
 76
     0
 77
     0
 78
     0
  0
ENDTAB
  0
TABLE
  2
LTYPE
 70
     2
  0
LTYPE
  2
CONTINUOUS
 70
     0
  3
Solid line
 72
    65
 73
     0
 40
0.0
  0
ENDTAB
  0
TABLE
  2
LAYER
 70
     1
  0
LAYER
  2
0
 70
     0
 62
     7
  6
CONTINUOUS
  0
ENDTAB
  0
TABLE
  2
STYLE
 70
     3
  0
STYLE
  2
STANDARD
 70
     0
 40
0.0
 41
1.0
 50
0.0
 71
     0
 42
0.2
  3
txt
  4

  0
STYLE
  2
ANNOTATIVE
 70
     0
 40
0.0
 41
1.0
 50
0.0
 71
     0
 42
0.2
  3
txt
  4

  0
STYLE
  2
SX
 70
     0
 40
0.75
 41
1.0
 50
0.0
 71
     0
 42
1.0
  3
simplex.shx
  4

  0
ENDTAB
  0
TABLE
  2
VIEW
 70
     2
  0
ENDTAB
  0
TABLE
  2
UCS
 70
     0
  0
ENDTAB
  0
TABLE
  2
APPID
 70
     8
  0
APPID
  2
ACAD
 70
     0
  0
APPID
  2
ACADANNOTATIVE
 70
     0
  0
APPID
  2
ACAD_NAV_VCDISPLAY
 70
     0
  0
APPID
  2
ACAD_PSEXT
 70
     0
  0
APPID
  2
ACAD_DSTYLE_DIMJAG
 70
     0
  0
APPID
  2
ACAD_DSTYLE_DIMTALN
 70
     0
  0
APPID
  2
ACAD_EXEMPT_FROM_CAD_STANDARDS
 70
     0
  0
APPID
  2
ACAD_MLEADERVER
 70
     0
  0
ENDTAB
  0
TABLE
  2
DIMSTYLE
 70
     8
  0
DIMSTYLE
  2
STANDARD
 70
     0
  3

  4

  5

  6

  7

 40
1.0
 41
0.18
 42
0.0625
 43
0.38
 44
0.18
 45
0.0
 46
0.0
 47
0.0
 48
0.0
140
0.18
141
0.09
142
0.0
143
25.3999999999999986
144
1.0
145
0.0
146
1.0
147
0.09
 71
     0
 72
     0
 73
     1
 74
     1
 75
     0
 76
     0
 77
     0
 78
     0
170
     0
171
     2
172
     0
173
     0
174
     0
175
     0
176
     0
177
     0
178
     0
  0
DIMSTYLE
  2
ANNOTATIVE
 70
     0
  3

  4

  5

  6

  7

 40
1.0
 41
0.18
 42
0.0625
 43
0.38
 44
0.18
 45
0.0
 46
0.0
 47
0.0
 48
0.0
140
0.18
141
0.09
142
0.0
143
25.3999999999999986
144
1.0
145
0.0
146
1.0
147
0.09
 71
     0
 72
     0
 73
     1
 74
     1
 75
     0
 76
     0
 77
     0
 78
     0
170
     0
171
     2
172
     0
173
     0
174
     0
175
     0
176
     0
177
     0
178
     0
  0
DIMSTYLE
  2
ISO-25
 70
     0
  3

  4

  5

  6

  7

 40
1.0
 41
2.5
 42
0.625
 43
3.75
 44
1.25
 45
0.0
 46
0.0
 47
0.0
 48
0.0
140
2.5
141
2.5
142
0.0
143
0.03937007874016
144
1.0
145
0.0
146
1.0
147
0.625
 71
     0
 72
     0
 73
     0
 74
     0
 75
     0
 76
     0
 77
     1
 78
     8
170
     0
171
     3
172
     1
173
     0
174
     0
175
     0
176
     0
177
     0
178
     0
  0
DIMSTYLE
  2
KINDRED
 70
     0
  3

  4

  5

  6

  7

 40
2.0
 41
0.25
 42
0.25
 43
0.375
 44
0.25
 45
0.0
 46
0.0
 47
0.0
 48
0.0
140
0.375
141
0.0
142
0.0
143
25.3999999999999986
144
1.0
145
0.0
146
1.0
147
0.25
 71
     0
 72
     0
 73
     1
 74
     1
 75
     0
 76
     0
 77
     0
 78
     0
170
     0
171
     2
172
     0
173
     0
174
     0
175
     0
176
   256
177
   256
178
   256
  0
DIMSTYLE
  2
CATALOG
 70
     0
  3
" 
  4
cm
  5
DOT
  6

  7

 40
2.0
 41
0.25
 42
0.25
 43
0.375
 44
0.25
 45
0.0
 46
0.0
 47
0.0
 48
0.0
140
0.75
141
0.0
142
0.0
143
2.54
144
1.0
145
0.0
146
1.0
147
0.25
 71
     0
 72
     0
 73
     0
 74
     0
 75
     0
 76
     0
 77
     0
 78
     0
170
     1
171
     0
172
     0
173
     0
174
     0
175
     0
176
   256
177
   256
178
   256
  0
DIMSTYLE
  2
PRICING
 70
     0
  3
" 
  4
cm
  5

  6

  7

 40
2.0
 41
0.25
 42
0.25
 43
0.375
 44
0.25
 45
0.0
 46
0.0
 47
0.0
 48
0.0
140
0.375
141
0.0
142
0.0
143
2.54
144
1.0
145
0.0
146
1.0
147
0.25
 71
     0
 72
     0
 73
     0
 74
     0
 75
     0
 76
     0
 77
     0
 78
     0
170
     1
171
     0
172
     0
173
     1
174
     0
175
     0
176
   256
177
   256
178
   256
  0
DIMSTYLE
  2
CATALOG-HORIZONTAL
 70
     0
  3
" 
  4
cm
  5

  6
DOT
  7
DOT
 40
2.0
 41
0.25
 42
0.25
 43
0.375
 44
0.25
 45
0.0
 46
0.0
 47
0.0
 48
0.0
140
0.75
141
0.25
142
0.0
143
2.54
144
1.0
145
0.0
146
1.0
147
0.25
 71
     0
 72
     0
 73
     1
 74
     0
 75
     0
 76
     0
 77
     0
 78
     0
170
     1
171
     0
172
     0
173
     1
174
     0
175
     0
176
   256
177
   256
178
   256
  0
DIMSTYLE
  2
CATALOG-FAUCET
 70
     0
  3
" 
  4
cm
  5

  6

  7

 40
2.0
 41
0.25
 42
0.25
 43
0.375
 44
0.25
 45
0.0
 46
0.0
 47
0.0
 48
0.0
140
0.375
141
0.0
142
0.0
143
2.54
144
1.0
145
0.0
146
1.0
147
0.25
 71
     0
 72
     0
 73
     1
 74
     1
 75
     0
 76
     0
 77
     0
 78
     0
170
     1
171
     0
172
     0
173
     1
174
     0
175
     0
176
   256
177
   256
178
   256
  0
ENDTAB
  0
ENDSEC
  0
SECTION
  2
BLOCKS
  0
BLOCK
  8
0
  2
$MODEL_SPACE
 70
     0
 10
0.0
 20
0.0
 30
0.0
  3
$MODEL_SPACE
  1

  0
ENDBLK
  5
72
  8
0
  0
BLOCK
 67
     1
  8
0
  2
$PAPER_SPACE
 70
     0
 10
0.0
 20
0.0
 30
0.0
  3
$PAPER_SPACE
  1

  0
ENDBLK
  5
6E
 67
     1
  8
0
  0
BLOCK
  8
0
  2
_DOT
 70
     0
 10
0.0
 20
0.0
 30
0.0
  3
_DOT
  1

  0
POLYLINE
  5
7E
  8
0
  6
BYBLOCK
 62
     0
 66
     1
 10
0.0
 20
0.0
 30
0.0
 70
     1
 40
0.5
 41
0.5
  0
VERTEX
  5
133
  8
0
  6
BYBLOCK
 62
     0
 10
-0.25
 20
0.0
 30
0.0
 42
1.0
  0
VERTEX
  5
134
  8
0
  6
BYBLOCK
 62
     0
 10
0.25
 20
0.0
 30
0.0
 42
1.0
  0
SEQEND
  5
135
  8
0
  6
BYBLOCK
 62
     0
  0
LINE
  5
7F
  8
0
  6
BYBLOCK
 62
     0
 10
-0.5
 20
0.0
 30
0.0
 11
-1.0
 21
0.0
 31
0.0
  0
ENDBLK
  5
80
  8
0
  0
BLOCK
  8
0
  2
*U4
 70
     1
 10
0.0
 20
0.0
 30
0.0
  3
*U4
  1

  0
TEXT
  5
13C
  8
0
 10
131.1208194906328117
 20
68.0604613687645497
 30
0.0
 40
1.3707069950638699
  1
34961
  0
ENDBLK
  5
13E
  8
0
  0
ENDSEC
  0
SECTION
  2
ENTITIES
  0
ARC
  5
9B
  8
0
 10
124.4474357210154949
 20
68.2568383617370387
 30
0.0
 40
3.25
 50
184.9791058439971891
 51
270.0
  0
ARC
  5
9C
  8
0
 10
190.4474357210154096
 20
74.0068383617370102
 30
0.0
 40
69.4999999999998863
 50
171.6948904719494919
 51
184.9791058439980134
  0
ARC
  5
9D
  8
0
 10
123.6553141796240993
 20
83.7568383617370387
 30
0.0
 40
2.0
 50
90.0
 51
171.6948904719494919
  0
ARC
  5
9E
  8
0
 10
75.4474357210155802
 20
74.0068383617370102
 30
0.0
 40
69.4999999999998863
 50
355.020894156001475
 51
8.3051095280504583
  0
ARC
  5
9F
  8
0
 10
142.2395572624068052
 20
83.7568383617370102
 30
0.0
 40
2.0
 50
8.3051095280504583
 51
90.0
  0
ARC
  5
A0
  8
0
 10
141.4474357210154949
 20
68.2568383617370387
 30
0.0
 40
3.25
 50
270.0
 51
355.020894156001475
  0
LINE
  5
A1
  8
0
 10
141.4474357210154949
 20
65.0068383617370387
 30
0.0
 11
124.4474357210154949
 21
65.0068383617370387
 31
0.0
  0
LINE
  5
A2
  8
0
 10
123.6553141796240993
 20
85.7568383617370387
 30
0.0
 11
142.2395572624068052
 21
85.7568383617369818
 31
0.0
  0
INSERT
  5
D0
  8
0
  2
*U4
 10
0.0
 20
0.0
 30
0.0
  0
VIEWPORT
  5
AC
 67
     1
  8
0
 10
123.1858591302571995
 20
76.8034340230026942
 30
0.0
 40
65.6671436432214364
 41
33.4963613149041066
 68
     1
 69
     1
1001
ACAD
1000
MVIEW
1002
{
1070
    16
1010
0.0
1020
0.0
1030
0.0
1010
0.0
1020
0.0
1030
1.0
1040
0.0
1040
33.4963613149041066
1040
123.1858591302571995
1040
76.8034340230026942
1040
50.0
1040
0.0
1040
0.0
1070
     0
1070
  1000
1070
     1
1070
     1
1070
     0
1070
     0
1070
     0
1070
     0
1040
0.0
1040
0.0
1040
0.0
1040
0.5
1040
0.5
1040
0.5
1040
0.5
1070
     0
1002
{
1002
}
1002
}
  0
ARC
  5
BF
 67
     1
  8
0
 10
115.1574225922237957
 20
69.2003697985301187
 30
0.0
 40
3.25
 50
184.9791058439971891
 51
270.0
  0
ARC
  5
C0
 67
     1
  8
0
 10
181.157422592223611
 20
74.9503697985300903
 30
0.0
 40
69.4999999999998863
 50
171.6948904719494919
 51
184.9791058439980134
  0
ARC
  5
C1
 67
     1
  8
0
 10
114.3653010508324002
 20
84.7003697985301045
 30
0.0
 40
2.0
 50
90.0
 51
171.6948904719494919
  0
ARC
  5
C2
 67
     1
  8
0
 10
66.1574225922238384
 20
74.9503697985300903
 30
0.0
 40
69.4999999999998863
 50
355.020894156001475
 51
8.3051095280504583
  0
ARC
  5
C3
 67
     1
  8
0
 10
132.9495441336150066
 20
84.7003697985300903
 30
0.0
 40
2.0
 50
8.3051095280504583
 51
90.0
  0
ARC
  5
C4
 67
     1
  8
0
 10
132.1574225922238099
 20
69.2003697985301187
 30
0.0
 40
3.25
 50
270.0
 51
355.020894156001475
  0
LINE
  5
C5
 67
     1
  8
0
 10
132.1574225922238099
 20
65.9503697985301187
 30
0.0
 11
115.1574225922237957
 21
65.9503697985301187
 31
0.0
  0
LINE
  5
C6
 67
     1
  8
0
 10
114.3653010508324002
 20
86.7003697985301187
 30
0.0
 11
132.9495441336150066
 21
86.7003697985300761
 31
0.0
  0
ENDSEC
  0
EOF
