  0
SECTION
  2
HEADER
  9
$ACADVER
  1
AC1009
  9
$INSBASE
 10
0.0
 20
0.0
 30
0.0
  9
$EXTMIN
 10
1.0000000000000000E+020
 20
1.0000000000000000E+020
 30
1.0000000000000000E+020
  9
$EXTMAX
 10
-1.0000000000000000E+020
 20
-1.0000000000000000E+020
 30
-1.0000000000000000E+020
  9
$LIMMIN
 10
0.0
 20
0.0
  9
$LIMMAX
 10
12.0
 20
9.0
  9
$ORTHOMODE
 70
     0
  9
$REGENMODE
 70
     1
  9
$FILLMODE
 70
     1
  9
$QTEXTMODE
 70
     0
  9
$MIRRTEXT
 70
     0
  9
$DRAGMODE
 70
     2
  9
$LTSCALE
 40
1.0
  9
$OSMODE
 70
  2751
  9
$ATTMODE
 70
     1
  9
$TEXTSIZE
 40
0.2
  9
$TRACEWID
 40
0.05
  9
$TEXTSTYLE
  7
STANDARD
  9
$CLAYER
  8
0
  9
$CELTYPE
  6
BYLAYER
  9
$CECOLOR
 62
   256
  9
$DIMSCALE
 40
1.0
  9
$DIMASZ
 40
0.18
  9
$DIMEXO
 40
0.0625
  9
$DIMDLI
 40
0.38
  9
$DIMRND
 40
0.0
  9
$DIMDLE
 40
0.0
  9
$DIMEXE
 40
0.18
  9
$DIMTP
 40
0.0
  9
$DIMTM
 40
0.0
  9
$DIMTXT
 40
0.18
  9
$DIMCEN
 40
0.09
  9
$DIMTSZ
 40
0.0
  9
$DIMTOL
 70
     0
  9
$DIMLIM
 70
     0
  9
$DIMTIH
 70
     1
  9
$DIMTOH
 70
     1
  9
$DIMSE1
 70
     0
  9
$DIMSE2
 70
     0
  9
$DIMTAD
 70
     0
  9
$DIMZIN
 70
     0
  9
$DIMBLK
  1

  9
$DIMASO
 70
     1
  9
$DIMSHO
 70
     1
  9
$DIMPOST
  1

  9
$DIMAPOST
  1

  9
$DIMALT
 70
     0
  9
$DIMALTD
 70
     2
  9
$DIMALTF
 40
25.399999999999999
  9
$DIMLFAC
 40
1.0
  9
$DIMTOFL
 70
     0
  9
$DIMTVP
 40
0.0
  9
$DIMTIX
 70
     0
  9
$DIMSOXD
 70
     0
  9
$DIMSAH
 70
     0
  9
$DIMBLK1
  1

  9
$DIMBLK2
  1

  9
$DIMSTYLE
  2
STANDARD
  9
$DIMCLRD
 70
     0
  9
$DIMCLRE
 70
     0
  9
$DIMCLRT
 70
     0
  9
$DIMTFAC
 40
1.0
  9
$DIMGAP
 40
0.09
  9
$LUNITS
 70
     2
  9
$LUPREC
 70
     4
  9
$SKETCHINC
 40
0.1
  9
$FILLETRAD
 40
0.0
  9
$AUNITS
 70
     0
  9
$AUPREC
 70
     0
  9
$MENU
  1
.
  9
$ELEVATION
 40
0.0
  9
$PELEVATION
 40
0.0
  9
$THICKNESS
 40
0.0
  9
$LIMCHECK
 70
     0
  9
$BLIPMODE
 70
     0
  9
$CHAMFERA
 40
0.0
  9
$CHAMFERB
 40
0.0
  9
$SKPOLY
 70
     0
  9
$TDCREATE
 40
2457722.3439715048
  9
$TDUPDATE
 40
2457722.344439155
  9
$TDINDWG
 40
0.0004687963
  9
$TDUSRTIMER
 40
0.0004687731
  9
$USRTIMER
 70
     1
  9
$ANGBASE
 50
0.0
  9
$ANGDIR
 70
     0
  9
$PDMODE
 70
     0
  9
$PDSIZE
 40
0.0
  9
$PLINEWID
 40
0.0
  9
$COORDS
 70
     1
  9
$SPLFRAME
 70
     0
  9
$SPLINETYPE
 70
     6
  9
$SPLINESEGS
 70
     8
  9
$ATTDIA
 70
     1
  9
$ATTREQ
 70
     1
  9
$HANDLING
 70
     1
  9
$HANDSEED
  5
178
  9
$SURFTAB1
 70
     6
  9
$SURFTAB2
 70
     6
  9
$SURFTYPE
 70
     6
  9
$SURFU
 70
     6
  9
$SURFV
 70
     6
  9
$UCSNAME
  2

  9
$UCSORG
 10
0.0
 20
0.0
 30
0.0
  9
$UCSXDIR
 10
1.0
 20
0.0
 30
0.0
  9
$UCSYDIR
 10
0.0
 20
1.0
 30
0.0
  9
$PUCSNAME
  2

  9
$PUCSORG
 10
0.0
 20
0.0
 30
0.0
  9
$PUCSXDIR
 10
1.0
 20
0.0
 30
0.0
  9
$PUCSYDIR
 10
0.0
 20
1.0
 30
0.0
  9
$USERI1
 70
     0
  9
$USERI2
 70
     0
  9
$USERI3
 70
     0
  9
$USERI4
 70
     0
  9
$USERI5
 70
     0
  9
$USERR1
 40
0.0
  9
$USERR2
 40
0.0
  9
$USERR3
 40
0.0
  9
$USERR4
 40
0.0
  9
$USERR5
 40
0.0
  9
$WORLDVIEW
 70
     1
  9
$SHADEDGE
 70
     3
  9
$SHADEDIF
 70
    70
  9
$TILEMODE
 70
     0
  9
$MAXACTVP
 70
    64
  9
$PLIMCHECK
 70
     0
  9
$PEXTMIN
 10
0.2346984780555843
 20
0.9416264063040102
 30
0.0
  9
$PEXTMAX
 10
20.734698478055591
 20
18.441626406304032
 30
0.0
  9
$PLIMMIN
 10
0.0
 20
0.0
  9
$PLIMMAX
 10
12.0
 20
9.0
  9
$UNITMODE
 70
     0
  9
$VISRETAIN
 70
     1
  9
$PLINEGEN
 70
     0
  9
$PSLTSCALE
 70
     1
  0
ENDSEC
  0
SECTION
  2
TABLES
  0
TABLE
  2
VPORT
 70
     1
  0
VPORT
  2
*ACTIVE
 70
     0
 10
0.0
 20
0.0
 11
1.0
 21
1.0
 12
9.9566433566433581
 22
4.5
 13
0.0
 23
0.0
 14
0.5
 24
0.5
 15
0.5
 25
0.5
 16
0.0
 26
0.0
 36
1.0
 17
0.0
 27
0.0
 37
0.0
 40
9.0
 41
2.2125874125874119
 42
50.0
 43
0.0
 44
0.0
 50
0.0
 51
0.0
 71
     0
 72
  1000
 73
     1
 74
     3
 75
     0
 76
     0
 77
     0
 78
     0
  0
ENDTAB
  0
TABLE
  2
LTYPE
 70
     1
  0
LTYPE
  2
CONTINUOUS
 70
     0
  3
Solid line
 72
    65
 73
     0
 40
0.0
  0
ENDTAB
  0
TABLE
  2
LAYER
 70
     2
  0
LAYER
  2
0
 70
     0
 62
     7
  6
CONTINUOUS
  0
LAYER
  2
DEFPOINTS
 70
     0
 62
     7
  6
CONTINUOUS
  0
ENDTAB
  0
TABLE
  2
STYLE
 70
     4
  0
STYLE
  2
STANDARD
 70
     0
 40
0.0
 41
1.0
 50
0.0
 71
     0
 42
0.2
  3
txt
  4

  0
STYLE
  2
ANNOTATIVE
 70
     0
 40
0.0
 41
1.0
 50
0.0
 71
     0
 42
0.2
  3
txt
  4

  0
STYLE
  2
MMISOCP
 70
     0
 40
0.0
 41
1.0
 50
0.0
 71
     0
 42
2.5
  3
isocp.shx
  4

  0
STYLE
  2
SX
 70
     0
 40
1.0
 41
1.0
 50
0.0
 71
     0
 42
1.0
  3
simplex.shx
  4

  0
ENDTAB
  0
TABLE
  2
VIEW
 70
     1
  0
ENDTAB
  0
TABLE
  2
UCS
 70
     0
  0
ENDTAB
  0
TABLE
  2
APPID
 70
     9
  0
APPID
  2
ACAD
 70
     0
  0
APPID
  2
ACADANNOTATIVE
 70
     0
  0
APPID
  2
ACAD_NAV_VCDISPLAY
 70
     0
  0
APPID
  2
ACAD_PSEXT
 70
     0
  0
APPID
  2
ACAD_DSTYLE_DIMJAG
 70
     0
  0
APPID
  2
ACAD_DSTYLE_DIMBREAK
 70
     0
  0
APPID
  2
ACAD_DSTYLE_DIMTALN
 70
     0
  0
APPID
  2
AMACAD
 70
     0
  0
APPID
  2
ACAD_MLEADERVER
 70
     0
  0
ENDTAB
  0
TABLE
  2
DIMSTYLE
 70
     8
  0
DIMSTYLE
  2
STANDARD
 70
     0
  3

  4

  5

  6

  7

 40
1.0
 41
0.18
 42
0.0625
 43
0.38
 44
0.18
 45
0.0
 46
0.0
 47
0.0
 48
0.0
140
0.18
141
0.09
142
0.0
143
25.399999999999999
144
1.0
145
0.0
146
1.0
147
0.09
 71
     0
 72
     0
 73
     1
 74
     1
 75
     0
 76
     0
 77
     0
 78
     0
170
     0
171
     2
172
     0
173
     0
174
     0
175
     0
176
     0
177
     0
178
     0
  0
DIMSTYLE
  2
ANNOTATIVE
 70
     0
  3

  4

  5

  6

  7

 40
1.0
 41
0.18
 42
0.0625
 43
0.38
 44
0.18
 45
0.0
 46
0.0
 47
0.0
 48
0.0
140
0.18
141
0.09
142
0.0
143
25.399999999999999
144
1.0
145
0.0
146
1.0
147
0.09
 71
     0
 72
     0
 73
     1
 74
     1
 75
     0
 76
     0
 77
     0
 78
     0
170
     0
171
     2
172
     0
173
     0
174
     0
175
     0
176
     0
177
     0
178
     0
  0
DIMSTYLE
  2
ISO-25
 70
     0
  3

  4

  5

  6

  7

 40
1.0
 41
2.5
 42
0.625
 43
3.75
 44
1.25
 45
0.0
 46
0.0
 47
0.0
 48
0.0
140
2.5
141
2.5
142
0.0
143
0.03937007874016
144
1.0
145
0.0
146
1.0
147
0.625
 71
     0
 72
     0
 73
     0
 74
     0
 75
     0
 76
     0
 77
     1
 78
     8
170
     0
171
     3
172
     1
173
     0
174
     0
175
     0
176
     0
177
     0
178
     0
  0
DIMSTYLE
  2
MM_KBT
 70
     0
  3

  4

  5

  6
SMALL
  7
CLOSEDBLANK
 40
0.0
 41
3.5
 42
0.0
 43
20.0
 44
2.0
 45
0.0
 46
0.0
 47
0.0
 48
0.0
140
3.5
141
0.0
142
0.0
143
0.0394
144
1.0
145
0.0
146
1.0
147
0.625
 71
     0
 72
     0
 73
     0
 74
     0
 75
     0
 76
     1
 77
     2
 78
     8
170
     0
171
     2
172
     1
173
     1
174
     0
175
     0
176
     0
177
     0
178
     5
  0
DIMSTYLE
  2
MMM
 70
     0
  3

  4

  5

  6

  7

 40
0.0
 41
2.5
 42
2.0
 43
10.0
 44
2.0
 45
0.0
 46
0.0
 47
0.0
 48
0.0
140
3.5
141
0.0
142
0.0
143
0.0394
144
1.0
145
0.0
146
1.0
147
0.625
 71
     0
 72
     0
 73
     0
 74
     0
 75
     0
 76
     0
 77
     1
 78
     8
170
     0
171
     2
172
     1
173
     0
174
     0
175
     0
176
     3
177
     3
178
     2
  0
DIMSTYLE
  2
AM_ISO
 70
     0
  3

  4
"
  5

  6

  7

 40
1.0
 41
2.5
 42
1.0
 43
10.0
 44
1.0
 45
0.0
 46
0.0
 47
0.1
 48
0.1
140
3.5
141
0.0
142
0.0
143
0.0393701
144
1.0
145
0.0
146
0.71
147
1.5
 71
     0
 72
     0
 73
     0
 74
     0
 75
     0
 76
     0
 77
     1
 78
     8
170
     0
171
     2
172
     1
173
     0
174
     0
175
     0
176
   256
177
   256
178
     2
  0
DIMSTYLE
  2
KINDRED
 70
     0
  3

  4

  5

  6

  7

 40
2.0
 41
0.25
 42
0.25
 43
0.375
 44
0.25
 45
0.0
 46
0.0
 47
0.0
 48
0.0
140
1.0
141
0.25
142
0.0
143
25.399999999999999
144
1.0
145
0.0
146
1.0
147
0.25
 71
     0
 72
     0
 73
     1
 74
     1
 75
     0
 76
     0
 77
     0
 78
     0
170
     0
171
     2
172
     0
173
     0
174
     0
175
     0
176
     1
177
     1
178
     1
  0
DIMSTYLE
  2
KINDRED$0
 70
     0
  3

  4

  5

  6

  7

 40
2.0
 41
0.25
 42
0.25
 43
0.375
 44
0.25
 45
0.0
 46
0.0
 47
0.0
 48
0.0
140
1.0
141
0.25
142
0.0
143
25.399999999999999
144
1.0
145
0.0
146
1.0
147
0.25
 71
     0
 72
     0
 73
     1
 74
     1
 75
     0
 76
     0
 77
     0
 78
     0
170
     0
171
     2
172
     0
173
     0
174
     0
175
     0
176
     1
177
     1
178
     1
  0
ENDTAB
  0
ENDSEC
  0
SECTION
  2
BLOCKS
  0
BLOCK
  8
0
  2
$MODEL_SPACE
 70
     0
 10
0.0
 20
0.0
 30
0.0
  3
$MODEL_SPACE
  1

  0
ENDBLK
  5
72
  8
0
  0
BLOCK
 67
     1
  8
0
  2
$PAPER_SPACE
 70
     0
 10
0.0
 20
0.0
 30
0.0
  3
$PAPER_SPACE
  1

  0
ENDBLK
  5
6E
 67
     1
  8
0
  0
BLOCK
  8
0
  2
_CLOSEDBLANK
 70
     0
 10
0.0
 20
0.0
 30
0.0
  3
_CLOSEDBLANK
  1

  0
LINE
  5
8F
  8
0
  6
BYBLOCK
 62
     0
 10
-1.0
 20
0.1666666666666666
 30
0.0
 11
0.0
 21
0.0
 31
0.0
  0
LINE
  5
90
  8
0
  6
BYBLOCK
 62
     0
 10
0.0
 20
0.0
 30
0.0
 11
-1.0
 21
-0.1666666666666666
 31
0.0
  0
LINE
  5
91
  8
0
  6
BYBLOCK
 62
     0
 10
-1.0
 20
0.1666666666666666
 30
0.0
 11
-1.0
 21
-0.1666666666666666
 31
0.0
  0
ENDBLK
  5
92
  8
0
  0
BLOCK
  8
0
  2
_SMALL
 70
     0
 10
0.0
 20
0.0
 30
0.0
  3
_SMALL
  1

  0
CIRCLE
  5
95
  8
0
 62
     0
 10
0.0
 20
0.0
 30
0.0
 40
0.25
  0
ENDBLK
  5
96
  8
0
  0
BLOCK
  8
0
  2
*D3
 70
     1
 10
0.0
 20
0.0
 30
0.0
  3
*D3
  1

  0
LINE
  5
99
  8
0
 62
     1
 10
42.825405101916822
 20
358.46269737691517
 30
0.0
 11
42.825405101916822
 21
350.97460213881988
 31
0.0
  0
LINE
  5
9A
  8
0
 62
     1
 10
42.825405101916822
 20
341.46269737691517
 30
0.0
 11
42.825405101916822
 21
348.95079261501041
 31
0.0
  0
SOLID
  5
9B
  8
0
 62
     1
 10
42.783738435250157
 20
358.46269737691517
 30
0.0
 11
42.867071768583493
 21
358.46269737691517
 31
0.0
 12
42.825405101916822
 22
358.71269737691517
 32
0.0
 13
42.825405101916822
 23
358.71269737691517
 33
0.0
  0
SOLID
  5
9C
  8
0
 62
     1
 10
42.783738435250157
 20
341.46269737691517
 30
0.0
 11
42.867071768583493
 21
341.46269737691517
 31
0.0
 12
42.825405101916822
 22
341.21269737691517
 32
0.0
 13
42.825405101916822
 23
341.21269737691517
 33
0.0
  0
INSERT
  5
9D
  8
0
  2
*U8
 10
0.0
 20
0.0
 30
0.0
  0
POINT
  5
9E
  8
DEFPOINTS
 62
     0
 10
42.825405101916822
 20
358.71269737691517
 30
0.0
  0
POINT
  5
9F
  8
DEFPOINTS
 62
     0
 10
42.825405101916822
 20
341.21269737691517
 30
0.0
  0
POINT
  5
A0
  8
DEFPOINTS
 62
     0
 10
42.825405101916822
 20
341.21269737691517
 30
0.0
  0
ENDBLK
  5
A1
  8
0
  0
BLOCK
  8
0
  2
*D4
 70
     1
 10
0.0
 20
0.0
 30
0.0
  3
*D4
  1

  0
LINE
  5
A4
  8
0
 62
     1
 10
33.812396304115197
 20
355.00558204873869
 30
0.0
 11
44.852858395041856
 21
355.00558204873869
 31
0.0
  0
LINE
  5
A5
  8
0
 62
     1
 10
53.812396304115211
 20
355.00558204873869
 30
0.0
 11
50.638572680756141
 21
355.00558204873869
 31
0.0
  0
SOLID
  5
A6
  8
0
 62
     1
 10
33.812396304115197
 20
355.04724871540537
 30
0.0
 11
33.812396304115197
 21
354.963915382072
 31
0.0
 12
33.562396304115197
 22
355.00558204873869
 32
0.0
 13
33.562396304115197
 23
355.00558204873869
 33
0.0
  0
SOLID
  5
A7
  8
0
 62
     1
 10
53.812396304115211
 20
355.04724871540537
 30
0.0
 11
53.812396304115211
 21
354.963915382072
 31
0.0
 12
54.062396304115197
 22
355.00558204873869
 32
0.0
 13
54.062396304115197
 23
355.00558204873869
 33
0.0
  0
INSERT
  5
A8
  8
0
  2
*U9
 10
0.0
 20
0.0
 30
0.0
  0
POINT
  5
A9
  8
DEFPOINTS
 62
     0
 10
33.562396304115197
 20
355.00558204873869
 30
0.0
  0
POINT
  5
AA
  8
DEFPOINTS
 62
     0
 10
54.062396304115197
 20
355.00558204873869
 30
0.0
  0
POINT
  5
AB
  8
DEFPOINTS
 62
     0
 10
54.062396304115197
 20
355.00558204873869
 30
0.0
  0
ENDBLK
  5
AC
  8
0
  0
BLOCK
  8
0
  2
*D6
 70
     1
 10
0.0
 20
0.0
 30
0.0
  3
*D6
  1

  0
LINE
  5
EC
  8
0
 62
     1
 10
9.4977072758572199
 20
18.191626406304032
 30
0.0
 11
9.4977072758572181
 21
10.703531168208791
 31
0.0
  0
LINE
  5
ED
  8
0
 62
     1
 10
9.4977072758572163
 20
1.1916264063040309
 30
0.0
 11
9.4977072758572181
 21
8.6797216443992706
 31
0.0
  0
SOLID
  5
EE
  8
0
 62
     1
 10
9.4560406091905538
 20
18.191626406304032
 30
0.0
 11
9.5393739425238842
 21
18.191626406304032
 31
0.0
 12
9.4977072758572199
 22
18.441626406304032
 32
0.0
 13
9.4977072758572199
 23
18.441626406304032
 33
0.0
  0
SOLID
  5
EF
  8
0
 62
     1
 10
9.4560406091905502
 20
1.1916264063040309
 30
0.0
 11
9.5393739425238824
 21
1.1916264063040309
 31
0.0
 12
9.4977072758572163
 22
0.9416264063040316
 32
0.0
 13
9.4977072758572163
 23
0.9416264063040316
 33
0.0
  0
INSERT
  5
F0
  8
0
  2
*U11
 10
0.0
 20
0.0
 30
0.0
  0
POINT
  5
F1
  8
DEFPOINTS
 62
     0
 10
9.4977072758572163
 20
18.441626406304032
 30
0.0
  0
POINT
  5
F2
  8
DEFPOINTS
 62
     0
 10
9.4977072758572163
 20
0.9416264063040316
 30
0.0
  0
POINT
  5
F3
  8
DEFPOINTS
 62
     0
 10
9.4977072758572163
 20
0.9416264063040316
 30
0.0
  0
ENDBLK
  5
D8
  8
0
  0
BLOCK
  8
0
  2
*D7
 70
     1
 10
0.0
 20
0.0
 30
0.0
  3
*D7
  1

  0
LINE
  5
F4
  8
0
 62
     1
 10
0.4846984780555843
 20
14.73451107812755
 30
0.0
 11
11.525160568982249
 21
14.73451107812755
 31
0.0
  0
LINE
  5
F5
  8
0
 62
     1
 10
20.484698478055591
 20
14.73451107812755
 30
0.0
 11
17.310874854696529
 21
14.73451107812755
 31
0.0
  0
SOLID
  5
F6
  8
0
 62
     1
 10
0.4846984780555843
 20
14.776177744794211
 30
0.0
 11
0.4846984780555843
 21
14.69284441146088
 31
0.0
 12
0.2346984780555843
 22
14.73451107812755
 32
0.0
 13
0.2346984780555843
 23
14.73451107812755
 33
0.0
  0
SOLID
  5
F7
  8
0
 62
     1
 10
20.484698478055591
 20
14.776177744794211
 30
0.0
 11
20.484698478055591
 21
14.69284441146088
 31
0.0
 12
20.734698478055591
 22
14.73451107812755
 32
0.0
 13
20.734698478055591
 23
14.73451107812755
 33
0.0
  0
INSERT
  5
F8
  8
0
  2
*U12
 10
0.0
 20
0.0
 30
0.0
  0
POINT
  5
F9
  8
DEFPOINTS
 62
     0
 10
0.2346984780555843
 20
14.73451107812755
 30
0.0
  0
POINT
  5
FA
  8
DEFPOINTS
 62
     0
 10
20.734698478055591
 20
14.73451107812755
 30
0.0
  0
POINT
  5
FB
  8
DEFPOINTS
 62
     0
 10
20.734698478055591
 20
14.73451107812755
 30
0.0
  0
ENDBLK
  5
E3
  8
0
  0
BLOCK
  8
0
  2
*U8
 70
     1
 10
0.0
 20
0.0
 30
0.0
  3
*U8
  1

  0
TEXT
  5
161
  8
0
 62
     1
 10
40.277786054297721
 20
349.6293640435818
 30
0.0
 40
1.0
  1
17 1/2
  7
SX
  0
ENDBLK
  5
163
  8
0
  0
BLOCK
  8
0
  2
*U9
 70
     1
 10
0.0
 20
0.0
 30
0.0
  3
*U9
  1

  0
TEXT
  5
165
  8
0
 62
     1
 10
45.102858395041856
 20
354.67224871540532
 30
0.0
 40
1.0
  1
20 1/2
  7
SX
  0
ENDBLK
  5
167
  8
0
  0
BLOCK
  8
0
  2
*U10
 70
     1
 10
0.0
 20
0.0
 30
0.0
  3
*U10
  1

  0
TEXT
  5
16D
  8
0
 10
10.501842893017001
 20
2.3801604229091851
 30
0.0
 40
0.625
  1
QSUA1922/8
  7
MMISOCP
  0
ENDBLK
  5
16F
  8
0
  0
BLOCK
  8
0
  2
*U11
 70
     1
 10
0.0
 20
0.0
 30
0.0
  3
*U11
  1

  0
TEXT
  5
171
  8
0
 62
     1
 10
6.9500882282381689
 20
9.358293072970703
 30
0.0
 40
1.0
  1
17 1/2
  7
SX
  0
ENDBLK
  5
173
  8
0
  0
BLOCK
  8
0
  2
*U12
 70
     1
 10
0.0
 20
0.0
 30
0.0
  3
*U12
  1

  0
TEXT
  5
175
  8
0
 62
     1
 10
11.775160568982249
 20
14.401177744794211
 30
0.0
 40
1.0
  1
20 1/2
  7
SX
  0
ENDBLK
  5
177
  8
0
  0
ENDSEC
  0
SECTION
  2
ENTITIES
  0
VIEWPORT
  5
89
 67
     1
  8
0
 10
11.892608998395071
 20
11.011290633618909
 30
0.0
 40
51.010710673754943
 41
23.054777580110478
 68
     1
 69
     1
1001
ACAD
1000
MVIEW
1002
{
1070
    16
1010
0.0
1020
0.0
1030
0.0
1010
0.0
1020
0.0
1030
1.0
1040
0.0
1040
23.054777580110478
1040
11.892608998395071
1040
11.011290633618909
1040
50.0
1040
0.0
1040
0.0
1070
     0
1070
  1000
1070
     1
1070
     1
1070
     0
1070
     0
1070
     0
1070
     0
1040
0.0
1040
0.0
1040
0.0
1040
0.5
1040
0.5
1040
0.5
1040
0.5
1070
     0
1002
{
1002
}
1002
}
  0
LINE
  5
CB
 67
     1
  8
0
 10
0.2346984780555843
 20
16.191626406304032
 30
0.0
 11
0.2346984780555843
 21
3.1916264063040312
 31
0.0
  0
ARC
  5
CC
 67
     1
  8
0
 10
2.4846984780555839
 20
3.1916264063040312
 30
0.0
 40
2.25
 50
180.0
 51
270.0
  0
LINE
  5
CD
 67
     1
  8
0
 10
20.734698478055581
 20
16.191626406304032
 30
0.0
 11
20.734698478055581
 21
3.1916264063040312
 31
0.0
  0
ARC
  5
CE
 67
     1
  8
0
 10
18.484698478055581
 20
16.191626406304032
 30
0.0
 40
2.25
 50
0.0
 51
90.0
  0
LINE
  5
CF
 67
     1
  8
0
 10
2.4846984780555839
 20
18.441626406304032
 30
0.0
 11
18.484698478055581
 21
18.441626406304032
 31
0.0
  0
ARC
  5
D0
 67
     1
  8
0
 10
2.4846984780555839
 20
16.191626406304032
 30
0.0
 40
2.25
 50
90.0
 51
180.0
  0
LINE
  5
D1
 67
     1
  8
0
 10
2.4846984780555839
 20
0.9416264063040316
 30
0.0
 11
18.484698478055581
 21
0.9416264063040316
 31
0.0
  0
ARC
  5
D2
 67
     1
  8
0
 10
18.484698478055581
 20
3.1916264063040312
 30
0.0
 40
2.25
 50
270.0
 51
0.0
  0
ENDSEC
  0
EOF
