  0
SECTION
  2
HEADER
  9
$ACADVER
  1
AC1009
  9
$INSBASE
 10
0.0
 20
0.0
 30
0.0
  9
$EXTMIN
 10
1.0000000000000000E+020
 20
1.0000000000000000E+020
 30
1.0000000000000000E+020
  9
$EXTMAX
 10
-1.0000000000000000E+020
 20
-1.0000000000000000E+020
 30
-1.0000000000000000E+020
  9
$LIMMIN
 10
0.0
 20
0.0
  9
$LIMMAX
 10
12.0
 20
9.0
  9
$ORTHOMODE
 70
     0
  9
$REGENMODE
 70
     1
  9
$FILLMODE
 70
     1
  9
$QTEXTMODE
 70
     0
  9
$MIRRTEXT
 70
     0
  9
$DRAGMODE
 70
     2
  9
$LTSCALE
 40
1.0
  9
$OSMODE
 70
  2751
  9
$ATTMODE
 70
     1
  9
$TEXTSIZE
 40
0.2
  9
$TRACEWID
 40
0.05
  9
$TEXTSTYLE
  7
STANDARD
  9
$CLAYER
  8
0
  9
$CELTYPE
  6
BYLAYER
  9
$CECOLOR
 62
   256
  9
$DIMSCALE
 40
1.0
  9
$DIMASZ
 40
0.18
  9
$DIMEXO
 40
0.0625
  9
$DIMDLI
 40
0.38
  9
$DIMRND
 40
0.0
  9
$DIMDLE
 40
0.0
  9
$DIMEXE
 40
0.18
  9
$DIMTP
 40
0.0
  9
$DIMTM
 40
0.0
  9
$DIMTXT
 40
0.18
  9
$DIMCEN
 40
0.09
  9
$DIMTSZ
 40
0.0
  9
$DIMTOL
 70
     0
  9
$DIMLIM
 70
     0
  9
$DIMTIH
 70
     1
  9
$DIMTOH
 70
     1
  9
$DIMSE1
 70
     0
  9
$DIMSE2
 70
     0
  9
$DIMTAD
 70
     0
  9
$DIMZIN
 70
     0
  9
$DIMBLK
  1

  9
$DIMASO
 70
     1
  9
$DIMSHO
 70
     1
  9
$DIMPOST
  1

  9
$DIMAPOST
  1

  9
$DIMALT
 70
     0
  9
$DIMALTD
 70
     2
  9
$DIMALTF
 40
25.399999999999999
  9
$DIMLFAC
 40
1.0
  9
$DIMTOFL
 70
     0
  9
$DIMTVP
 40
0.0
  9
$DIMTIX
 70
     0
  9
$DIMSOXD
 70
     0
  9
$DIMSAH
 70
     0
  9
$DIMBLK1
  1

  9
$DIMBLK2
  1

  9
$DIMSTYLE
  2
STANDARD
  9
$DIMCLRD
 70
     0
  9
$DIMCLRE
 70
     0
  9
$DIMCLRT
 70
     0
  9
$DIMTFAC
 40
1.0
  9
$DIMGAP
 40
0.09
  9
$LUNITS
 70
     2
  9
$LUPREC
 70
     4
  9
$SKETCHINC
 40
0.1
  9
$FILLETRAD
 40
0.0
  9
$AUNITS
 70
     0
  9
$AUPREC
 70
     0
  9
$MENU
  1
.
  9
$ELEVATION
 40
0.0
  9
$PELEVATION
 40
0.0
  9
$THICKNESS
 40
0.0
  9
$LIMCHECK
 70
     0
  9
$BLIPMODE
 70
     0
  9
$CHAMFERA
 40
0.0
  9
$CHAMFERB
 40
0.0
  9
$SKPOLY
 70
     0
  9
$TDCREATE
 40
2457737.559433762
  9
$TDUPDATE
 40
2457760.4238204979
  9
$TDINDWG
 40
0.0008091204
  9
$TDUSRTIMER
 40
0.0008090856
  9
$USRTIMER
 70
     1
  9
$ANGBASE
 50
0.0
  9
$ANGDIR
 70
     0
  9
$PDMODE
 70
     0
  9
$PDSIZE
 40
0.0
  9
$PLINEWID
 40
0.0
  9
$COORDS
 70
     1
  9
$SPLFRAME
 70
     0
  9
$SPLINETYPE
 70
     6
  9
$SPLINESEGS
 70
     8
  9
$ATTDIA
 70
     1
  9
$ATTREQ
 70
     1
  9
$HANDLING
 70
     1
  9
$HANDSEED
  5
2B9
  9
$SURFTAB1
 70
     6
  9
$SURFTAB2
 70
     6
  9
$SURFTYPE
 70
     6
  9
$SURFU
 70
     6
  9
$SURFV
 70
     6
  9
$UCSNAME
  2

  9
$UCSORG
 10
0.0
 20
0.0
 30
0.0
  9
$UCSXDIR
 10
1.0
 20
0.0
 30
0.0
  9
$UCSYDIR
 10
0.0
 20
1.0
 30
0.0
  9
$PUCSNAME
  2

  9
$PUCSORG
 10
0.0
 20
0.0
 30
0.0
  9
$PUCSXDIR
 10
1.0
 20
0.0
 30
0.0
  9
$PUCSYDIR
 10
0.0
 20
1.0
 30
0.0
  9
$USERI1
 70
     0
  9
$USERI2
 70
     0
  9
$USERI3
 70
     0
  9
$USERI4
 70
     0
  9
$USERI5
 70
     0
  9
$USERR1
 40
0.0
  9
$USERR2
 40
0.0
  9
$USERR3
 40
0.0
  9
$USERR4
 40
0.0
  9
$USERR5
 40
0.0
  9
$WORLDVIEW
 70
     1
  9
$SHADEDGE
 70
     3
  9
$SHADEDIF
 70
    70
  9
$TILEMODE
 70
     0
  9
$MAXACTVP
 70
    64
  9
$PLIMCHECK
 70
     0
  9
$PEXTMIN
 10
-6.7623378968945644
 20
1.840954912851906
 30
-0.0015258207003583
  9
$PEXTMAX
 10
14.433616878054799
 20
16.832101095224189
 30
0.0000000349246037
  9
$PLIMMIN
 10
0.0
 20
0.0
  9
$PLIMMAX
 10
12.0
 20
9.0
  9
$UNITMODE
 70
     0
  9
$VISRETAIN
 70
     1
  9
$PLINEGEN
 70
     0
  9
$PSLTSCALE
 70
     1
  0
ENDSEC
  0
SECTION
  2
TABLES
  0
TABLE
  2
VPORT
 70
     1
  0
VPORT
  2
*ACTIVE
 70
     0
 10
0.0
 20
0.0
 11
1.0
 21
1.0
 12
18.196261682242991
 22
4.5
 13
0.0
 23
0.0
 14
0.5
 24
0.5
 15
0.5
 25
0.5
 16
0.0
 26
0.0
 36
1.0
 17
0.0
 27
0.0
 37
0.0
 40
8.3291925465838492
 41
4.3703703703703694
 42
50.0
 43
0.0
 44
0.0
 50
0.0
 51
0.0
 71
     0
 72
  1000
 73
     1
 74
     3
 75
     0
 76
     0
 77
     0
 78
     0
  0
ENDTAB
  0
TABLE
  2
LTYPE
 70
     1
  0
LTYPE
  2
CONTINUOUS
 70
     0
  3
Solid line
 72
    65
 73
     0
 40
0.0
  0
ENDTAB
  0
TABLE
  2
LAYER
 70
     2
  0
LAYER
  2
0
 70
     0
 62
     7
  6
CONTINUOUS
  0
LAYER
  2
DEFPOINTS
 70
     0
 62
     7
  6
CONTINUOUS
  0
ENDTAB
  0
TABLE
  2
STYLE
 70
     4
  0
STYLE
  2
STANDARD
 70
     0
 40
0.0
 41
1.0
 50
0.0
 71
     0
 42
0.2
  3
txt
  4

  0
STYLE
  2
ANNOTATIVE
 70
     0
 40
0.0
 41
1.0
 50
0.0
 71
     0
 42
0.2
  3
txt
  4

  0
STYLE
  2
MMISOCP
 70
     0
 40
0.0
 41
1.0
 50
0.0
 71
     0
 42
2.5
  3
isocp.shx
  4

  0
STYLE
  2
SX
 70
     0
 40
1.0
 41
1.0
 50
0.0
 71
     0
 42
1.0
  3
simplex.shx
  4

  0
ENDTAB
  0
TABLE
  2
VIEW
 70
     0
  0
ENDTAB
  0
TABLE
  2
UCS
 70
     0
  0
ENDTAB
  0
TABLE
  2
APPID
 70
    11
  0
APPID
  2
ACAD
 70
     0
  0
APPID
  2
ACADANNOTATIVE
 70
     0
  0
APPID
  2
ACAD_NAV_VCDISPLAY
 70
     0
  0
APPID
  2
ACAD_PSEXT
 70
     0
  0
APPID
  2
ACAD_DSTYLE_DIMJAG
 70
     0
  0
APPID
  2
ACAD_DSTYLE_DIMBREAK
 70
     0
  0
APPID
  2
ACAD_DSTYLE_DIMTALN
 70
     0
  0
APPID
  2
ACAD_DSTYLE_DIMRADIAL_EXTENSION
 70
     0
  0
APPID
  2
ACAD_EXEMPT_FROM_CAD_STANDARDS
 70
     0
  0
APPID
  2
AMACAD
 70
     0
  0
APPID
  2
ACAD_MLEADERVER
 70
     0
  0
ENDTAB
  0
TABLE
  2
DIMSTYLE
 70
     8
  0
DIMSTYLE
  2
STANDARD
 70
     0
  3

  4

  5

  6

  7

 40
1.0
 41
0.18
 42
0.0625
 43
0.38
 44
0.18
 45
0.0
 46
0.0
 47
0.0
 48
0.0
140
0.18
141
0.09
142
0.0
143
25.399999999999999
144
1.0
145
0.0
146
1.0
147
0.09
 71
     0
 72
     0
 73
     1
 74
     1
 75
     0
 76
     0
 77
     0
 78
     0
170
     0
171
     2
172
     0
173
     0
174
     0
175
     0
176
     0
177
     0
178
     0
  0
DIMSTYLE
  2
ANNOTATIVE
 70
     0
  3

  4

  5

  6

  7

 40
1.0
 41
0.18
 42
0.0625
 43
0.38
 44
0.18
 45
0.0
 46
0.0
 47
0.0
 48
0.0
140
0.18
141
0.09
142
0.0
143
25.399999999999999
144
1.0
145
0.0
146
1.0
147
0.09
 71
     0
 72
     0
 73
     1
 74
     1
 75
     0
 76
     0
 77
     0
 78
     0
170
     0
171
     2
172
     0
173
     0
174
     0
175
     0
176
     0
177
     0
178
     0
  0
DIMSTYLE
  2
ISO-25
 70
     0
  3

  4

  5

  6

  7

 40
1.0
 41
2.5
 42
0.625
 43
3.75
 44
1.25
 45
0.0
 46
0.0
 47
0.0
 48
0.0
140
2.5
141
2.5
142
0.0
143
0.03937007874016
144
1.0
145
0.0
146
1.0
147
0.625
 71
     0
 72
     0
 73
     0
 74
     0
 75
     0
 76
     0
 77
     1
 78
     8
170
     0
171
     3
172
     1
173
     0
174
     0
175
     0
176
     0
177
     0
178
     0
  0
DIMSTYLE
  2
MM_KBT
 70
     0
  3

  4

  5

  6

  7

 40
0.0
 41
3.5
 42
0.0
 43
20.0
 44
2.0
 45
0.0
 46
0.0
 47
0.0
 48
0.0
140
3.5
141
0.0
142
0.0
143
0.0394
144
1.0
145
0.0
146
1.0
147
0.625
 71
     0
 72
     0
 73
     0
 74
     0
 75
     0
 76
     1
 77
     2
 78
     8
170
     0
171
     2
172
     1
173
     1
174
     0
175
     0
176
     0
177
     0
178
     5
  0
DIMSTYLE
  2
MMM
 70
     0
  3

  4

  5

  6

  7

 40
0.0
 41
2.5
 42
2.0
 43
10.0
 44
2.0
 45
0.0
 46
0.0
 47
0.0
 48
0.0
140
3.5
141
0.0
142
0.0
143
0.0394
144
1.0
145
0.0
146
1.0
147
0.625
 71
     0
 72
     0
 73
     0
 74
     0
 75
     0
 76
     0
 77
     1
 78
     8
170
     0
171
     2
172
     1
173
     0
174
     0
175
     0
176
     3
177
     3
178
     2
  0
DIMSTYLE
  2
AM_ISO
 70
     0
  3

  4
"
  5

  6

  7

 40
1.0
 41
2.5
 42
1.0
 43
10.0
 44
1.0
 45
0.0
 46
0.0
 47
0.1
 48
0.1
140
3.5
141
0.0
142
0.0
143
0.0393701
144
1.0
145
0.0
146
0.71
147
1.5
 71
     0
 72
     0
 73
     0
 74
     0
 75
     0
 76
     0
 77
     1
 78
     8
170
     0
171
     2
172
     1
173
     0
174
     0
175
     0
176
   256
177
   256
178
     2
  0
DIMSTYLE
  2
KINDRED
 70
     0
  3

  4

  5

  6

  7

 40
2.0
 41
0.25
 42
0.25
 43
0.375
 44
0.25
 45
0.0
 46
0.0
 47
0.0
 48
0.0
140
1.0
141
0.25
142
0.0
143
25.399999999999999
144
1.0
145
0.0
146
1.0
147
0.25
 71
     0
 72
     0
 73
     1
 74
     1
 75
     0
 76
     0
 77
     0
 78
     0
170
     0
171
     2
172
     0
173
     0
174
     0
175
     0
176
     1
177
     1
178
     1
  0
DIMSTYLE
  2
KINDRED$0
 70
     0
  3

  4

  5

  6

  7

 40
2.0
 41
0.25
 42
0.25
 43
0.375
 44
0.25
 45
0.0
 46
0.0
 47
0.0
 48
0.0
140
1.0
141
0.25
142
0.0
143
25.399999999999999
144
1.0
145
0.0
146
1.0
147
0.25
 71
     0
 72
     0
 73
     1
 74
     1
 75
     0
 76
     0
 77
     0
 78
     0
170
     0
171
     2
172
     0
173
     0
174
     0
175
     0
176
     1
177
     1
178
     1
  0
ENDTAB
  0
ENDSEC
  0
SECTION
  2
BLOCKS
  0
BLOCK
  8
0
  2
$MODEL_SPACE
 70
     0
 10
0.0
 20
0.0
 30
0.0
  3
$MODEL_SPACE
  1

  0
ENDBLK
  5
226
  8
0
  0
BLOCK
 67
     1
  8
0
  2
$PAPER_SPACE
 70
     0
 10
0.0
 20
0.0
 30
0.0
  3
$PAPER_SPACE
  1

  0
ENDBLK
  5
222
 67
     1
  8
0
  0
BLOCK
  8
0
  2
_CLOSEDBLANK
 70
     0
 10
0.0
 20
0.0
 30
0.0
  3
_CLOSEDBLANK
  1

  0
LINE
  5
8F
  8
0
  6
BYBLOCK
 62
     0
 10
-1.0
 20
0.1666666666666666
 30
0.0
 11
0.0
 21
0.0
 31
0.0
  0
LINE
  5
90
  8
0
  6
BYBLOCK
 62
     0
 10
0.0
 20
0.0
 30
0.0
 11
-1.0
 21
-0.1666666666666666
 31
0.0
  0
LINE
  5
91
  8
0
  6
BYBLOCK
 62
     0
 10
-1.0
 20
0.1666666666666666
 30
0.0
 11
-1.0
 21
-0.1666666666666666
 31
0.0
  0
ENDBLK
  5
92
  8
0
  0
BLOCK
  8
0
  2
_SMALL
 70
     0
 10
0.0
 20
0.0
 30
0.0
  3
_SMALL
  1

  0
CIRCLE
  5
95
  8
0
 62
     0
 10
0.0
 20
0.0
 30
0.0
 40
0.25
  0
ENDBLK
  5
96
  8
0
  0
BLOCK
  8
0
  2
*D4
 70
     1
 10
0.0
 20
0.0
 30
0.0
  3
*D4
  1

  0
LINE
  5
99
  8
0
 62
     1
 10
137.44799682178311
 20
333.65619419808428
 30
0.0
 11
137.44799682178311
 21
333.92193910964818
 31
0.0
  0
LINE
  5
9A
  8
0
 62
     1
 10
152.07299682178311
 20
333.65619419808428
 30
0.0
 11
152.07299682178311
 21
333.92193910964818
 31
0.0
  0
LINE
  5
9B
  8
0
 62
     1
 10
137.69799682178311
 20
333.67193910964818
 30
0.0
 11
141.867639678926
 21
333.67193910964818
 31
0.0
  0
LINE
  5
9C
  8
0
 62
     1
 10
151.82299682178311
 20
333.67193910964818
 30
0.0
 11
147.65335396464019
 21
333.67193910964818
 31
0.0
  0
SOLID
  5
9D
  8
0
 62
     1
 10
137.69799682178311
 20
333.71360577631492
 30
0.0
 11
137.69799682178311
 21
333.63027244298172
 31
0.0
 12
137.44799682178311
 22
333.67193910964818
 32
0.0
 13
137.44799682178311
 23
333.67193910964818
 33
0.0
  0
SOLID
  5
9E
  8
0
 62
     1
 10
151.82299682178311
 20
333.71360577631492
 30
0.0
 11
151.82299682178311
 21
333.63027244298172
 31
0.0
 12
152.07299682178311
 22
333.67193910964818
 32
0.0
 13
152.07299682178311
 23
333.67193910964818
 33
0.0
  0
INSERT
  5
9F
  8
0
  2
*U5
 10
0.0
 20
0.0
 30
0.0
  0
POINT
  5
A0
  8
DEFPOINTS
 62
     0
 10
137.44799682178311
 20
333.40619419808428
 30
0.0
  0
POINT
  5
A1
  8
DEFPOINTS
 62
     0
 10
152.07299682178311
 20
333.40619419808428
 30
0.0
  0
POINT
  5
A2
  8
DEFPOINTS
 62
     0
 10
152.07299682178311
 20
333.67193910964818
 30
0.0
  0
ENDBLK
  5
A3
  8
0
  0
BLOCK
  8
0
  2
*U5
 70
     1
 10
0.0
 20
0.0
 30
0.0
  3
*U5
  1

  0
TEXT
  5
191
  8
0
 62
     1
 10
142.117639678926
 20
333.33860577631492
 30
0.0
 40
1.0
  1
14 5/8
  7
SX
  0
ENDBLK
  5
193
  8
0
  0
BLOCK
  8
0
  2
*D6
 70
     1
 10
0.0
 20
0.0
 30
0.0
  3
*D6
  1

  0
LINE
  5
A6
  8
0
 62
     1
 10
147.88764463534361
 20
343.4328003817522
 30
0.0
 11
148.68559946095311
 21
343.4328003817522
 31
0.0
  0
LINE
  5
A7
  8
0
 62
     1
 10
147.88764463534361
 20
328.80780038175209
 30
0.0
 11
148.68559946095311
 21
328.80780038175209
 31
0.0
  0
LINE
  5
A8
  8
0
 62
     1
 10
148.43559946095311
 20
343.1828003817522
 30
0.0
 11
148.43559946095311
 21
337.13220514365707
 31
0.0
  0
LINE
  5
A9
  8
0
 62
     1
 10
148.43559946095311
 20
329.05780038175197
 30
0.0
 11
148.43559946095311
 21
335.1083956198475
 31
0.0
  0
SOLID
  5
AA
  8
0
 62
     1
 10
148.39393279428651
 20
343.1828003817522
 30
0.0
 11
148.4772661276198
 21
343.1828003817522
 31
0.0
 12
148.43559946095311
 22
343.4328003817522
 32
0.0
 13
148.43559946095311
 23
343.4328003817522
 33
0.0
  0
SOLID
  5
AB
  8
0
 62
     1
 10
148.39393279428651
 20
329.05780038175197
 30
0.0
 11
148.4772661276198
 21
329.05780038175197
 31
0.0
 12
148.43559946095311
 22
328.80780038175209
 32
0.0
 13
148.43559946095311
 23
328.80780038175209
 33
0.0
  0
INSERT
  5
AC
  8
0
  2
*U7
 10
0.0
 20
0.0
 30
0.0
  0
POINT
  5
AD
  8
DEFPOINTS
 62
     0
 10
147.63764463534361
 20
343.4328003817522
 30
0.0
  0
POINT
  5
AE
  8
DEFPOINTS
 62
     0
 10
147.63764463534361
 20
328.80780038175209
 30
0.0
  0
POINT
  5
AF
  8
DEFPOINTS
 62
     0
 10
148.43559946095311
 20
328.80780038175209
 30
0.0
  0
ENDBLK
  5
B0
  8
0
  0
BLOCK
  8
0
  2
*U7
 70
     1
 10
0.0
 20
0.0
 30
0.0
  3
*U7
  1

  0
TEXT
  5
195
  8
0
 62
     1
 10
145.792742318096
 20
335.78696704841889
 30
0.0
 40
1.0
  1
14 5/8
  7
SX
  0
ENDBLK
  5
197
  8
0
  0
BLOCK
  8
0
  2
*D8
 70
     1
 10
0.0
 20
0.0
 30
0.0
  3
*D8
  1

  0
LINE
  5
B3
  8
0
 62
     1
 10
137.8070145414878
 20
342.77870721681182
 30
0.0
 11
137.61643090438579
 21
342.94050300559798
 31
0.0
  0
LINE
  5
B4
  8
0
 62
     1
 10
137.61643090438579
 20
342.94050300559798
 30
0.0
 11
137.36643090438579
 21
342.94050300559798
 31
0.0
  0
SOLID
  5
B5
  8
0
 62
     1
 10
137.83398050628551
 20
342.81047115632867
 30
0.0
 11
137.78004857669001
 21
342.74694327729469
 31
0.0
 12
137.99759817858981
 22
342.61691142802528
 32
0.0
 13
137.99759817858981
 23
342.61691142802528
 33
0.0
  0
INSERT
  5
B6
  8
0
  2
*U9
 10
0.0
 20
0.0
 30
0.0
  0
LINE
  5
B7
  8
0
 62
     1
 10
139.51049682178331
 20
341.1203003817518
 30
0.0
 11
140.01049682178339
 21
341.12030038175192
 31
0.0
  0
LINE
  5
B8
  8
0
 62
     1
 10
139.76049682178339
 20
340.87030038175192
 30
0.0
 11
139.76049682178339
 21
341.37030038175192
 31
0.0
  0
POINT
  5
B9
  8
DEFPOINTS
 62
     0
 10
137.99759817858981
 20
342.61691142802528
 30
0.0
  0
POINT
  5
BA
  8
DEFPOINTS
 62
     0
 10
139.76049682178339
 20
341.12030038175192
 30
0.0
  0
ENDBLK
  5
BB
  8
0
  0
BLOCK
  8
0
  2
*U9
 70
     1
 10
0.0
 20
0.0
 30
0.0
  3
*U9
  1

  0
TEXT
  5
199
  8
0
 62
     1
 10
130.87833566629061
 20
342.6071696722646
 30
0.0
 40
1.0
  1
R2 5/16
  7
SX
  0
ENDBLK
  5
19B
  8
0
  0
BLOCK
  8
0
  2
*D10
 70
     1
 10
0.0
 20
0.0
 30
0.0
  3
*D10
  1

  0
LINE
  5
10E
  8
0
 62
     1
 10
-0.192029981021264
 20
6.6901357320944559
 30
0.0
 11
-0.192029981021264
 21
6.955880643658471
 31
0.0
  0
LINE
  5
10F
  8
0
 62
     1
 10
14.432970018978731
 20
6.6901357320944559
 30
0.0
 11
14.432970018978731
 21
6.955880643658471
 31
0.0
  0
LINE
  5
110
  8
0
 62
     1
 10
0.057970018978736
 20
6.705880643658471
 30
0.0
 11
4.2276128761215919
 21
6.705880643658471
 31
0.0
  0
LINE
  5
111
  8
0
 62
     1
 10
14.182970018978731
 20
6.705880643658471
 30
0.0
 11
10.01332716183588
 21
6.705880643658471
 31
0.0
  0
SOLID
  5
112
  8
0
 62
     1
 10
0.057970018978736
 20
6.7475473103251371
 30
0.0
 11
0.057970018978736
 21
6.6642139769918041
 31
0.0
 12
-0.192029981021264
 22
6.705880643658471
 32
0.0
 13
-0.192029981021264
 23
6.705880643658471
 33
0.0
  0
SOLID
  5
113
  8
0
 62
     1
 10
14.182970018978731
 20
6.7475473103251371
 30
0.0
 11
14.182970018978731
 21
6.6642139769918041
 31
0.0
 12
14.432970018978731
 22
6.705880643658471
 32
0.0
 13
14.432970018978731
 23
6.705880643658471
 33
0.0
  0
INSERT
  5
114
  8
0
  2
*U11
 10
0.0
 20
0.0
 30
0.0
  0
POINT
  5
115
  8
DEFPOINTS
 62
     0
 10
-0.192029981021264
 20
6.4401357320944559
 30
0.0
  0
POINT
  5
116
  8
DEFPOINTS
 62
     0
 10
14.432970018978731
 20
6.4401357320944559
 30
0.0
  0
POINT
  5
117
  8
DEFPOINTS
 62
     0
 10
14.432970018978731
 20
6.705880643658471
 30
0.0
  0
ENDBLK
  5
EB
  8
0
  0
BLOCK
  8
0
  2
*U11
 70
     1
 10
0.0
 20
0.0
 30
0.0
  3
*U11
  1

  0
TEXT
  5
1AB
  8
0
 62
     1
 10
4.4776128761215919
 20
6.3725473103251371
 30
0.0
 40
1.0
  1
14 5/8
  7
SX
  0
ENDBLK
  5
1AD
  8
0
  0
BLOCK
  8
0
  2
*D12
 70
     1
 10
0.0
 20
0.0
 30
0.0
  3
*D12
  1

  0
LINE
  5
118
  8
0
 62
     1
 10
10.24761783253917
 20
16.46674191576243
 30
0.0
 11
11.045572658148799
 21
16.46674191576243
 31
0.0
  0
LINE
  5
119
  8
0
 62
     1
 10
10.24761783253917
 20
1.8417419157623789
 30
0.0
 11
11.045572658148799
 21
1.8417419157623789
 31
0.0
  0
LINE
  5
11A
  8
0
 62
     1
 10
10.795572658148799
 20
16.216741915762441
 30
0.0
 11
10.795572658148799
 21
10.16614667766717
 31
0.0
  0
LINE
  5
11B
  8
0
 62
     1
 10
10.795572658148799
 20
2.0917419157623791
 30
0.0
 11
10.795572658148799
 21
8.1423371538576461
 31
0.0
  0
SOLID
  5
11C
  8
0
 62
     1
 10
10.75390599148213
 20
16.216741915762441
 30
0.0
 11
10.837239324815471
 21
16.216741915762441
 31
0.0
 12
10.795572658148799
 22
16.46674191576243
 32
0.0
 13
10.795572658148799
 23
16.46674191576243
 33
0.0
  0
SOLID
  5
11D
  8
0
 62
     1
 10
10.75390599148213
 20
2.0917419157623791
 30
0.0
 11
10.83723932481546
 21
2.0917419157623791
 31
0.0
 12
10.795572658148799
 22
1.8417419157623789
 32
0.0
 13
10.795572658148799
 23
1.8417419157623789
 33
0.0
  0
INSERT
  5
11E
  8
0
  2
*U13
 10
0.0
 20
0.0
 30
0.0
  0
POINT
  5
11F
  8
DEFPOINTS
 62
     0
 10
9.9976178325391754
 20
16.46674191576243
 30
0.0
  0
POINT
  5
120
  8
DEFPOINTS
 62
     0
 10
9.9976178325391754
 20
1.8417419157623789
 30
0.0
  0
POINT
  5
121
  8
DEFPOINTS
 62
     0
 10
10.795572658148799
 20
1.8417419157623789
 30
0.0
  0
ENDBLK
  5
F8
  8
0
  0
BLOCK
  8
0
  2
*U13
 70
     1
 10
0.0
 20
0.0
 30
0.0
  3
*U13
  1

  0
TEXT
  5
1AF
  8
0
 62
     1
 10
8.1527155152916571
 20
8.8209085824290803
 30
0.0
 40
1.0
  1
14 5/8
  7
SX
  0
ENDBLK
  5
1B1
  8
0
  0
BLOCK
  8
0
  2
*D14
 70
     1
 10
0.0
 20
0.0
 30
0.0
  3
*D14
  1

  0
LINE
  5
122
  8
0
 62
     1
 10
0.1669877386834049
 20
15.81264875082198
 30
0.0
 11
-0.0235958984185709
 21
15.974444539608291
 31
0.0
  0
LINE
  5
123
  8
0
 62
     1
 10
-0.0235958984185709
 20
15.974444539608291
 30
0.0
 11
-0.2735958984185718
 21
15.974444539608291
 31
0.0
  0
SOLID
  5
124
  8
0
 62
     1
 10
0.1939537034811218
 20
15.844412690338981
 30
0.0
 11
0.1400217738856879
 21
15.78088481130499
 31
0.0
 12
0.3575713757853816
 22
15.65085296203568
 32
0.0
 13
0.3575713757853816
 23
15.65085296203568
 33
0.0
  0
INSERT
  5
125
  8
0
  2
*U15
 10
0.0
 20
0.0
 30
0.0
  0
LINE
  5
126
  8
0
 62
     1
 10
1.87047001897899
 20
14.154241915762089
 30
0.0
 11
2.37047001897899
 21
14.154241915762089
 31
0.0
  0
LINE
  5
127
  8
0
 62
     1
 10
2.12047001897899
 20
13.904241915762089
 30
0.0
 11
2.12047001897899
 21
14.404241915762089
 31
0.0
  0
POINT
  5
128
  8
DEFPOINTS
 62
     0
 10
0.3575713757853816
 20
15.65085296203568
 30
0.0
  0
POINT
  5
129
  8
DEFPOINTS
 62
     0
 10
2.12047001897899
 20
14.154241915762089
 30
0.0
  0
ENDBLK
  5
105
  8
0
  0
BLOCK
  8
0
  2
*U15
 70
     1
 10
0.0
 20
0.0
 30
0.0
  3
*U15
  1

  0
TEXT
  5
1B3
  8
0
 62
     1
 10
-6.7616911365138037
 20
15.64111120627495
 30
0.0
 40
1.0
  1
R2 5/16
  7
SX
  0
ENDBLK
  5
1B5
  8
0
  0
BLOCK
  8
0
  2
*U16
 70
     1
 10
0.0
 20
0.0
 30
0.0
  3
*U16
  1

  0
TEXT
  5
1A1
  8
0
 10
11.54805069781461
 20
2.785415426126121
 30
0.0
 40
0.75
  1
Template
  7
MMISOCP
  0
TEXT
  5
1A2
  8
0
 10
11.52758685061133
 20
1.522113925443993
 30
0.0
 40
0.75
  1
QSU1616/6
  7
MMISOCP
  0
ENDBLK
  5
1A4
  8
0
  0
BLOCK
  8
0
  2
*U17
 70
     1
 10
0.0
 20
0.0
 30
0.0
  3
*U17
  1

  0
TEXT
  5
1A6
  8
0
 10
4.786358543660004
 20
4.6271574351360361
 30
0.0
 40
0.75
  1
Template
  7
MMISOCP
  0
TEXT
  5
1A7
  8
0
 10
4.7658946964567299
 20
3.3638559344539081
 30
0.0
 40
0.75
  1
QSUA1616/6
  7
MMISOCP
  0
ENDBLK
  5
1A9
  8
0
  0
ENDSEC
  0
SECTION
  2
ENTITIES
  0
VIEWPORT
  5
89
 67
     1
  8
0
 10
6.8524734299859844
 20
21.06895598266744
 30
0.0
 40
101.13532180986761
 41
48.777655209183919
 68
     1
 69
     1
1001
ACAD
1000
MVIEW
1002
{
1070
    16
1010
0.0
1020
0.0
1030
0.0
1010
0.0
1020
0.0
1030
1.0
1040
0.0
1040
48.777655209183919
1040
6.8524734299859844
1040
21.06895598266744
1040
50.0
1040
0.0
1040
0.0
1070
     0
1070
  1000
1070
     1
1070
     1
1070
     0
1070
     0
1070
     0
1070
     0
1040
0.0
1040
0.0
1040
0.0
1040
0.5
1040
0.5
1040
0.5
1040
0.5
1070
     0
1002
{
1002
}
1002
}
  0
LINE
  5
DD
 67
     1
  8
0
 10
-0.192029981021264
 20
14.15424191576243
 30
0.0
 11
-0.192029981021264
 21
4.1542419157624364
 31
0.0
  0
ARC
  5
DE
 67
     1
  8
0
 10
2.1204700189787351
 20
4.1542419157624364
 30
0.0
 40
2.3125
 50
180.0
 51
270.0
  0
LINE
  5
DF
 67
     1
  8
0
 10
14.432970018978731
 20
14.15424191576243
 30
0.0
 11
14.432970018978731
 21
4.1542419157624364
 31
0.0
  0
ARC
  5
E0
 67
     1
  8
0
 10
12.120470018978731
 20
14.15424191576243
 30
0.0
 40
2.3125
 50
0.0
 51
90.0
  0
LINE
  5
E1
 67
     1
  8
0
 10
2.1204700189787351
 20
16.46674191576243
 30
0.0
 11
12.120470018978731
 21
16.46674191576243
 31
0.0
  0
ARC
  5
E2
 67
     1
  8
0
 10
2.1204700189787351
 20
14.15424191576243
 30
0.0
 40
2.3125
 50
90.0
 51
180.0
  0
LINE
  5
E3
 67
     1
  8
0
 10
2.1204700189787351
 20
1.841741915762436
 30
0.0
 11
12.120470018978731
 21
1.841741915762436
 31
0.0
  0
ARC
  5
E4
 67
     1
  8
0
 10
12.120470018978731
 20
4.1542419157624364
 30
0.0
 40
2.3125
 50
270.0
 51
0.0
  0
ENDSEC
  0
EOF
