  0
SECTION
  2
HEADER
  9
$ACADVER
  1
AC1009
  9
$INSBASE
 10
0.0
 20
0.0
 30
0.0
  9
$EXTMIN
 10
4.9561400858059423
 20
2.120979108299192
 30
0.0
  9
$EXTMAX
 10
29.20613808580574
 20
22.20686600829924
 30
0.0
  9
$LIMMIN
 10
0.0
 20
0.0
  9
$LIMMAX
 10
12.0
 20
9.0
  9
$ORTHOMODE
 70
     0
  9
$REGENMODE
 70
     1
  9
$FILLMODE
 70
     1
  9
$QTEXTMODE
 70
     0
  9
$MIRRTEXT
 70
     0
  9
$DRAGMODE
 70
     2
  9
$LTSCALE
 40
1.0
  9
$OSMODE
 70
  2751
  9
$ATTMODE
 70
     1
  9
$TEXTSIZE
 40
0.2
  9
$TRACEWID
 40
0.05
  9
$TEXTSTYLE
  7
STANDARD
  9
$CLAYER
  8
0
  9
$CELTYPE
  6
BYLAYER
  9
$CECOLOR
 62
   256
  9
$DIMSCALE
 40
1.0
  9
$DIMASZ
 40
0.18
  9
$DIMEXO
 40
0.0625
  9
$DIMDLI
 40
0.38
  9
$DIMRND
 40
0.0
  9
$DIMDLE
 40
0.0
  9
$DIMEXE
 40
0.18
  9
$DIMTP
 40
0.0
  9
$DIMTM
 40
0.0
  9
$DIMTXT
 40
0.18
  9
$DIMCEN
 40
0.09
  9
$DIMTSZ
 40
0.0
  9
$DIMTOL
 70
     0
  9
$DIMLIM
 70
     0
  9
$DIMTIH
 70
     1
  9
$DIMTOH
 70
     1
  9
$DIMSE1
 70
     0
  9
$DIMSE2
 70
     0
  9
$DIMTAD
 70
     0
  9
$DIMZIN
 70
     0
  9
$DIMBLK
  1

  9
$DIMASO
 70
     1
  9
$DIMSHO
 70
     1
  9
$DIMPOST
  1

  9
$DIMAPOST
  1

  9
$DIMALT
 70
     0
  9
$DIMALTD
 70
     2
  9
$DIMALTF
 40
25.399999999999999
  9
$DIMLFAC
 40
1.0
  9
$DIMTOFL
 70
     0
  9
$DIMTVP
 40
0.0
  9
$DIMTIX
 70
     0
  9
$DIMSOXD
 70
     0
  9
$DIMSAH
 70
     0
  9
$DIMBLK1
  1

  9
$DIMBLK2
  1

  9
$DIMSTYLE
  2
STANDARD
  9
$DIMCLRD
 70
     0
  9
$DIMCLRE
 70
     0
  9
$DIMCLRT
 70
     0
  9
$DIMTFAC
 40
1.0
  9
$DIMGAP
 40
0.09
  9
$LUNITS
 70
     2
  9
$LUPREC
 70
     4
  9
$SKETCHINC
 40
0.1
  9
$FILLETRAD
 40
0.0
  9
$AUNITS
 70
     0
  9
$AUPREC
 70
     0
  9
$MENU
  1
.
  9
$ELEVATION
 40
0.0
  9
$PELEVATION
 40
0.0
  9
$THICKNESS
 40
0.0
  9
$LIMCHECK
 70
     0
  9
$BLIPMODE
 70
     0
  9
$CHAMFERA
 40
0.0
  9
$CHAMFERB
 40
0.0
  9
$SKPOLY
 70
     0
  9
$TDCREATE
 40
2458191.3983364701
  9
$TDUPDATE
 40
2458191.3995023258
  9
$TDINDWG
 40
0.0011676736
  9
$TDUSRTIMER
 40
0.0011675347
  9
$USRTIMER
 70
     1
  9
$ANGBASE
 50
0.0
  9
$ANGDIR
 70
     0
  9
$PDMODE
 70
     0
  9
$PDSIZE
 40
0.0
  9
$PLINEWID
 40
0.0
  9
$COORDS
 70
     1
  9
$SPLFRAME
 70
     0
  9
$SPLINETYPE
 70
     6
  9
$SPLINESEGS
 70
     8
  9
$ATTDIA
 70
     1
  9
$ATTREQ
 70
     1
  9
$HANDLING
 70
     1
  9
$HANDSEED
  5
1AB
  9
$SURFTAB1
 70
     6
  9
$SURFTAB2
 70
     6
  9
$SURFTYPE
 70
     6
  9
$SURFU
 70
     6
  9
$SURFV
 70
     6
  9
$UCSNAME
  2

  9
$UCSORG
 10
0.0
 20
0.0
 30
0.0
  9
$UCSXDIR
 10
1.0
 20
0.0
 30
0.0
  9
$UCSYDIR
 10
0.0
 20
1.0
 30
0.0
  9
$PUCSNAME
  2

  9
$PUCSORG
 10
0.0
 20
0.0
 30
0.0
  9
$PUCSXDIR
 10
1.0
 20
0.0
 30
0.0
  9
$PUCSYDIR
 10
0.0
 20
1.0
 30
0.0
  9
$USERI1
 70
     0
  9
$USERI2
 70
     0
  9
$USERI3
 70
     0
  9
$USERI4
 70
     0
  9
$USERI5
 70
     0
  9
$USERR1
 40
0.0
  9
$USERR2
 40
0.0
  9
$USERR3
 40
0.0
  9
$USERR4
 40
0.0
  9
$USERR5
 40
0.0
  9
$WORLDVIEW
 70
     1
  9
$SHADEDGE
 70
     3
  9
$SHADEDIF
 70
    70
  9
$TILEMODE
 70
     0
  9
$MAXACTVP
 70
    64
  9
$PLIMCHECK
 70
     0
  9
$PEXTMIN
 10
0.1708770241154918
 20
1.2407978023690021
 30
0.0
  9
$PEXTMAX
 10
24.42087502411529
 20
21.32668470236905
 30
0.0
  9
$PLIMMIN
 10
0.0
 20
0.0
  9
$PLIMMAX
 10
12.0
 20
9.0
  9
$UNITMODE
 70
     0
  9
$VISRETAIN
 70
     1
  9
$PLINEGEN
 70
     0
  9
$PSLTSCALE
 70
     1
  0
ENDSEC
  0
SECTION
  2
TABLES
  0
TABLE
  2
VPORT
 70
     1
  0
VPORT
  2
*ACTIVE
 70
     0
 10
0.0
 20
0.0
 11
1.0
 21
1.0
 12
16.596228447085021
 22
9.6507552515244193
 13
0.0
 23
0.0
 14
0.5
 24
0.5
 15
0.5
 25
0.5
 16
0.0
 26
0.0
 36
1.0
 17
0.0
 27
0.0
 37
0.0
 40
37.155503718320837
 41
1.834733893557422
 42
50.0
 43
0.0
 44
0.0
 50
0.0
 51
0.0
 71
     0
 72
  1000
 73
     1
 74
     3
 75
     0
 76
     0
 77
     0
 78
     0
  0
ENDTAB
  0
TABLE
  2
LTYPE
 70
     1
  0
LTYPE
  2
CONTINUOUS
 70
     0
  3
Solid line
 72
    65
 73
     0
 40
0.0
  0
ENDTAB
  0
TABLE
  2
LAYER
 70
     2
  0
LAYER
  2
0
 70
     0
 62
     7
  6
CONTINUOUS
  0
LAYER
  2
204
 70
     0
 62
     7
  6
CONTINUOUS
  0
ENDTAB
  0
TABLE
  2
STYLE
 70
     4
  0
STYLE
  2
STANDARD
 70
     0
 40
0.0
 41
1.0
 50
0.0
 71
     0
 42
0.2
  3
txt
  4

  0
STYLE
  2
ANNOTATIVE
 70
     0
 40
0.0
 41
1.0
 50
0.0
 71
     0
 42
0.2
  3
txt
  4

  0
STYLE
  2
MMISOCP
 70
     0
 40
0.0
 41
1.0
 50
0.0
 71
     0
 42
2.5
  3
isocp.shx
  4

  0
STYLE
  2
SX
 70
     0
 40
1.0
 41
1.0
 50
0.0
 71
     0
 42
1.0
  3
simplex.shx
  4

  0
ENDTAB
  0
TABLE
  2
VIEW
 70
     3
  0
ENDTAB
  0
TABLE
  2
UCS
 70
     0
  0
ENDTAB
  0
TABLE
  2
APPID
 70
     8
  0
APPID
  2
ACAD
 70
     0
  0
APPID
  2
ACADANNOTATIVE
 70
     0
  0
APPID
  2
ACAD_NAV_VCDISPLAY
 70
     0
  0
APPID
  2
ACAD_PSEXT
 70
     0
  0
APPID
  2
ACAD_DSTYLE_DIMJAG
 70
     0
  0
APPID
  2
ACAD_DSTYLE_DIMTALN
 70
     0
  0
APPID
  2
AMACAD
 70
     0
  0
APPID
  2
ACAD_MLEADERVER
 70
     0
  0
ENDTAB
  0
TABLE
  2
DIMSTYLE
 70
     7
  0
DIMSTYLE
  2
STANDARD
 70
     0
  3

  4

  5

  6

  7

 40
1.0
 41
0.18
 42
0.0625
 43
0.38
 44
0.18
 45
0.0
 46
0.0
 47
0.0
 48
0.0
140
0.18
141
0.09
142
0.0
143
25.399999999999999
144
1.0
145
0.0
146
1.0
147
0.09
 71
     0
 72
     0
 73
     1
 74
     1
 75
     0
 76
     0
 77
     0
 78
     0
170
     0
171
     2
172
     0
173
     0
174
     0
175
     0
176
     0
177
     0
178
     0
  0
DIMSTYLE
  2
ANNOTATIVE
 70
     0
  3

  4

  5

  6

  7

 40
1.0
 41
0.18
 42
0.0625
 43
0.38
 44
0.18
 45
0.0
 46
0.0
 47
0.0
 48
0.0
140
0.18
141
0.09
142
0.0
143
25.399999999999999
144
1.0
145
0.0
146
1.0
147
0.09
 71
     0
 72
     0
 73
     1
 74
     1
 75
     0
 76
     0
 77
     0
 78
     0
170
     0
171
     2
172
     0
173
     0
174
     0
175
     0
176
     0
177
     0
178
     0
  0
DIMSTYLE
  2
ISO-25
 70
     0
  3

  4

  5

  6

  7

 40
1.0
 41
2.5
 42
0.625
 43
3.75
 44
1.25
 45
0.0
 46
0.0
 47
0.0
 48
0.0
140
2.5
141
2.5
142
0.0
143
0.03937007874016
144
1.0
145
0.0
146
1.0
147
0.625
 71
     0
 72
     0
 73
     0
 74
     0
 75
     0
 76
     0
 77
     1
 78
     8
170
     0
171
     3
172
     1
173
     0
174
     0
175
     0
176
     0
177
     0
178
     0
  0
DIMSTYLE
  2
MM_KBT
 70
     0
  3

  4

  5

  6
SMALL
  7
CLOSEDBLANK
 40
0.0
 41
3.5
 42
0.0
 43
20.0
 44
2.0
 45
0.0
 46
0.0
 47
0.0
 48
0.0
140
3.5
141
0.0
142
0.0
143
0.0394
144
1.0
145
0.0
146
1.0
147
0.625
 71
     0
 72
     0
 73
     0
 74
     0
 75
     0
 76
     1
 77
     2
 78
     8
170
     0
171
     2
172
     1
173
     1
174
     0
175
     0
176
     0
177
     0
178
     5
  0
DIMSTYLE
  2
MMM
 70
     0
  3

  4

  5

  6

  7

 40
0.0
 41
2.5
 42
2.0
 43
10.0
 44
2.0
 45
0.0
 46
0.0
 47
0.0
 48
0.0
140
3.5
141
0.0
142
0.0
143
0.0394
144
1.0
145
0.0
146
1.0
147
0.625
 71
     0
 72
     0
 73
     0
 74
     0
 75
     0
 76
     0
 77
     1
 78
     8
170
     0
171
     2
172
     1
173
     0
174
     0
175
     0
176
     3
177
     3
178
     2
  0
DIMSTYLE
  2
AM_ISO
 70
     0
  3

  4
"
  5

  6

  7

 40
1.0
 41
2.5
 42
1.0
 43
10.0
 44
1.0
 45
0.0
 46
0.0
 47
0.1
 48
0.1
140
3.5
141
0.0
142
0.0
143
0.0393701
144
1.0
145
0.0
146
0.71
147
1.5
 71
     0
 72
     0
 73
     0
 74
     0
 75
     0
 76
     0
 77
     1
 78
     8
170
     0
171
     2
172
     1
173
     0
174
     0
175
     0
176
   256
177
   256
178
     2
  0
DIMSTYLE
  2
KINDRED
 70
     0
  3

  4

  5

  6

  7

 40
2.0
 41
0.25
 42
0.25
 43
0.375
 44
0.25
 45
0.0
 46
0.0
 47
0.0
 48
0.0
140
1.0
141
0.25
142
0.0
143
25.399999999999999
144
1.0
145
0.0
146
1.0
147
0.25
 71
     0
 72
     0
 73
     1
 74
     1
 75
     0
 76
     0
 77
     0
 78
     0
170
     0
171
     2
172
     0
173
     0
174
     0
175
     0
176
     1
177
     1
178
     1
  0
ENDTAB
  0
ENDSEC
  0
SECTION
  2
BLOCKS
  0
BLOCK
  8
0
  2
$MODEL_SPACE
 70
     0
 10
0.0
 20
0.0
 30
0.0
  3
$MODEL_SPACE
  1

  0
ENDBLK
  5
72
  8
0
  0
BLOCK
 67
     1
  8
0
  2
$PAPER_SPACE
 70
     0
 10
0.0
 20
0.0
 30
0.0
  3
$PAPER_SPACE
  1

  0
ENDBLK
  5
6E
 67
     1
  8
0
  0
BLOCK
  8
0
  2
_CLOSEDBLANK
 70
     0
 10
0.0
 20
0.0
 30
0.0
  3
_CLOSEDBLANK
  1

  0
LINE
  5
80
  8
0
  6
BYBLOCK
 62
     0
 10
-1.0
 20
0.1666666666666666
 30
0.0
 11
0.0
 21
0.0
 31
0.0
  0
LINE
  5
81
  8
0
  6
BYBLOCK
 62
     0
 10
0.0
 20
0.0
 30
0.0
 11
-1.0
 21
-0.1666666666666666
 31
0.0
  0
LINE
  5
82
  8
0
  6
BYBLOCK
 62
     0
 10
-1.0
 20
0.1666666666666666
 30
0.0
 11
-1.0
 21
-0.1666666666666666
 31
0.0
  0
ENDBLK
  5
83
  8
0
  0
BLOCK
  8
0
  2
_SMALL
 70
     0
 10
0.0
 20
0.0
 30
0.0
  3
_SMALL
  1

  0
CIRCLE
  5
86
  8
0
 62
     0
 10
0.0
 20
0.0
 30
0.0
 40
0.25
  0
ENDBLK
  5
87
  8
0
  0
ENDSEC
  0
SECTION
  2
ENTITIES
  0
LINE
  5
A9
  8
204
  6
CONTINUOUS
 62
     7
 10
29.206138085805321
 20
4.6209791182991991
 30
0.0
 11
29.20613808580574
 21
17.870980487674501
 31
0.0
  0
LINE
  5
AA
  8
204
  6
CONTINUOUS
 62
     7
 10
7.4561400958059423
 20
2.120979108299192
 30
0.0
 11
26.70613807580531
 21
2.120979108299192
 31
0.0
  0
LINE
  5
AB
  8
204
  6
CONTINUOUS
 62
     7
 10
4.9561400858059477
 20
17.870980098299182
 30
0.0
 11
4.9561400858059477
 21
4.6209791182991991
 31
0.0
  0
ARC
  5
AC
  8
204
  6
CONTINUOUS
 62
     7
 10
26.706138075805729
 20
17.870980487674501
 30
0.0
 40
2.5000000099999991
 50
0.0
 51
90.0
  0
ARC
  5
AD
  8
204
  6
CONTINUOUS
 62
     7
 10
7.4561400958059423
 20
17.870980098299182
 30
0.0
 40
2.5000000099999991
 50
90.0
 51
180.0
  0
ARC
  5
AE
  8
204
  6
CONTINUOUS
 62
     7
 10
7.4561400958059423
 20
4.6209791182991991
 30
0.0
 40
2.5000000099999991
 50
180.0
 51
270.0
  0
LINE
  5
AF
  8
204
  6
CONTINUOUS
 62
     7
 10
7.4561400958059556
 20
20.370978487674499
 30
0.0
 11
26.706138075805729
 21
20.370980497674498
 31
0.0
  0
CIRCLE
  5
B1
  8
204
  6
CONTINUOUS
 62
     7
 10
17.081139085805621
 20
21.45686600829924
 30
0.0
 40
0.75
  0
ARC
  5
B3
  8
204
  6
CONTINUOUS
 62
     7
 10
26.70613807580531
 20
4.6209791182991991
 30
0.0
 40
2.5000000099999991
 50
270.0
 51
0.0
  0
LINE
  5
B4
  8
204
  6
CONTINUOUS
 62
     7
 10
7.4561400958059423
 20
20.370980108299189
 30
0.0
 11
26.70613807580531
 21
20.370980108299189
 31
0.0
  0
VIEWPORT
  5
BE
 67
     1
  8
0
 10
14.933498647617281
 20
13.06598068432101
 30
0.0
 40
73.010338850808154
 41
39.79342132784506
 68
     1
 69
     1
1001
ACAD
1000
MVIEW
1002
{
1070
    16
1010
0.0
1020
0.0
1030
0.0
1010
0.0
1020
0.0
1030
1.0
1040
0.0
1040
39.79342132784506
1040
14.933498647617281
1040
13.06598068432101
1040
50.0
1040
0.0
1040
0.0
1070
     0
1070
  1000
1070
     1
1070
     1
1070
     0
1070
     0
1070
     0
1070
     0
1040
0.0
1040
0.0
1040
0.0
1040
0.5
1040
0.5
1040
0.5
1040
0.5
1070
     0
1002
{
1002
}
1002
}
  0
LINE
  5
D1
 67
     1
  8
204
  6
CONTINUOUS
 62
     7
 10
24.42087502411486
 20
3.7407978123690091
 30
0.0
 11
24.42087502411529
 21
16.990799181744311
 31
0.0
  0
LINE
  5
D2
 67
     1
  8
204
  6
CONTINUOUS
 62
     7
 10
2.6708770341154908
 20
1.2407978023690021
 30
0.0
 11
21.920875014114859
 21
1.2407978023690021
 31
0.0
  0
LINE
  5
D3
 67
     1
  8
204
  6
CONTINUOUS
 62
     7
 10
0.170877024115498
 20
16.990798792368992
 30
0.0
 11
0.170877024115498
 21
3.7407978123690091
 31
0.0
  0
ARC
  5
D4
 67
     1
  8
204
  6
CONTINUOUS
 62
     7
 10
21.920875014115278
 20
16.990799181744311
 30
0.0
 40
2.5000000099999991
 50
0.0
 51
90.0
  0
ARC
  5
D5
 67
     1
  8
204
  6
CONTINUOUS
 62
     7
 10
2.6708770341154908
 20
16.990798792368992
 30
0.0
 40
2.5000000099999991
 50
90.0
 51
180.0
  0
ARC
  5
D6
 67
     1
  8
204
  6
CONTINUOUS
 62
     7
 10
2.6708770341154908
 20
3.7407978123690091
 30
0.0
 40
2.5000000099999991
 50
180.0
 51
270.0
  0
LINE
  5
D7
 67
     1
  8
204
  6
CONTINUOUS
 62
     7
 10
2.670877034115505
 20
19.490797181744309
 30
0.0
 11
21.920875014115278
 21
19.490799191744308
 31
0.0
  0
CIRCLE
  5
D9
 67
     1
  8
204
  6
CONTINUOUS
 62
     7
 10
12.29587602411517
 20
20.57668470236905
 30
0.0
 40
0.75
  0
ARC
  5
DB
 67
     1
  8
204
  6
CONTINUOUS
 62
     7
 10
21.920875014114859
 20
3.7407978123690091
 30
0.0
 40
2.5000000099999991
 50
270.0
 51
0.0
  0
LINE
  5
DC
 67
     1
  8
204
  6
CONTINUOUS
 62
     7
 10
2.6708770341154908
 20
19.490798802369
 30
0.0
 11
21.920875014114859
 21
19.490798802369
 31
0.0
  0
ENDSEC
  0
EOF
