  0
SECTION
  2
HEADER
  9
$ACADVER
  1
AC1009
  9
$INSBASE
 10
0.0
 20
0.0
 30
0.0
  9
$EXTMIN
 10
79.9921967802758616
 20
46.8852721047774565
 30
0.0
  9
$EXTMAX
 10
109.9846967782370939
 20
66.0306549794733542
 30
0.0
  9
$LIMMIN
 10
0.0
 20
0.0
  9
$LIMMAX
 10
12.0
 20
9.0
  9
$ORTHOMODE
 70
     0
  9
$REGENMODE
 70
     1
  9
$FILLMODE
 70
     1
  9
$QTEXTMODE
 70
     0
  9
$MIRRTEXT
 70
     0
  9
$DRAGMODE
 70
     2
  9
$LTSCALE
 40
1.0
  9
$OSMODE
 70
   679
  9
$ATTMODE
 70
     1
  9
$TEXTSIZE
 40
0.2
  9
$TRACEWID
 40
0.05
  9
$TEXTSTYLE
  7
STANDARD
  9
$CLAYER
  8
0
  9
$CELTYPE
  6
BYLAYER
  9
$CECOLOR
 62
   256
  9
$DIMSCALE
 40
1.0
  9
$DIMASZ
 40
0.18
  9
$DIMEXO
 40
0.0625
  9
$DIMDLI
 40
0.38
  9
$DIMRND
 40
0.0
  9
$DIMDLE
 40
0.0
  9
$DIMEXE
 40
0.18
  9
$DIMTP
 40
0.0
  9
$DIMTM
 40
0.0
  9
$DIMTXT
 40
0.18
  9
$DIMCEN
 40
0.09
  9
$DIMTSZ
 40
0.0
  9
$DIMTOL
 70
     0
  9
$DIMLIM
 70
     0
  9
$DIMTIH
 70
     1
  9
$DIMTOH
 70
     1
  9
$DIMSE1
 70
     0
  9
$DIMSE2
 70
     0
  9
$DIMTAD
 70
     0
  9
$DIMZIN
 70
     0
  9
$DIMBLK
  1

  9
$DIMASO
 70
     1
  9
$DIMSHO
 70
     1
  9
$DIMPOST
  1

  9
$DIMAPOST
  1

  9
$DIMALT
 70
     0
  9
$DIMALTD
 70
     2
  9
$DIMALTF
 40
25.3999999999999986
  9
$DIMLFAC
 40
1.0
  9
$DIMTOFL
 70
     0
  9
$DIMTVP
 40
0.0
  9
$DIMTIX
 70
     0
  9
$DIMSOXD
 70
     0
  9
$DIMSAH
 70
     0
  9
$DIMBLK1
  1

  9
$DIMBLK2
  1

  9
$DIMSTYLE
  2
STANDARD
  9
$DIMCLRD
 70
     0
  9
$DIMCLRE
 70
     0
  9
$DIMCLRT
 70
     0
  9
$DIMTFAC
 40
1.0
  9
$DIMGAP
 40
0.09
  9
$LUNITS
 70
     2
  9
$LUPREC
 70
     4
  9
$SKETCHINC
 40
0.1
  9
$FILLETRAD
 40
0.0
  9
$AUNITS
 70
     0
  9
$AUPREC
 70
     0
  9
$MENU
  1
.
  9
$ELEVATION
 40
0.0
  9
$PELEVATION
 40
0.0
  9
$THICKNESS
 40
0.0
  9
$LIMCHECK
 70
     0
  9
$BLIPMODE
 70
     0
  9
$CHAMFERA
 40
0.0
  9
$CHAMFERB
 40
0.0
  9
$SKPOLY
 70
     0
  9
$TDCREATE
 40
2457582.6539467591792345
  9
$TDUPDATE
 40
2458830.5959027782082558
  9
$TDINDWG
 40
0.0013239236
  9
$TDUSRTIMER
 40
0.001323912
  9
$USRTIMER
 70
     1
  9
$ANGBASE
 50
0.0
  9
$ANGDIR
 70
     0
  9
$PDMODE
 70
     0
  9
$PDSIZE
 40
0.0
  9
$PLINEWID
 40
0.0
  9
$COORDS
 70
     1
  9
$SPLFRAME
 70
     0
  9
$SPLINETYPE
 70
     6
  9
$SPLINESEGS
 70
     8
  9
$ATTDIA
 70
     1
  9
$ATTREQ
 70
     1
  9
$HANDLING
 70
     1
  9
$HANDSEED
  5
24B
  9
$SURFTAB1
 70
     6
  9
$SURFTAB2
 70
     6
  9
$SURFTYPE
 70
     6
  9
$SURFU
 70
     6
  9
$SURFV
 70
     6
  9
$UCSNAME
  2

  9
$UCSORG
 10
0.0
 20
0.0
 30
0.0
  9
$UCSXDIR
 10
1.0
 20
0.0
 30
0.0
  9
$UCSYDIR
 10
0.0
 20
1.0
 30
0.0
  9
$PUCSNAME
  2

  9
$PUCSORG
 10
0.0
 20
0.0
 30
0.0
  9
$PUCSXDIR
 10
1.0
 20
0.0
 30
0.0
  9
$PUCSYDIR
 10
0.0
 20
1.0
 30
0.0
  9
$USERI1
 70
     0
  9
$USERI2
 70
     0
  9
$USERI3
 70
     0
  9
$USERI4
 70
     0
  9
$USERI5
 70
     0
  9
$USERR1
 40
0.0
  9
$USERR2
 40
0.0
  9
$USERR3
 40
0.0
  9
$USERR4
 40
0.0
  9
$USERR5
 40
0.0
  9
$WORLDVIEW
 70
     1
  9
$SHADEDGE
 70
     3
  9
$SHADEDIF
 70
    70
  9
$TILEMODE
 70
     0
  9
$MAXACTVP
 70
    64
  9
$PLIMCHECK
 70
     0
  9
$PEXTMIN
 10
-41.5684748376937705
 20
-27.9617937159831911
 30
0.0
  9
$PEXTMAX
 10
-11.5759748397325009
 20
-8.8164108412873272
 30
0.0
  9
$PLIMMIN
 10
0.0
 20
0.0
  9
$PLIMMAX
 10
12.0
 20
9.0
  9
$UNITMODE
 70
     0
  9
$VISRETAIN
 70
     1
  9
$PLINEGEN
 70
     0
  9
$PSLTSCALE
 70
     1
  0
ENDSEC
  0
SECTION
  2
TABLES
  0
TABLE
  2
VPORT
 70
     1
  0
VPORT
  2
*ACTIVE
 70
     0
 10
0.0
 20
0.0
 11
1.0
 21
1.0
 12
96.9501922188165395
 22
60.4123087153133724
 13
0.0
 23
0.0
 14
0.5
 24
0.5
 15
0.5
 25
0.5
 16
0.0
 26
0.0
 36
1.0
 17
0.0
 27
0.0
 37
0.0
 40
40.7490824718400901
 41
1.904761904761904
 42
50.0
 43
0.0
 44
0.0
 50
0.0
 51
0.0
 71
     0
 72
  1000
 73
     1
 74
     3
 75
     0
 76
     0
 77
     0
 78
     0
  0
ENDTAB
  0
TABLE
  2
LTYPE
 70
     1
  0
LTYPE
  2
CONTINUOUS
 70
     0
  3
Solid line
 72
    65
 73
     0
 40
0.0
  0
ENDTAB
  0
TABLE
  2
LAYER
 70
     2
  0
LAYER
  2
0
 70
     0
 62
     7
  6
CONTINUOUS
  0
LAYER
  2
CHAMFER
 70
     0
 62
     7
  6
CONTINUOUS
  0
ENDTAB
  0
TABLE
  2
STYLE
 70
     2
  0
STYLE
  2
STANDARD
 70
     0
 40
0.0
 41
1.0
 50
0.0
 71
     0
 42
0.2
  3
txt
  4

  0
STYLE
  2
ANNOTATIVE
 70
     0
 40
0.0
 41
1.0
 50
0.0
 71
     0
 42
0.2
  3
txt
  4

  0
ENDTAB
  0
TABLE
  2
VIEW
 70
     4
  0
ENDTAB
  0
TABLE
  2
UCS
 70
     0
  0
ENDTAB
  0
TABLE
  2
APPID
 70
     8
  0
APPID
  2
ACAD
 70
     0
  0
APPID
  2
ACADANNOTATIVE
 70
     0
  0
APPID
  2
ACAD_NAV_VCDISPLAY
 70
     0
  0
APPID
  2
ACAD_PSEXT
 70
     0
  0
APPID
  2
GENIUS_GENODEF_13
 70
     0
  0
APPID
  2
GENIUS_GENOBJ-N-FIL_13
 70
     0
  0
APPID
  2
AMACAD
 70
     0
  0
APPID
  2
ACAD_MLEADERVER
 70
     0
  0
ENDTAB
  0
TABLE
  2
DIMSTYLE
 70
     3
  0
DIMSTYLE
  2
STANDARD
 70
     0
  3

  4

  5

  6

  7

 40
1.0
 41
0.18
 42
0.0625
 43
0.38
 44
0.18
 45
0.0
 46
0.0
 47
0.0
 48
0.0
140
0.18
141
0.09
142
0.0
143
25.3999999999999986
144
1.0
145
0.0
146
1.0
147
0.09
 71
     0
 72
     0
 73
     1
 74
     1
 75
     0
 76
     0
 77
     0
 78
     0
170
     0
171
     2
172
     0
173
     0
174
     0
175
     0
176
     0
177
     0
178
     0
  0
DIMSTYLE
  2
ANNOTATIVE
 70
     0
  3

  4

  5

  6

  7

 40
1.0
 41
0.18
 42
0.0625
 43
0.38
 44
0.18
 45
0.0
 46
0.0
 47
0.0
 48
0.0
140
0.18
141
0.09
142
0.0
143
25.3999999999999986
144
1.0
145
0.0
146
1.0
147
0.09
 71
     0
 72
     0
 73
     1
 74
     1
 75
     0
 76
     0
 77
     0
 78
     0
170
     0
171
     2
172
     0
173
     0
174
     0
175
     0
176
     0
177
     0
178
     0
  0
DIMSTYLE
  2
AM_ANSI
 70
     0
  3

  4
mm
  5

  6

  7

 40
1.0
 41
0.12
 42
0.05
 43
0.5
 44
0.1
 45
0.0
 46
0.0
 47
0.1
 48
0.1
140
0.12
141
0.0
142
0.0
143
25.3999999999999986
144
1.0
145
0.0
146
0.71
147
0.06
 71
     0
 72
     0
 73
     1
 74
     1
 75
     0
 76
     0
 77
     0
 78
     7
170
     0
171
     2
172
     0
173
     0
174
     0
175
     0
176
   256
177
   256
178
   140
  0
ENDTAB
  0
ENDSEC
  0
SECTION
  2
BLOCKS
  0
BLOCK
  8
0
  2
$MODEL_SPACE
 70
     0
 10
0.0
 20
0.0
 30
0.0
  3
$MODEL_SPACE
  1

  0
ENDBLK
  5
191
  8
0
  0
BLOCK
 67
     1
  8
0
  2
$PAPER_SPACE
 70
     0
 10
0.0
 20
0.0
 30
0.0
  3
$PAPER_SPACE
  1

  0
ENDBLK
  5
18D
 67
     1
  8
0
  0
ENDSEC
  0
SECTION
  2
ENTITIES
  0
ARC
  5
1D4
  8
CHAMFER
 10
106.0080197678839937
 20
50.7508595389750923
 30
0.0
 40
3.7757499999999991
 50
276.3812066651923942
 51
354.7828182077940937
  0
ARC
  5
1D5
  8
CHAMFER
 10
57.7089467782371415
 20
55.1610237468888798
 30
0.0
 40
52.2757500000000022
 50
354.7828182077940937
 51
0.0
  0
ARC
  5
1D6
  8
CHAMFER
 10
57.7089467782371202
 20
55.2860237468889082
 30
0.0
 40
52.2757500000000022
 50
0.0
 51
5.2171817922058841
  0
ARC
  5
1D7
  8
CHAMFER
 10
104.3964467782371059
 20
45.2860237468889082
 30
0.0
 40
18.2757499999999986
 50
83.6187933348076058
 51
90.0
  0
ARC
  5
1D8
  8
CHAMFER
 10
106.0080197678838942
 20
59.6961879548027383
 30
0.0
 40
3.7757499999999991
 50
5.2171817922058841
 51
83.6187933348076058
  0
ARC
  5
1D9
  8
CHAMFER
 10
89.1429467802759348
 20
187.1610221047774019
 30
0.0
 40
140.2757499999999879
 50
267.7730195423392843
 51
270.0
  0
ARC
  5
1DA
  8
CHAMFER
 10
220.2679467802759063
 20
55.2547737468889082
 30
0.0
 40
140.2757499999999879
 50
178.2944991929126957
 51
180.0
  0
ARC
  5
1DB
  8
CHAMFER
 10
220.2679467802759063
 20
55.1610237468889082
 30
0.0
 40
140.2757499999999879
 50
180.0
 51
181.8459180082298872
  0
ARC
  5
1DC
  8
CHAMFER
 10
83.8387812486824373
 20
50.7641166119715734
 30
0.0
 40
3.7757499999999991
 50
181.8459180082315925
 51
267.7730195423392843
  0
ARC
  5
1DD
  8
CHAMFER
 10
92.1148351417757141
 20
59.2429080956126981
 30
0.0
 40
6.2757500000000004
 50
45.3320603354216516
 51
69.3930741794017649
  0
ARC
  5
1DE
  8
CHAMFER
 10
89.2980949366881589
 20
51.7507868858967726
 30
0.0
 40
14.2798680365773691
 50
69.3945638536111744
 51
90.2463526891643255
  0
ARC
  5
1DF
  8
CHAMFER
 10
86.3273077967373439
 20
59.2429097377240197
 30
0.0
 40
6.2757500000000004
 50
110.6069258205982067
 51
178.2944991929126957
  0
ARC
  5
1E0
  8
CHAMFER
 10
89.1440348523504582
 20
51.75083608787439
 30
0.0
 40
14.2798188915989606
 50
89.7535937020825401
 51
110.6054539191941046
  0
ARC
  5
1E1
  8
CHAMFER
 10
104.3964467782371059
 20
65.1610237468889011
 30
0.0
 40
18.2757499999999986
 50
270.0
 51
276.3812066651923942
  0
LINE
  5
1E2
  8
0
 10
104.3964467782348038
 20
63.5617737468889032
 30
0.0
 11
96.8781661083841357
 21
63.5617737468888677
 31
0.0
  0
LINE
  5
1E3
  8
0
 10
89.1429467836547502
 20
46.8852721047775773
 30
0.0
 11
104.3964467782371059
 21
46.8852737468888989
 31
0.0
  0
LINE
  5
1E4
  8
0
 10
89.2054464692553069
 20
66.0305229258332673
 30
0.0
 11
89.2366964692553353
 21
66.0305229258332531
 31
0.0
  0
ARC
  5
1E5
  8
0
 10
96.8781661083841357
 20
64.0617737468888748
 30
0.0
 40
0.5
 50
225.3320603354216018
 51
270.0
1001
GENIUS_GENODEF_13
1002
{
1000
HIER
1070
     0
1002
}
1002
{
1000
MANEDIT
1070
     0
1002
}
1002
{
1000
NOSEL
1070
     0
1002
}
1002
{
1000
BEHIND
1070
     0
1002
}
1002
{
1000
OTHER
1070
     0
1002
}
1002
{
1000
REACTOR
1002
}
1001
GENIUS_GENOBJ-N-FIL_13
1002
{
1000
OWNER
1000
GEN
1002
}
  0
LINE
  5
1E6
  8
0
 10
79.9921967802758758
 20
55.2547737468889366
 30
0.0
 11
79.9921967802758758
 21
55.1610237468889508
 31
0.0
  0
LINE
  5
1E7
  8
0
 10
109.9846967782370939
 20
55.2860237468889082
 30
0.0
 11
109.9846967782370939
 21
55.1610237468889011
 31
0.0
  0
VIEWPORT
  5
89
 67
     1
  8
0
 10
-31.3058227121721586
 20
-19.6181721973192502
 30
0.0
 40
84.309148860111506
 41
44.2623031515585268
 68
     1
 69
     1
1001
ACAD
1000
MVIEW
1002
{
1070
    16
1010
0.0
1020
0.0
1030
0.0
1010
0.0
1020
0.0
1030
1.0
1040
0.0
1040
44.2623031515585268
1040
-31.3058227121721586
1040
-19.6181721973192502
1040
50.0
1040
0.0
1040
0.0
1070
     0
1070
  1000
1070
     1
1070
     1
1070
     0
1070
     0
1070
     0
1070
     0
1040
0.0
1040
0.0
1040
0.0
1040
0.5
1040
0.5
1040
0.5
1040
0.5
1070
     0
1002
{
1002
}
1002
}
  0
ARC
  5
A9
 67
     1
  8
CHAMFER
 10
-15.5526518500856596
 20
-24.0962062817855802
 30
0.0
 40
3.7757499999999991
 50
276.3812066651925079
 51
354.78281820779398
  0
ARC
  5
AA
 67
     1
  8
CHAMFER
 10
-63.8517248397324977
 20
-19.6860420738717892
 30
0.0
 40
52.2757500000000022
 50
354.78281820779398
 51
0.0
  0
ARC
  5
AB
 67
     1
  8
CHAMFER
 10
-63.8517248397325332
 20
-19.5610420738717607
 30
0.0
 40
52.2757500000000022
 50
0.0
 51
5.2171817922058867
  0
ARC
  5
AC
 67
     1
  8
CHAMFER
 10
-17.1642248397325403
 20
-29.5610420738717607
 30
0.0
 40
18.2757499999999986
 50
83.6187933348075489
 51
90.0
  0
ARC
  5
AD
 67
     1
  8
CHAMFER
 10
-15.5526518500856792
 20
-15.1508778659579395
 30
0.0
 40
3.7757499999999991
 50
5.2171817922058867
 51
83.6187933348075489
  0
ARC
  5
AE
 67
     1
  8
CHAMFER
 10
-32.4177248376936973
 20
112.3139562840167969
 30
0.0
 40
140.2757499999999879
 50
267.7730195423392843
 51
270.0
  0
ARC
  5
AF
 67
     1
  8
CHAMFER
 10
98.7072751623062317
 20
-19.5922920738717607
 30
0.0
 40
140.2757499999999879
 50
178.2944991929126104
 51
180.0
  0
ARC
  5
B0
 67
     1
  8
CHAMFER
 10
98.7072751623062317
 20
-19.6860420738717607
 30
0.0
 40
140.2757499999999879
 50
180.0
 51
181.8459180082298019
  0
ARC
  5
B1
 67
     1
  8
CHAMFER
 10
-37.7218903692872018
 20
-24.0829492087890991
 30
0.0
 40
3.7757499999999991
 50
181.8459180082315072
 51
267.7730195423392843
  0
ARC
  5
B2
 67
     1
  8
CHAMFER
 10
-29.4458364761939286
 20
-15.6041577251479708
 30
0.0
 40
6.2757500000000004
 50
45.3320603354216729
 51
69.393074179401637
  0
ARC
  5
B3
 67
     1
  8
CHAMFER
 10
-32.2625766812814874
 20
-23.0962789348638999
 30
0.0
 40
14.2798680365773691
 50
69.3945638536110607
 51
90.2463526891643255
  0
ARC
  5
B4
 67
     1
  8
CHAMFER
 10
-35.2333638212323166
 20
-15.6041560830366492
 30
0.0
 40
6.2757500000000004
 50
110.6069258205984056
 51
178.2944991929126104
  0
ARC
  5
B5
 67
     1
  8
CHAMFER
 10
-32.4166367656191809
 20
-23.0962297328862896
 30
0.0
 40
14.2798188915989606
 50
89.7535937020825401
 51
110.6054539191940052
  0
ARC
  5
B6
 67
     1
  8
CHAMFER
 10
-17.164224839732519
 20
-9.6860420738717732
 30
0.0
 40
18.2757499999999986
 50
270.0
 51
276.3812066651925079
  0
LINE
  5
B7
 67
     1
  8
0
 10
-17.1642248397347785
 20
-11.2852920738717692
 30
0.0
 11
-24.6825055095855106
 21
-11.2852920738717906
 31
0.0
  0
LINE
  5
B8
 67
     1
  8
0
 10
-32.4177248343149031
 20
-27.9617937159830987
 30
0.0
 11
-17.164224839732519
 21
-27.9617920738717807
 31
0.0
  0
LINE
  5
B9
 67
     1
  8
0
 10
-32.3552251487143394
 20
-8.8165428949274105
 30
0.0
 11
-32.323975148714311
 21
-8.8165428949274194
 31
0.0
  0
ARC
  5
BA
 67
     1
  8
0
 10
-24.6825055095855106
 20
-10.7852920738717906
 30
0.0
 40
0.5
 50
225.3320603354216871
 51
270.0
1001
GENIUS_GENODEF_13
1002
{
1000
HIER
1070
     0
1002
}
1002
{
1000
MANEDIT
1070
     0
1002
}
1002
{
1000
NOSEL
1070
     0
1002
}
1002
{
1000
BEHIND
1070
     0
1002
}
1002
{
1000
OTHER
1070
     0
1002
}
1002
{
1000
REACTOR
1002
}
1001
GENIUS_GENOBJ-N-FIL_13
1002
{
1000
OWNER
1000
GEN
1002
}
  0
LINE
  5
BB
 67
     1
  8
0
 10
-41.5684748376937705
 20
-19.5922920738717288
 30
0.0
 11
-41.5684748376937705
 21
-19.6860420738717288
 31
0.0
  0
LINE
  5
BC
 67
     1
  8
0
 10
-11.5759748397325293
 20
-19.5610420738717607
 30
0.0
 11
-11.5759748397325097
 21
-19.6860420738717714
 31
0.0
  0
ENDSEC
  0
EOF
