  0
SECTION
  2
HEADER
  9
$ACADVER
  1
AC1009
  9
$INSBASE
 10
0.0
 20
0.0
 30
0.0
  9
$EXTMIN
 10
6.7696318212253761
 20
2.1405771702971972
 30
0.0
  9
$EXTMAX
 10
38.7208713217142275
 20
23.1870632428209014
 30
0.0
  9
$LIMMIN
 10
0.0
 20
0.0
  9
$LIMMAX
 10
12.0
 20
9.0
  9
$ORTHOMODE
 70
     0
  9
$REGENMODE
 70
     1
  9
$FILLMODE
 70
     1
  9
$QTEXTMODE
 70
     0
  9
$MIRRTEXT
 70
     0
  9
$DRAGMODE
 70
     2
  9
$LTSCALE
 40
1.0
  9
$OSMODE
 70
   695
  9
$ATTMODE
 70
     1
  9
$TEXTSIZE
 40
0.2
  9
$TRACEWID
 40
0.05
  9
$TEXTSTYLE
  7
STANDARD
  9
$CLAYER
  8
0
  9
$CELTYPE
  6
BYLAYER
  9
$CECOLOR
 62
   256
  9
$DIMSCALE
 40
1.0
  9
$DIMASZ
 40
0.18
  9
$DIMEXO
 40
0.0625
  9
$DIMDLI
 40
0.38
  9
$DIMRND
 40
0.0
  9
$DIMDLE
 40
0.0
  9
$DIMEXE
 40
0.18
  9
$DIMTP
 40
0.0
  9
$DIMTM
 40
0.0
  9
$DIMTXT
 40
0.18
  9
$DIMCEN
 40
0.09
  9
$DIMTSZ
 40
0.0
  9
$DIMTOL
 70
     0
  9
$DIMLIM
 70
     0
  9
$DIMTIH
 70
     1
  9
$DIMTOH
 70
     1
  9
$DIMSE1
 70
     0
  9
$DIMSE2
 70
     0
  9
$DIMTAD
 70
     0
  9
$DIMZIN
 70
     0
  9
$DIMBLK
  1

  9
$DIMASO
 70
     1
  9
$DIMSHO
 70
     1
  9
$DIMPOST
  1

  9
$DIMAPOST
  1

  9
$DIMALT
 70
     0
  9
$DIMALTD
 70
     2
  9
$DIMALTF
 40
25.3999999999999986
  9
$DIMLFAC
 40
1.0
  9
$DIMTOFL
 70
     0
  9
$DIMTVP
 40
0.0
  9
$DIMTIX
 70
     0
  9
$DIMSOXD
 70
     0
  9
$DIMSAH
 70
     0
  9
$DIMBLK1
  1

  9
$DIMBLK2
  1

  9
$DIMSTYLE
  2
STANDARD
  9
$DIMCLRD
 70
     0
  9
$DIMCLRE
 70
     0
  9
$DIMCLRT
 70
     0
  9
$DIMTFAC
 40
1.0
  9
$DIMGAP
 40
0.09
  9
$LUNITS
 70
     2
  9
$LUPREC
 70
     4
  9
$SKETCHINC
 40
0.1
  9
$FILLETRAD
 40
0.0
  9
$AUNITS
 70
     0
  9
$AUPREC
 70
     0
  9
$MENU
  1
.
  9
$ELEVATION
 40
0.0
  9
$PELEVATION
 40
0.0
  9
$THICKNESS
 40
0.0
  9
$LIMCHECK
 70
     0
  9
$BLIPMODE
 70
     0
  9
$CHAMFERA
 40
0.0
  9
$CHAMFERB
 40
0.0
  9
$SKPOLY
 70
     0
  9
$TDCREATE
 40
2459084.7265162039548159
  9
$TDUPDATE
 40
2459084.7288773148320615
  9
$TDINDWG
 40
0.0023726852
  9
$TDUSRTIMER
 40
0.0023726852
  9
$USRTIMER
 70
     1
  9
$ANGBASE
 50
0.0
  9
$ANGDIR
 70
     0
  9
$PDMODE
 70
     0
  9
$PDSIZE
 40
0.0
  9
$PLINEWID
 40
0.0
  9
$COORDS
 70
     1
  9
$SPLFRAME
 70
     0
  9
$SPLINETYPE
 70
     6
  9
$SPLINESEGS
 70
     8
  9
$ATTDIA
 70
     1
  9
$ATTREQ
 70
     1
  9
$HANDLING
 70
     1
  9
$HANDSEED
  5
58F
  9
$SURFTAB1
 70
     6
  9
$SURFTAB2
 70
     6
  9
$SURFTYPE
 70
     6
  9
$SURFU
 70
     6
  9
$SURFV
 70
     6
  9
$UCSNAME
  2

  9
$UCSORG
 10
0.0
 20
0.0
 30
0.0
  9
$UCSXDIR
 10
1.0
 20
0.0
 30
0.0
  9
$UCSYDIR
 10
0.0
 20
1.0
 30
0.0
  9
$PUCSNAME
  2

  9
$PUCSORG
 10
0.0
 20
0.0
 30
0.0
  9
$PUCSXDIR
 10
1.0
 20
0.0
 30
0.0
  9
$PUCSYDIR
 10
0.0
 20
1.0
 30
0.0
  9
$USERI1
 70
     0
  9
$USERI2
 70
     0
  9
$USERI3
 70
     0
  9
$USERI4
 70
     0
  9
$USERI5
 70
     0
  9
$USERR1
 40
0.0
  9
$USERR2
 40
0.0
  9
$USERR3
 40
0.0
  9
$USERR4
 40
0.0
  9
$USERR5
 40
0.0
  9
$WORLDVIEW
 70
     1
  9
$SHADEDGE
 70
     3
  9
$SHADEDIF
 70
    70
  9
$TILEMODE
 70
     0
  9
$MAXACTVP
 70
    64
  9
$PLIMCHECK
 70
     0
  9
$PEXTMIN
 10
1.1212056274771329
 20
-1.3707909577188191
 30
0.0
  9
$PEXTMAX
 10
33.0724451279659917
 20
19.6756951148048813
 30
0.0
  9
$PLIMMIN
 10
0.0
 20
0.0
  9
$PLIMMAX
 10
12.0
 20
9.0
  9
$UNITMODE
 70
     0
  9
$VISRETAIN
 70
     1
  9
$PLINEGEN
 70
     0
  9
$PSLTSCALE
 70
     1
  0
ENDSEC
  0
SECTION
  2
TABLES
  0
TABLE
  2
VPORT
 70
     1
  0
VPORT
  2
*ACTIVE
 70
     0
 10
0.0
 20
0.0
 11
1.0
 21
1.0
 12
20.3399451729369503
 22
13.6891852830969292
 13
0.0
 23
0.0
 14
0.5
 24
0.5
 15
0.5
 25
0.5
 16
0.0
 26
0.0
 36
1.0
 17
0.0
 27
0.0
 37
0.0
 40
23.0636307389170483
 41
2.3744292237442921
 42
50.0
 43
0.0
 44
0.0
 50
0.0
 51
0.0
 71
     0
 72
  1000
 73
     1
 74
     3
 75
     0
 76
     0
 77
     0
 78
     0
  0
ENDTAB
  0
TABLE
  2
LTYPE
 70
     1
  0
LTYPE
  2
CONTINUOUS
 70
     0
  3
Solid line
 72
    65
 73
     0
 40
0.0
  0
ENDTAB
  0
TABLE
  2
LAYER
 70
     4
  0
LAYER
  2
0
 70
     0
 62
     7
  6
CONTINUOUS
  0
LAYER
  2
SKETCH_GEOMETRY__ISO_
 70
     0
 62
     7
  6
CONTINUOUS
  0
LAYER
  2
VISIBLE__ISO_
 70
     0
 62
     7
  6
CONTINUOUS
  0
LAYER
  2
VISIBLE_NARROW__ISO_
 70
     0
 62
     7
  6
CONTINUOUS
  0
ENDTAB
  0
TABLE
  2
STYLE
 70
     3
  0
STYLE
  2
STANDARD
 70
     0
 40
0.0
 41
1.0
 50
0.0
 71
     0
 42
0.2
  3
txt
  4

  0
STYLE
  2
ANNOTATIVE
 70
     0
 40
0.0
 41
1.0
 50
0.0
 71
     0
 42
0.2
  3
txt
  4

  0
STYLE
  2
TEXT_3_5MM
 70
     0
 40
0.0
 41
0.899999976158142
 50
0.0
 71
     0
 42
0.2
  3
txt
  4

  0
ENDTAB
  0
TABLE
  2
VIEW
 70
     2
  0
ENDTAB
  0
TABLE
  2
UCS
 70
     0
  0
ENDTAB
  0
TABLE
  2
APPID
 70
     5
  0
APPID
  2
ACAD
 70
     0
  0
APPID
  2
ACADANNOTATIVE
 70
     0
  0
APPID
  2
ACAD_NAV_VCDISPLAY
 70
     0
  0
APPID
  2
ACAD_PSEXT
 70
     0
  0
APPID
  2
ACAD_MLEADERVER
 70
     0
  0
ENDTAB
  0
TABLE
  2
DIMSTYLE
 70
     3
  0
DIMSTYLE
  2
STANDARD
 70
     0
  3

  4

  5

  6

  7

 40
1.0
 41
0.18
 42
0.0625
 43
0.38
 44
0.18
 45
0.0
 46
0.0
 47
0.0
 48
0.0
140
0.18
141
0.09
142
0.0
143
25.3999999999999986
144
1.0
145
0.0
146
1.0
147
0.09
 71
     0
 72
     0
 73
     1
 74
     1
 75
     0
 76
     0
 77
     0
 78
     0
170
     0
171
     2
172
     0
173
     0
174
     0
175
     0
176
     0
177
     0
178
     0
  0
DIMSTYLE
  2
ANNOTATIVE
 70
     0
  3

  4

  5

  6

  7

 40
1.0
 41
0.18
 42
0.0625
 43
0.38
 44
0.18
 45
0.0
 46
0.0
 47
0.0
 48
0.0
140
0.18
141
0.09
142
0.0
143
25.3999999999999986
144
1.0
145
0.0
146
1.0
147
0.09
 71
     0
 72
     0
 73
     1
 74
     1
 75
     0
 76
     0
 77
     0
 78
     0
170
     0
171
     2
172
     0
173
     0
174
     0
175
     0
176
     0
177
     0
178
     0
  0
DIMSTYLE
  2
KS-STANDARD
 70
     0
  3

  4

  5

  6

  7

 40
6.0
 41
2.5
 42
1.0
 43
12.0
 44
2.0
 45
0.00000001
 46
10.0
 47
0.0
 48
0.0
140
2.5
141
0.09
142
0.0
143
0.03937
144
1.0
145
0.0
146
1.0
147
0.8
 71
     0
 72
     0
 73
     0
 74
     0
 75
     0
 76
     0
 77
     1
 78
     8
170
     0
171
     3
172
     1
173
     0
174
     0
175
     0
176
     7
177
     7
178
     7
  0
ENDTAB
  0
ENDSEC
  0
SECTION
  2
BLOCKS
  0
BLOCK
  8
0
  2
$MODEL_SPACE
 70
     0
 10
0.0
 20
0.0
 30
0.0
  3
$MODEL_SPACE
  1

  0
ENDBLK
  5
72
  8
0
  0
BLOCK
 67
     1
  8
0
  2
$PAPER_SPACE
 70
     0
 10
0.0
 20
0.0
 30
0.0
  3
$PAPER_SPACE
  1

  0
ENDBLK
  5
6E
 67
     1
  8
0
  0
ENDSEC
  0
SECTION
  2
ENTITIES
  0
LINE
  5
93
  8
VISIBLE__ISO_
 10
7.9507345445240807
 20
23.1870632428209014
 30
0.0
 11
37.5397689595093169
 21
23.1870632428207912
 31
0.0
  0
ARC
  5
94
  8
0
 10
7.9507345445240807
 20
22.0059608806161009
 30
0.0
 40
1.1811023622047241
 50
90.0
 51
180.0
  0
LINE
  5
95
  8
VISIBLE_NARROW__ISO_
 10
6.7696321823191701
 20
3.4540653540325961
 30
0.0
 11
6.7696321823191701
 21
22.0059608806161009
 31
0.0
  0
LINE
  5
96
  8
VISIBLE_NARROW__ISO_
 10
37.4073834990727434
 20
2.1405775313911048
 30
0.0
 11
8.0831200049606622
 21
2.140577531391219
 31
0.0
  0
POLYLINE
  8
VISIBLE_NARROW__ISO_
  5
18B
  66
     1
 10
0.000000
 20
0.000000
 30
0.000000
  70
     8
  0
VERTEX
  8
VISIBLE_NARROW__ISO_
  5
18C
 10
37.4072
 20
2.14058
 30
0.000000
  70
    32
  0
VERTEX
  8
VISIBLE_NARROW__ISO_
  5
18D
 10
37.4113
 20
2.14058
 30
0.000000
  70
    32
  0
VERTEX
  8
VISIBLE_NARROW__ISO_
  5
18E
 10
37.4153
 20
2.14060
 30
0.000000
  70
    32
  0
VERTEX
  8
VISIBLE_NARROW__ISO_
  5
18F
 10
37.4193
 20
2.14063
 30
0.000000
  70
    32
  0
VERTEX
  8
VISIBLE_NARROW__ISO_
  5
190
 10
37.4234
 20
2.14067
 30
0.000000
  70
    32
  0
VERTEX
  8
VISIBLE_NARROW__ISO_
  5
191
 10
37.4274
 20
2.14073
 30
0.000000
  70
    32
  0
VERTEX
  8
VISIBLE_NARROW__ISO_
  5
192
 10
37.4315
 20
2.14079
 30
0.000000
  70
    32
  0
VERTEX
  8
VISIBLE_NARROW__ISO_
  5
193
 10
37.4355
 20
2.14087
 30
0.000000
  70
    32
  0
VERTEX
  8
VISIBLE_NARROW__ISO_
  5
194
 10
37.4395
 20
2.14097
 30
0.000000
  70
    32
  0
VERTEX
  8
VISIBLE_NARROW__ISO_
  5
195
 10
37.4436
 20
2.14107
 30
0.000000
  70
    32
  0
VERTEX
  8
VISIBLE_NARROW__ISO_
  5
196
 10
37.4476
 20
2.14119
 30
0.000000
  70
    32
  0
VERTEX
  8
VISIBLE_NARROW__ISO_
  5
197
 10
37.4516
 20
2.14131
 30
0.000000
  70
    32
  0
VERTEX
  8
VISIBLE_NARROW__ISO_
  5
198
 10
37.4557
 20
2.14146
 30
0.000000
  70
    32
  0
VERTEX
  8
VISIBLE_NARROW__ISO_
  5
199
 10
37.4597
 20
2.14161
 30
0.000000
  70
    32
  0
VERTEX
  8
VISIBLE_NARROW__ISO_
  5
19A
 10
37.4637
 20
2.14178
 30
0.000000
  70
    32
  0
VERTEX
  8
VISIBLE_NARROW__ISO_
  5
19B
 10
37.4678
 20
2.14195
 30
0.000000
  70
    32
  0
VERTEX
  8
VISIBLE_NARROW__ISO_
  5
19C
 10
37.4718
 20
2.14215
 30
0.000000
  70
    32
  0
VERTEX
  8
VISIBLE_NARROW__ISO_
  5
19D
 10
37.4758
 20
2.14235
 30
0.000000
  70
    32
  0
VERTEX
  8
VISIBLE_NARROW__ISO_
  5
19E
 10
37.4799
 20
2.14256
 30
0.000000
  70
    32
  0
VERTEX
  8
VISIBLE_NARROW__ISO_
  5
19F
 10
37.4839
 20
2.14279
 30
0.000000
  70
    32
  0
VERTEX
  8
VISIBLE_NARROW__ISO_
  5
1A0
 10
37.4879
 20
2.14303
 30
0.000000
  70
    32
  0
VERTEX
  8
VISIBLE_NARROW__ISO_
  5
1A1
 10
37.4920
 20
2.14329
 30
0.000000
  70
    32
  0
VERTEX
  8
VISIBLE_NARROW__ISO_
  5
1A2
 10
37.4960
 20
2.14355
 30
0.000000
  70
    32
  0
VERTEX
  8
VISIBLE_NARROW__ISO_
  5
1A3
 10
37.5000
 20
2.14383
 30
0.000000
  70
    32
  0
VERTEX
  8
VISIBLE_NARROW__ISO_
  5
1A4
 10
37.5041
 20
2.14412
 30
0.000000
  70
    32
  0
VERTEX
  8
VISIBLE_NARROW__ISO_
  5
1A5
 10
37.5081
 20
2.14442
 30
0.000000
  70
    32
  0
VERTEX
  8
VISIBLE_NARROW__ISO_
  5
1A6
 10
37.5121
 20
2.14474
 30
0.000000
  70
    32
  0
VERTEX
  8
VISIBLE_NARROW__ISO_
  5
1A7
 10
37.5161
 20
2.14506
 30
0.000000
  70
    32
  0
VERTEX
  8
VISIBLE_NARROW__ISO_
  5
1A8
 10
37.5202
 20
2.14540
 30
0.000000
  70
    32
  0
VERTEX
  8
VISIBLE_NARROW__ISO_
  5
1A9
 10
37.5242
 20
2.14575
 30
0.000000
  70
    32
  0
VERTEX
  8
VISIBLE_NARROW__ISO_
  5
1AA
 10
37.5282
 20
2.14612
 30
0.000000
  70
    32
  0
VERTEX
  8
VISIBLE_NARROW__ISO_
  5
1AB
 10
37.5322
 20
2.14649
 30
0.000000
  70
    32
  0
VERTEX
  8
VISIBLE_NARROW__ISO_
  5
1AC
 10
37.5362
 20
2.14688
 30
0.000000
  70
    32
  0
VERTEX
  8
VISIBLE_NARROW__ISO_
  5
1AD
 10
37.5403
 20
2.14728
 30
0.000000
  70
    32
  0
VERTEX
  8
VISIBLE_NARROW__ISO_
  5
1AE
 10
37.5443
 20
2.14770
 30
0.000000
  70
    32
  0
VERTEX
  8
VISIBLE_NARROW__ISO_
  5
1AF
 10
37.5483
 20
2.14812
 30
0.000000
  70
    32
  0
VERTEX
  8
VISIBLE_NARROW__ISO_
  5
1B0
 10
37.5523
 20
2.14856
 30
0.000000
  70
    32
  0
VERTEX
  8
VISIBLE_NARROW__ISO_
  5
1B1
 10
37.5563
 20
2.14901
 30
0.000000
  70
    32
  0
VERTEX
  8
VISIBLE_NARROW__ISO_
  5
1B2
 10
37.5603
 20
2.14947
 30
0.000000
  70
    32
  0
VERTEX
  8
VISIBLE_NARROW__ISO_
  5
1B3
 10
37.5643
 20
2.14995
 30
0.000000
  70
    32
  0
VERTEX
  8
VISIBLE_NARROW__ISO_
  5
1B4
 10
37.5683
 20
2.15043
 30
0.000000
  70
    32
  0
VERTEX
  8
VISIBLE_NARROW__ISO_
  5
1B5
 10
37.5724
 20
2.15093
 30
0.000000
  70
    32
  0
VERTEX
  8
VISIBLE_NARROW__ISO_
  5
1B6
 10
37.5764
 20
2.15145
 30
0.000000
  70
    32
  0
VERTEX
  8
VISIBLE_NARROW__ISO_
  5
1B7
 10
37.5804
 20
2.15197
 30
0.000000
  70
    32
  0
VERTEX
  8
VISIBLE_NARROW__ISO_
  5
1B8
 10
37.5844
 20
2.15251
 30
0.000000
  70
    32
  0
VERTEX
  8
VISIBLE_NARROW__ISO_
  5
1B9
 10
37.5884
 20
2.15305
 30
0.000000
  70
    32
  0
VERTEX
  8
VISIBLE_NARROW__ISO_
  5
1BA
 10
37.5924
 20
2.15362
 30
0.000000
  70
    32
  0
VERTEX
  8
VISIBLE_NARROW__ISO_
  5
1BB
 10
37.5964
 20
2.15419
 30
0.000000
  70
    32
  0
VERTEX
  8
VISIBLE_NARROW__ISO_
  5
1BC
 10
37.6004
 20
2.15477
 30
0.000000
  70
    32
  0
VERTEX
  8
VISIBLE_NARROW__ISO_
  5
1BD
 10
37.6044
 20
2.15537
 30
0.000000
  70
    32
  0
VERTEX
  8
VISIBLE_NARROW__ISO_
  5
1BE
 10
37.6083
 20
2.15598
 30
0.000000
  70
    32
  0
VERTEX
  8
VISIBLE_NARROW__ISO_
  5
1BF
 10
37.6123
 20
2.15660
 30
0.000000
  70
    32
  0
VERTEX
  8
VISIBLE_NARROW__ISO_
  5
1C0
 10
37.6163
 20
2.15724
 30
0.000000
  70
    32
  0
VERTEX
  8
VISIBLE_NARROW__ISO_
  5
1C1
 10
37.6203
 20
2.15789
 30
0.000000
  70
    32
  0
VERTEX
  8
VISIBLE_NARROW__ISO_
  5
1C2
 10
37.6243
 20
2.15854
 30
0.000000
  70
    32
  0
VERTEX
  8
VISIBLE_NARROW__ISO_
  5
1C3
 10
37.6283
 20
2.15922
 30
0.000000
  70
    32
  0
VERTEX
  8
VISIBLE_NARROW__ISO_
  5
1C4
 10
37.6323
 20
2.15990
 30
0.000000
  70
    32
  0
VERTEX
  8
VISIBLE_NARROW__ISO_
  5
1C5
 10
37.6362
 20
2.16060
 30
0.000000
  70
    32
  0
VERTEX
  8
VISIBLE_NARROW__ISO_
  5
1C6
 10
37.6402
 20
2.16130
 30
0.000000
  70
    32
  0
VERTEX
  8
VISIBLE_NARROW__ISO_
  5
1C7
 10
37.6442
 20
2.16203
 30
0.000000
  70
    32
  0
VERTEX
  8
VISIBLE_NARROW__ISO_
  5
1C8
 10
37.6482
 20
2.16276
 30
0.000000
  70
    32
  0
VERTEX
  8
VISIBLE_NARROW__ISO_
  5
1C9
 10
37.6521
 20
2.16350
 30
0.000000
  70
    32
  0
VERTEX
  8
VISIBLE_NARROW__ISO_
  5
1CA
 10
37.6561
 20
2.16426
 30
0.000000
  70
    32
  0
VERTEX
  8
VISIBLE_NARROW__ISO_
  5
1CB
 10
37.6601
 20
2.16503
 30
0.000000
  70
    32
  0
VERTEX
  8
VISIBLE_NARROW__ISO_
  5
1CC
 10
37.6640
 20
2.16581
 30
0.000000
  70
    32
  0
VERTEX
  8
VISIBLE_NARROW__ISO_
  5
1CD
 10
37.6680
 20
2.16661
 30
0.000000
  70
    32
  0
VERTEX
  8
VISIBLE_NARROW__ISO_
  5
1CE
 10
37.6719
 20
2.16741
 30
0.000000
  70
    32
  0
VERTEX
  8
VISIBLE_NARROW__ISO_
  5
1CF
 10
37.6759
 20
2.16823
 30
0.000000
  70
    32
  0
VERTEX
  8
VISIBLE_NARROW__ISO_
  5
1D0
 10
37.6798
 20
2.16906
 30
0.000000
  70
    32
  0
VERTEX
  8
VISIBLE_NARROW__ISO_
  5
1D1
 10
37.6838
 20
2.16990
 30
0.000000
  70
    32
  0
VERTEX
  8
VISIBLE_NARROW__ISO_
  5
1D2
 10
37.6877
 20
2.17076
 30
0.000000
  70
    32
  0
VERTEX
  8
VISIBLE_NARROW__ISO_
  5
1D3
 10
37.6917
 20
2.17163
 30
0.000000
  70
    32
  0
VERTEX
  8
VISIBLE_NARROW__ISO_
  5
1D4
 10
37.6956
 20
2.17250
 30
0.000000
  70
    32
  0
VERTEX
  8
VISIBLE_NARROW__ISO_
  5
1D5
 10
37.6996
 20
2.17340
 30
0.000000
  70
    32
  0
VERTEX
  8
VISIBLE_NARROW__ISO_
  5
1D6
 10
37.7035
 20
2.17430
 30
0.000000
  70
    32
  0
VERTEX
  8
VISIBLE_NARROW__ISO_
  5
1D7
 10
37.7074
 20
2.17521
 30
0.000000
  70
    32
  0
VERTEX
  8
VISIBLE_NARROW__ISO_
  5
1D8
 10
37.7114
 20
2.17614
 30
0.000000
  70
    32
  0
VERTEX
  8
VISIBLE_NARROW__ISO_
  5
1D9
 10
37.7153
 20
2.17708
 30
0.000000
  70
    32
  0
VERTEX
  8
VISIBLE_NARROW__ISO_
  5
1DA
 10
37.7192
 20
2.17803
 30
0.000000
  70
    32
  0
VERTEX
  8
VISIBLE_NARROW__ISO_
  5
1DB
 10
37.7231
 20
2.17900
 30
0.000000
  70
    32
  0
VERTEX
  8
VISIBLE_NARROW__ISO_
  5
1DC
 10
37.7271
 20
2.17997
 30
0.000000
  70
    32
  0
VERTEX
  8
VISIBLE_NARROW__ISO_
  5
1DD
 10
37.7310
 20
2.18096
 30
0.000000
  70
    32
  0
VERTEX
  8
VISIBLE_NARROW__ISO_
  5
1DE
 10
37.7349
 20
2.18196
 30
0.000000
  70
    32
  0
VERTEX
  8
VISIBLE_NARROW__ISO_
  5
1DF
 10
37.7388
 20
2.18297
 30
0.000000
  70
    32
  0
VERTEX
  8
VISIBLE_NARROW__ISO_
  5
1E0
 10
37.7427
 20
2.18399
 30
0.000000
  70
    32
  0
VERTEX
  8
VISIBLE_NARROW__ISO_
  5
1E1
 10
37.7466
 20
2.18503
 30
0.000000
  70
    32
  0
VERTEX
  8
VISIBLE_NARROW__ISO_
  5
1E2
 10
37.7505
 20
2.18608
 30
0.000000
  70
    32
  0
VERTEX
  8
VISIBLE_NARROW__ISO_
  5
1E3
 10
37.7544
 20
2.18714
 30
0.000000
  70
    32
  0
VERTEX
  8
VISIBLE_NARROW__ISO_
  5
1E4
 10
37.7583
 20
2.18821
 30
0.000000
  70
    32
  0
VERTEX
  8
VISIBLE_NARROW__ISO_
  5
1E5
 10
37.7622
 20
2.18929
 30
0.000000
  70
    32
  0
VERTEX
  8
VISIBLE_NARROW__ISO_
  5
1E6
 10
37.7661
 20
2.19039
 30
0.000000
  70
    32
  0
VERTEX
  8
VISIBLE_NARROW__ISO_
  5
1E7
 10
37.7700
 20
2.19150
 30
0.000000
  70
    32
  0
VERTEX
  8
VISIBLE_NARROW__ISO_
  5
1E8
 10
37.7738
 20
2.19261
 30
0.000000
  70
    32
  0
VERTEX
  8
VISIBLE_NARROW__ISO_
  5
1E9
 10
37.7777
 20
2.19375
 30
0.000000
  70
    32
  0
VERTEX
  8
VISIBLE_NARROW__ISO_
  5
1EA
 10
37.7816
 20
2.19489
 30
0.000000
  70
    32
  0
VERTEX
  8
VISIBLE_NARROW__ISO_
  5
1EB
 10
37.7855
 20
2.19604
 30
0.000000
  70
    32
  0
VERTEX
  8
VISIBLE_NARROW__ISO_
  5
1EC
 10
37.7893
 20
2.19721
 30
0.000000
  70
    32
  0
VERTEX
  8
VISIBLE_NARROW__ISO_
  5
1ED
 10
37.7932
 20
2.19839
 30
0.000000
  70
    32
  0
VERTEX
  8
VISIBLE_NARROW__ISO_
  5
1EE
 10
37.7970
 20
2.19958
 30
0.000000
  70
    32
  0
VERTEX
  8
VISIBLE_NARROW__ISO_
  5
1EF
 10
37.8009
 20
2.20078
 30
0.000000
  70
    32
  0
VERTEX
  8
VISIBLE_NARROW__ISO_
  5
1F0
 10
37.8048
 20
2.20200
 30
0.000000
  70
    32
  0
VERTEX
  8
VISIBLE_NARROW__ISO_
  5
1F1
 10
37.8086
 20
2.20322
 30
0.000000
  70
    32
  0
VERTEX
  8
VISIBLE_NARROW__ISO_
  5
1F2
 10
37.8124
 20
2.20446
 30
0.000000
  70
    32
  0
VERTEX
  8
VISIBLE_NARROW__ISO_
  5
1F3
 10
37.8163
 20
2.20571
 30
0.000000
  70
    32
  0
VERTEX
  8
VISIBLE_NARROW__ISO_
  5
1F4
 10
37.8201
 20
2.20697
 30
0.000000
  70
    32
  0
VERTEX
  8
VISIBLE_NARROW__ISO_
  5
1F5
 10
37.8240
 20
2.20824
 30
0.000000
  70
    32
  0
VERTEX
  8
VISIBLE_NARROW__ISO_
  5
1F6
 10
37.8278
 20
2.20953
 30
0.000000
  70
    32
  0
VERTEX
  8
VISIBLE_NARROW__ISO_
  5
1F7
 10
37.8316
 20
2.21082
 30
0.000000
  70
    32
  0
VERTEX
  8
VISIBLE_NARROW__ISO_
  5
1F8
 10
37.8354
 20
2.21213
 30
0.000000
  70
    32
  0
VERTEX
  8
VISIBLE_NARROW__ISO_
  5
1F9
 10
37.8392
 20
2.21345
 30
0.000000
  70
    32
  0
VERTEX
  8
VISIBLE_NARROW__ISO_
  5
1FA
 10
37.8431
 20
2.21478
 30
0.000000
  70
    32
  0
VERTEX
  8
VISIBLE_NARROW__ISO_
  5
1FB
 10
37.8469
 20
2.21613
 30
0.000000
  70
    32
  0
VERTEX
  8
VISIBLE_NARROW__ISO_
  5
1FC
 10
37.8507
 20
2.21748
 30
0.000000
  70
    32
  0
VERTEX
  8
VISIBLE_NARROW__ISO_
  5
1FD
 10
37.8545
 20
2.21885
 30
0.000000
  70
    32
  0
VERTEX
  8
VISIBLE_NARROW__ISO_
  5
1FE
 10
37.8583
 20
2.22023
 30
0.000000
  70
    32
  0
VERTEX
  8
VISIBLE_NARROW__ISO_
  5
1FF
 10
37.8621
 20
2.22162
 30
0.000000
  70
    32
  0
VERTEX
  8
VISIBLE_NARROW__ISO_
  5
200
 10
37.8659
 20
2.22302
 30
0.000000
  70
    32
  0
VERTEX
  8
VISIBLE_NARROW__ISO_
  5
201
 10
37.8696
 20
2.22443
 30
0.000000
  70
    32
  0
VERTEX
  8
VISIBLE_NARROW__ISO_
  5
202
 10
37.8734
 20
2.22585
 30
0.000000
  70
    32
  0
VERTEX
  8
VISIBLE_NARROW__ISO_
  5
203
 10
37.8772
 20
2.22729
 30
0.000000
  70
    32
  0
VERTEX
  8
VISIBLE_NARROW__ISO_
  5
204
 10
37.8810
 20
2.22874
 30
0.000000
  70
    32
  0
VERTEX
  8
VISIBLE_NARROW__ISO_
  5
205
 10
37.8847
 20
2.23020
 30
0.000000
  70
    32
  0
VERTEX
  8
VISIBLE_NARROW__ISO_
  5
206
 10
37.8885
 20
2.23167
 30
0.000000
  70
    32
  0
VERTEX
  8
VISIBLE_NARROW__ISO_
  5
207
 10
37.8922
 20
2.23315
 30
0.000000
  70
    32
  0
VERTEX
  8
VISIBLE_NARROW__ISO_
  5
208
 10
37.8960
 20
2.23465
 30
0.000000
  70
    32
  0
VERTEX
  8
VISIBLE_NARROW__ISO_
  5
209
 10
37.8997
 20
2.23615
 30
0.000000
  70
    32
  0
VERTEX
  8
VISIBLE_NARROW__ISO_
  5
20A
 10
37.9035
 20
2.23767
 30
0.000000
  70
    32
  0
VERTEX
  8
VISIBLE_NARROW__ISO_
  5
20B
 10
37.9072
 20
2.23920
 30
0.000000
  70
    32
  0
VERTEX
  8
VISIBLE_NARROW__ISO_
  5
20C
 10
37.9110
 20
2.24074
 30
0.000000
  70
    32
  0
VERTEX
  8
VISIBLE_NARROW__ISO_
  5
20D
 10
37.9147
 20
2.24229
 30
0.000000
  70
    32
  0
VERTEX
  8
VISIBLE_NARROW__ISO_
  5
20E
 10
37.9184
 20
2.24385
 30
0.000000
  70
    32
  0
VERTEX
  8
VISIBLE_NARROW__ISO_
  5
20F
 10
37.9221
 20
2.24543
 30
0.000000
  70
    32
  0
VERTEX
  8
VISIBLE_NARROW__ISO_
  5
210
 10
37.9258
 20
2.24701
 30
0.000000
  70
    32
  0
VERTEX
  8
VISIBLE_NARROW__ISO_
  5
211
 10
37.9296
 20
2.24861
 30
0.000000
  70
    32
  0
VERTEX
  8
VISIBLE_NARROW__ISO_
  5
212
 10
37.9333
 20
2.25022
 30
0.000000
  70
    32
  0
VERTEX
  8
VISIBLE_NARROW__ISO_
  5
213
 10
37.9370
 20
2.25184
 30
0.000000
  70
    32
  0
VERTEX
  8
VISIBLE_NARROW__ISO_
  5
214
 10
37.9407
 20
2.25347
 30
0.000000
  70
    32
  0
VERTEX
  8
VISIBLE_NARROW__ISO_
  5
215
 10
37.9443
 20
2.25512
 30
0.000000
  70
    32
  0
VERTEX
  8
VISIBLE_NARROW__ISO_
  5
216
 10
37.9480
 20
2.25677
 30
0.000000
  70
    32
  0
VERTEX
  8
VISIBLE_NARROW__ISO_
  5
217
 10
37.9517
 20
2.25844
 30
0.000000
  70
    32
  0
VERTEX
  8
VISIBLE_NARROW__ISO_
  5
218
 10
37.9554
 20
2.26011
 30
0.000000
  70
    32
  0
VERTEX
  8
VISIBLE_NARROW__ISO_
  5
219
 10
37.9590
 20
2.26180
 30
0.000000
  70
    32
  0
VERTEX
  8
VISIBLE_NARROW__ISO_
  5
21A
 10
37.9627
 20
2.26350
 30
0.000000
  70
    32
  0
VERTEX
  8
VISIBLE_NARROW__ISO_
  5
21B
 10
37.9664
 20
2.26522
 30
0.000000
  70
    32
  0
VERTEX
  8
VISIBLE_NARROW__ISO_
  5
21C
 10
37.9700
 20
2.26694
 30
0.000000
  70
    32
  0
VERTEX
  8
VISIBLE_NARROW__ISO_
  5
21D
 10
37.9737
 20
2.26867
 30
0.000000
  70
    32
  0
VERTEX
  8
VISIBLE_NARROW__ISO_
  5
21E
 10
37.9773
 20
2.27042
 30
0.000000
  70
    32
  0
VERTEX
  8
VISIBLE_NARROW__ISO_
  5
21F
 10
37.9810
 20
2.27217
 30
0.000000
  70
    32
  0
VERTEX
  8
VISIBLE_NARROW__ISO_
  5
220
 10
37.9846
 20
2.27394
 30
0.000000
  70
    32
  0
VERTEX
  8
VISIBLE_NARROW__ISO_
  5
221
 10
37.9882
 20
2.27572
 30
0.000000
  70
    32
  0
VERTEX
  8
VISIBLE_NARROW__ISO_
  5
222
 10
37.9918
 20
2.27751
 30
0.000000
  70
    32
  0
VERTEX
  8
VISIBLE_NARROW__ISO_
  5
223
 10
37.9954
 20
2.27931
 30
0.000000
  70
    32
  0
VERTEX
  8
VISIBLE_NARROW__ISO_
  5
224
 10
37.9991
 20
2.28113
 30
0.000000
  70
    32
  0
VERTEX
  8
VISIBLE_NARROW__ISO_
  5
225
 10
38.0027
 20
2.28295
 30
0.000000
  70
    32
  0
VERTEX
  8
VISIBLE_NARROW__ISO_
  5
226
 10
38.0063
 20
2.28478
 30
0.000000
  70
    32
  0
VERTEX
  8
VISIBLE_NARROW__ISO_
  5
227
 10
38.0098
 20
2.28663
 30
0.000000
  70
    32
  0
VERTEX
  8
VISIBLE_NARROW__ISO_
  5
228
 10
38.0134
 20
2.28849
 30
0.000000
  70
    32
  0
VERTEX
  8
VISIBLE_NARROW__ISO_
  5
229
 10
38.0170
 20
2.29035
 30
0.000000
  70
    32
  0
VERTEX
  8
VISIBLE_NARROW__ISO_
  5
22A
 10
38.0206
 20
2.29223
 30
0.000000
  70
    32
  0
VERTEX
  8
VISIBLE_NARROW__ISO_
  5
22B
 10
38.0242
 20
2.29412
 30
0.000000
  70
    32
  0
VERTEX
  8
VISIBLE_NARROW__ISO_
  5
22C
 10
38.0277
 20
2.29602
 30
0.000000
  70
    32
  0
VERTEX
  8
VISIBLE_NARROW__ISO_
  5
22D
 10
38.0313
 20
2.29794
 30
0.000000
  70
    32
  0
VERTEX
  8
VISIBLE_NARROW__ISO_
  5
22E
 10
38.0348
 20
2.29986
 30
0.000000
  70
    32
  0
VERTEX
  8
VISIBLE_NARROW__ISO_
  5
22F
 10
38.0384
 20
2.30179
 30
0.000000
  70
    32
  0
VERTEX
  8
VISIBLE_NARROW__ISO_
  5
230
 10
38.0419
 20
2.30374
 30
0.000000
  70
    32
  0
VERTEX
  8
VISIBLE_NARROW__ISO_
  5
231
 10
38.0455
 20
2.30569
 30
0.000000
  70
    32
  0
VERTEX
  8
VISIBLE_NARROW__ISO_
  5
232
 10
38.0490
 20
2.30766
 30
0.000000
  70
    32
  0
VERTEX
  8
VISIBLE_NARROW__ISO_
  5
233
 10
38.0525
 20
2.30964
 30
0.000000
  70
    32
  0
VERTEX
  8
VISIBLE_NARROW__ISO_
  5
234
 10
38.0560
 20
2.31163
 30
0.000000
  70
    32
  0
VERTEX
  8
VISIBLE_NARROW__ISO_
  5
235
 10
38.0595
 20
2.31363
 30
0.000000
  70
    32
  0
VERTEX
  8
VISIBLE_NARROW__ISO_
  5
236
 10
38.0630
 20
2.31563
 30
0.000000
  70
    32
  0
VERTEX
  8
VISIBLE_NARROW__ISO_
  5
237
 10
38.0665
 20
2.31766
 30
0.000000
  70
    32
  0
VERTEX
  8
VISIBLE_NARROW__ISO_
  5
238
 10
38.0700
 20
2.31969
 30
0.000000
  70
    32
  0
VERTEX
  8
VISIBLE_NARROW__ISO_
  5
239
 10
38.0735
 20
2.32173
 30
0.000000
  70
    32
  0
VERTEX
  8
VISIBLE_NARROW__ISO_
  5
23A
 10
38.0770
 20
2.32378
 30
0.000000
  70
    32
  0
VERTEX
  8
VISIBLE_NARROW__ISO_
  5
23B
 10
38.0805
 20
2.32584
 30
0.000000
  70
    32
  0
VERTEX
  8
VISIBLE_NARROW__ISO_
  5
23C
 10
38.0839
 20
2.32792
 30
0.000000
  70
    32
  0
VERTEX
  8
VISIBLE_NARROW__ISO_
  5
23D
 10
38.0874
 20
2.33000
 30
0.000000
  70
    32
  0
VERTEX
  8
VISIBLE_NARROW__ISO_
  5
23E
 10
38.0908
 20
2.33210
 30
0.000000
  70
    32
  0
VERTEX
  8
VISIBLE_NARROW__ISO_
  5
23F
 10
38.0943
 20
2.33420
 30
0.000000
  70
    32
  0
VERTEX
  8
VISIBLE_NARROW__ISO_
  5
240
 10
38.0977
 20
2.33632
 30
0.000000
  70
    32
  0
VERTEX
  8
VISIBLE_NARROW__ISO_
  5
241
 10
38.1012
 20
2.33845
 30
0.000000
  70
    32
  0
VERTEX
  8
VISIBLE_NARROW__ISO_
  5
242
 10
38.1046
 20
2.34059
 30
0.000000
  70
    32
  0
VERTEX
  8
VISIBLE_NARROW__ISO_
  5
243
 10
38.1080
 20
2.34273
 30
0.000000
  70
    32
  0
VERTEX
  8
VISIBLE_NARROW__ISO_
  5
244
 10
38.1114
 20
2.34489
 30
0.000000
  70
    32
  0
VERTEX
  8
VISIBLE_NARROW__ISO_
  5
245
 10
38.1148
 20
2.34706
 30
0.000000
  70
    32
  0
VERTEX
  8
VISIBLE_NARROW__ISO_
  5
246
 10
38.1182
 20
2.34924
 30
0.000000
  70
    32
  0
VERTEX
  8
VISIBLE_NARROW__ISO_
  5
247
 10
38.1216
 20
2.35143
 30
0.000000
  70
    32
  0
VERTEX
  8
VISIBLE_NARROW__ISO_
  5
248
 10
38.1250
 20
2.35363
 30
0.000000
  70
    32
  0
VERTEX
  8
VISIBLE_NARROW__ISO_
  5
249
 10
38.1284
 20
2.35584
 30
0.000000
  70
    32
  0
VERTEX
  8
VISIBLE_NARROW__ISO_
  5
24A
 10
38.1318
 20
2.35806
 30
0.000000
  70
    32
  0
VERTEX
  8
VISIBLE_NARROW__ISO_
  5
24B
 10
38.1351
 20
2.36029
 30
0.000000
  70
    32
  0
VERTEX
  8
VISIBLE_NARROW__ISO_
  5
24C
 10
38.1385
 20
2.36253
 30
0.000000
  70
    32
  0
VERTEX
  8
VISIBLE_NARROW__ISO_
  5
24D
 10
38.1418
 20
2.36479
 30
0.000000
  70
    32
  0
VERTEX
  8
VISIBLE_NARROW__ISO_
  5
24E
 10
38.1452
 20
2.36705
 30
0.000000
  70
    32
  0
VERTEX
  8
VISIBLE_NARROW__ISO_
  5
24F
 10
38.1485
 20
2.36932
 30
0.000000
  70
    32
  0
VERTEX
  8
VISIBLE_NARROW__ISO_
  5
250
 10
38.1519
 20
2.37160
 30
0.000000
  70
    32
  0
VERTEX
  8
VISIBLE_NARROW__ISO_
  5
251
 10
38.1552
 20
2.37390
 30
0.000000
  70
    32
  0
VERTEX
  8
VISIBLE_NARROW__ISO_
  5
252
 10
38.1585
 20
2.37620
 30
0.000000
  70
    32
  0
VERTEX
  8
VISIBLE_NARROW__ISO_
  5
253
 10
38.1618
 20
2.37851
 30
0.000000
  70
    32
  0
VERTEX
  8
VISIBLE_NARROW__ISO_
  5
254
 10
38.1651
 20
2.38084
 30
0.000000
  70
    32
  0
VERTEX
  8
VISIBLE_NARROW__ISO_
  5
255
 10
38.1684
 20
2.38317
 30
0.000000
  70
    32
  0
VERTEX
  8
VISIBLE_NARROW__ISO_
  5
256
 10
38.1717
 20
2.38551
 30
0.000000
  70
    32
  0
VERTEX
  8
VISIBLE_NARROW__ISO_
  5
257
 10
38.1750
 20
2.38787
 30
0.000000
  70
    32
  0
VERTEX
  8
VISIBLE_NARROW__ISO_
  5
258
 10
38.1783
 20
2.39023
 30
0.000000
  70
    32
  0
VERTEX
  8
VISIBLE_NARROW__ISO_
  5
259
 10
38.1815
 20
2.39261
 30
0.000000
  70
    32
  0
VERTEX
  8
VISIBLE_NARROW__ISO_
  5
25A
 10
38.1848
 20
2.39499
 30
0.000000
  70
    32
  0
VERTEX
  8
VISIBLE_NARROW__ISO_
  5
25B
 10
38.1880
 20
2.39738
 30
0.000000
  70
    32
  0
VERTEX
  8
VISIBLE_NARROW__ISO_
  5
25C
 10
38.1913
 20
2.39979
 30
0.000000
  70
    32
  0
VERTEX
  8
VISIBLE_NARROW__ISO_
  5
25D
 10
38.1945
 20
2.40220
 30
0.000000
  70
    32
  0
VERTEX
  8
VISIBLE_NARROW__ISO_
  5
25E
 10
38.1978
 20
2.40463
 30
0.000000
  70
    32
  0
VERTEX
  8
VISIBLE_NARROW__ISO_
  5
25F
 10
38.2010
 20
2.40706
 30
0.000000
  70
    32
  0
VERTEX
  8
VISIBLE_NARROW__ISO_
  5
260
 10
38.2042
 20
2.40950
 30
0.000000
  70
    32
  0
VERTEX
  8
VISIBLE_NARROW__ISO_
  5
261
 10
38.2074
 20
2.41196
 30
0.000000
  70
    32
  0
VERTEX
  8
VISIBLE_NARROW__ISO_
  5
262
 10
38.2106
 20
2.41442
 30
0.000000
  70
    32
  0
VERTEX
  8
VISIBLE_NARROW__ISO_
  5
263
 10
38.2138
 20
2.41689
 30
0.000000
  70
    32
  0
VERTEX
  8
VISIBLE_NARROW__ISO_
  5
264
 10
38.2170
 20
2.41938
 30
0.000000
  70
    32
  0
VERTEX
  8
VISIBLE_NARROW__ISO_
  5
265
 10
38.2202
 20
2.42187
 30
0.000000
  70
    32
  0
VERTEX
  8
VISIBLE_NARROW__ISO_
  5
266
 10
38.2233
 20
2.42437
 30
0.000000
  70
    32
  0
VERTEX
  8
VISIBLE_NARROW__ISO_
  5
267
 10
38.2265
 20
2.42688
 30
0.000000
  70
    32
  0
VERTEX
  8
VISIBLE_NARROW__ISO_
  5
268
 10
38.2297
 20
2.42941
 30
0.000000
  70
    32
  0
VERTEX
  8
VISIBLE_NARROW__ISO_
  5
269
 10
38.2328
 20
2.43194
 30
0.000000
  70
    32
  0
VERTEX
  8
VISIBLE_NARROW__ISO_
  5
26A
 10
38.2359
 20
2.43448
 30
0.000000
  70
    32
  0
VERTEX
  8
VISIBLE_NARROW__ISO_
  5
26B
 10
38.2391
 20
2.43703
 30
0.000000
  70
    32
  0
VERTEX
  8
VISIBLE_NARROW__ISO_
  5
26C
 10
38.2422
 20
2.43959
 30
0.000000
  70
    32
  0
VERTEX
  8
VISIBLE_NARROW__ISO_
  5
26D
 10
38.2453
 20
2.44216
 30
0.000000
  70
    32
  0
VERTEX
  8
VISIBLE_NARROW__ISO_
  5
26E
 10
38.2484
 20
2.44474
 30
0.000000
  70
    32
  0
VERTEX
  8
VISIBLE_NARROW__ISO_
  5
26F
 10
38.2515
 20
2.44733
 30
0.000000
  70
    32
  0
VERTEX
  8
VISIBLE_NARROW__ISO_
  5
270
 10
38.2546
 20
2.44993
 30
0.000000
  70
    32
  0
VERTEX
  8
VISIBLE_NARROW__ISO_
  5
271
 10
38.2577
 20
2.45254
 30
0.000000
  70
    32
  0
VERTEX
  8
VISIBLE_NARROW__ISO_
  5
272
 10
38.2608
 20
2.45516
 30
0.000000
  70
    32
  0
VERTEX
  8
VISIBLE_NARROW__ISO_
  5
273
 10
38.2638
 20
2.45779
 30
0.000000
  70
    32
  0
VERTEX
  8
VISIBLE_NARROW__ISO_
  5
274
 10
38.2669
 20
2.46043
 30
0.000000
  70
    32
  0
VERTEX
  8
VISIBLE_NARROW__ISO_
  5
275
 10
38.2699
 20
2.46307
 30
0.000000
  70
    32
  0
VERTEX
  8
VISIBLE_NARROW__ISO_
  5
276
 10
38.2730
 20
2.46573
 30
0.000000
  70
    32
  0
VERTEX
  8
VISIBLE_NARROW__ISO_
  5
277
 10
38.2760
 20
2.46839
 30
0.000000
  70
    32
  0
VERTEX
  8
VISIBLE_NARROW__ISO_
  5
278
 10
38.2791
 20
2.47107
 30
0.000000
  70
    32
  0
VERTEX
  8
VISIBLE_NARROW__ISO_
  5
279
 10
38.2821
 20
2.47375
 30
0.000000
  70
    32
  0
VERTEX
  8
VISIBLE_NARROW__ISO_
  5
27A
 10
38.2851
 20
2.47645
 30
0.000000
  70
    32
  0
VERTEX
  8
VISIBLE_NARROW__ISO_
  5
27B
 10
38.2881
 20
2.47915
 30
0.000000
  70
    32
  0
VERTEX
  8
VISIBLE_NARROW__ISO_
  5
27C
 10
38.2911
 20
2.48186
 30
0.000000
  70
    32
  0
VERTEX
  8
VISIBLE_NARROW__ISO_
  5
27D
 10
38.2941
 20
2.48459
 30
0.000000
  70
    32
  0
VERTEX
  8
VISIBLE_NARROW__ISO_
  5
27E
 10
38.2970
 20
2.48732
 30
0.000000
  70
    32
  0
VERTEX
  8
VISIBLE_NARROW__ISO_
  5
27F
 10
38.3000
 20
2.49006
 30
0.000000
  70
    32
  0
VERTEX
  8
VISIBLE_NARROW__ISO_
  5
280
 10
38.3030
 20
2.49281
 30
0.000000
  70
    32
  0
VERTEX
  8
VISIBLE_NARROW__ISO_
  5
281
 10
38.3059
 20
2.49556
 30
0.000000
  70
    32
  0
VERTEX
  8
VISIBLE_NARROW__ISO_
  5
282
 10
38.3089
 20
2.49833
 30
0.000000
  70
    32
  0
VERTEX
  8
VISIBLE_NARROW__ISO_
  5
283
 10
38.3118
 20
2.50111
 30
0.000000
  70
    32
  0
VERTEX
  8
VISIBLE_NARROW__ISO_
  5
284
 10
38.3147
 20
2.50389
 30
0.000000
  70
    32
  0
VERTEX
  8
VISIBLE_NARROW__ISO_
  5
285
 10
38.3176
 20
2.50669
 30
0.000000
  70
    32
  0
VERTEX
  8
VISIBLE_NARROW__ISO_
  5
286
 10
38.3205
 20
2.50949
 30
0.000000
  70
    32
  0
VERTEX
  8
VISIBLE_NARROW__ISO_
  5
287
 10
38.3234
 20
2.51230
 30
0.000000
  70
    32
  0
VERTEX
  8
VISIBLE_NARROW__ISO_
  5
288
 10
38.3263
 20
2.51512
 30
0.000000
  70
    32
  0
VERTEX
  8
VISIBLE_NARROW__ISO_
  5
289
 10
38.3292
 20
2.51795
 30
0.000000
  70
    32
  0
VERTEX
  8
VISIBLE_NARROW__ISO_
  5
28A
 10
38.3321
 20
2.52079
 30
0.000000
  70
    32
  0
VERTEX
  8
VISIBLE_NARROW__ISO_
  5
28B
 10
38.3350
 20
2.52364
 30
0.000000
  70
    32
  0
VERTEX
  8
VISIBLE_NARROW__ISO_
  5
28C
 10
38.3378
 20
2.52650
 30
0.000000
  70
    32
  0
VERTEX
  8
VISIBLE_NARROW__ISO_
  5
28D
 10
38.3407
 20
2.52936
 30
0.000000
  70
    32
  0
VERTEX
  8
VISIBLE_NARROW__ISO_
  5
28E
 10
38.3435
 20
2.53224
 30
0.000000
  70
    32
  0
VERTEX
  8
VISIBLE_NARROW__ISO_
  5
28F
 10
38.3463
 20
2.53512
 30
0.000000
  70
    32
  0
VERTEX
  8
VISIBLE_NARROW__ISO_
  5
290
 10
38.3491
 20
2.53801
 30
0.000000
  70
    32
  0
VERTEX
  8
VISIBLE_NARROW__ISO_
  5
291
 10
38.3520
 20
2.54091
 30
0.000000
  70
    32
  0
VERTEX
  8
VISIBLE_NARROW__ISO_
  5
292
 10
38.3548
 20
2.54382
 30
0.000000
  70
    32
  0
VERTEX
  8
VISIBLE_NARROW__ISO_
  5
293
 10
38.3575
 20
2.54674
 30
0.000000
  70
    32
  0
VERTEX
  8
VISIBLE_NARROW__ISO_
  5
294
 10
38.3603
 20
2.54966
 30
0.000000
  70
    32
  0
VERTEX
  8
VISIBLE_NARROW__ISO_
  5
295
 10
38.3631
 20
2.55260
 30
0.000000
  70
    32
  0
VERTEX
  8
VISIBLE_NARROW__ISO_
  5
296
 10
38.3659
 20
2.55554
 30
0.000000
  70
    32
  0
VERTEX
  8
VISIBLE_NARROW__ISO_
  5
297
 10
38.3686
 20
2.55849
 30
0.000000
  70
    32
  0
VERTEX
  8
VISIBLE_NARROW__ISO_
  5
298
 10
38.3714
 20
2.56145
 30
0.000000
  70
    32
  0
VERTEX
  8
VISIBLE_NARROW__ISO_
  5
299
 10
38.3741
 20
2.56442
 30
0.000000
  70
    32
  0
VERTEX
  8
VISIBLE_NARROW__ISO_
  5
29A
 10
38.3769
 20
2.56740
 30
0.000000
  70
    32
  0
VERTEX
  8
VISIBLE_NARROW__ISO_
  5
29B
 10
38.3796
 20
2.57038
 30
0.000000
  70
    32
  0
VERTEX
  8
VISIBLE_NARROW__ISO_
  5
29C
 10
38.3823
 20
2.57338
 30
0.000000
  70
    32
  0
VERTEX
  8
VISIBLE_NARROW__ISO_
  5
29D
 10
38.3850
 20
2.57638
 30
0.000000
  70
    32
  0
VERTEX
  8
VISIBLE_NARROW__ISO_
  5
29E
 10
38.3877
 20
2.57939
 30
0.000000
  70
    32
  0
VERTEX
  8
VISIBLE_NARROW__ISO_
  5
29F
 10
38.3904
 20
2.58241
 30
0.000000
  70
    32
  0
VERTEX
  8
VISIBLE_NARROW__ISO_
  5
2A0
 10
38.3930
 20
2.58543
 30
0.000000
  70
    32
  0
VERTEX
  8
VISIBLE_NARROW__ISO_
  5
2A1
 10
38.3957
 20
2.58847
 30
0.000000
  70
    32
  0
VERTEX
  8
VISIBLE_NARROW__ISO_
  5
2A2
 10
38.3984
 20
2.59151
 30
0.000000
  70
    32
  0
VERTEX
  8
VISIBLE_NARROW__ISO_
  5
2A3
 10
38.4010
 20
2.59456
 30
0.000000
  70
    32
  0
VERTEX
  8
VISIBLE_NARROW__ISO_
  5
2A4
 10
38.4036
 20
2.59762
 30
0.000000
  70
    32
  0
VERTEX
  8
VISIBLE_NARROW__ISO_
  5
2A5
 10
38.4063
 20
2.60069
 30
0.000000
  70
    32
  0
VERTEX
  8
VISIBLE_NARROW__ISO_
  5
2A6
 10
38.4089
 20
2.60377
 30
0.000000
  70
    32
  0
VERTEX
  8
VISIBLE_NARROW__ISO_
  5
2A7
 10
38.4115
 20
2.60685
 30
0.000000
  70
    32
  0
VERTEX
  8
VISIBLE_NARROW__ISO_
  5
2A8
 10
38.4141
 20
2.60994
 30
0.000000
  70
    32
  0
VERTEX
  8
VISIBLE_NARROW__ISO_
  5
2A9
 10
38.4167
 20
2.61304
 30
0.000000
  70
    32
  0
VERTEX
  8
VISIBLE_NARROW__ISO_
  5
2AA
 10
38.4193
 20
2.61615
 30
0.000000
  70
    32
  0
VERTEX
  8
VISIBLE_NARROW__ISO_
  5
2AB
 10
38.4218
 20
2.61926
 30
0.000000
  70
    32
  0
VERTEX
  8
VISIBLE_NARROW__ISO_
  5
2AC
 10
38.4244
 20
2.62238
 30
0.000000
  70
    32
  0
VERTEX
  8
VISIBLE_NARROW__ISO_
  5
2AD
 10
38.4270
 20
2.62552
 30
0.000000
  70
    32
  0
VERTEX
  8
VISIBLE_NARROW__ISO_
  5
2AE
 10
38.4295
 20
2.62865
 30
0.000000
  70
    32
  0
VERTEX
  8
VISIBLE_NARROW__ISO_
  5
2AF
 10
38.4320
 20
2.63180
 30
0.000000
  70
    32
  0
VERTEX
  8
VISIBLE_NARROW__ISO_
  5
2B0
 10
38.4346
 20
2.63495
 30
0.000000
  70
    32
  0
VERTEX
  8
VISIBLE_NARROW__ISO_
  5
2B1
 10
38.4371
 20
2.63812
 30
0.000000
  70
    32
  0
VERTEX
  8
VISIBLE_NARROW__ISO_
  5
2B2
 10
38.4396
 20
2.64129
 30
0.000000
  70
    32
  0
VERTEX
  8
VISIBLE_NARROW__ISO_
  5
2B3
 10
38.4421
 20
2.64446
 30
0.000000
  70
    32
  0
VERTEX
  8
VISIBLE_NARROW__ISO_
  5
2B4
 10
38.4446
 20
2.64765
 30
0.000000
  70
    32
  0
VERTEX
  8
VISIBLE_NARROW__ISO_
  5
2B5
 10
38.4470
 20
2.65084
 30
0.000000
  70
    32
  0
VERTEX
  8
VISIBLE_NARROW__ISO_
  5
2B6
 10
38.4495
 20
2.65404
 30
0.000000
  70
    32
  0
VERTEX
  8
VISIBLE_NARROW__ISO_
  5
2B7
 10
38.4519
 20
2.65725
 30
0.000000
  70
    32
  0
VERTEX
  8
VISIBLE_NARROW__ISO_
  5
2B8
 10
38.4544
 20
2.66046
 30
0.000000
  70
    32
  0
VERTEX
  8
VISIBLE_NARROW__ISO_
  5
2B9
 10
38.4568
 20
2.66369
 30
0.000000
  70
    32
  0
VERTEX
  8
VISIBLE_NARROW__ISO_
  5
2BA
 10
38.4593
 20
2.66692
 30
0.000000
  70
    32
  0
VERTEX
  8
VISIBLE_NARROW__ISO_
  5
2BB
 10
38.4617
 20
2.67016
 30
0.000000
  70
    32
  0
VERTEX
  8
VISIBLE_NARROW__ISO_
  5
2BC
 10
38.4641
 20
2.67340
 30
0.000000
  70
    32
  0
VERTEX
  8
VISIBLE_NARROW__ISO_
  5
2BD
 10
38.4665
 20
2.67665
 30
0.000000
  70
    32
  0
VERTEX
  8
VISIBLE_NARROW__ISO_
  5
2BE
 10
38.4689
 20
2.67991
 30
0.000000
  70
    32
  0
VERTEX
  8
VISIBLE_NARROW__ISO_
  5
2BF
 10
38.4712
 20
2.68318
 30
0.000000
  70
    32
  0
VERTEX
  8
VISIBLE_NARROW__ISO_
  5
2C0
 10
38.4736
 20
2.68645
 30
0.000000
  70
    32
  0
VERTEX
  8
VISIBLE_NARROW__ISO_
  5
2C1
 10
38.4759
 20
2.68974
 30
0.000000
  70
    32
  0
VERTEX
  8
VISIBLE_NARROW__ISO_
  5
2C2
 10
38.4783
 20
2.69303
 30
0.000000
  70
    32
  0
VERTEX
  8
VISIBLE_NARROW__ISO_
  5
2C3
 10
38.4806
 20
2.69632
 30
0.000000
  70
    32
  0
VERTEX
  8
VISIBLE_NARROW__ISO_
  5
2C4
 10
38.4829
 20
2.69963
 30
0.000000
  70
    32
  0
VERTEX
  8
VISIBLE_NARROW__ISO_
  5
2C5
 10
38.4853
 20
2.70294
 30
0.000000
  70
    32
  0
VERTEX
  8
VISIBLE_NARROW__ISO_
  5
2C6
 10
38.4876
 20
2.70625
 30
0.000000
  70
    32
  0
VERTEX
  8
VISIBLE_NARROW__ISO_
  5
2C7
 10
38.4899
 20
2.70958
 30
0.000000
  70
    32
  0
VERTEX
  8
VISIBLE_NARROW__ISO_
  5
2C8
 10
38.4921
 20
2.71291
 30
0.000000
  70
    32
  0
VERTEX
  8
VISIBLE_NARROW__ISO_
  5
2C9
 10
38.4944
 20
2.71625
 30
0.000000
  70
    32
  0
VERTEX
  8
VISIBLE_NARROW__ISO_
  5
2CA
 10
38.4967
 20
2.71960
 30
0.000000
  70
    32
  0
VERTEX
  8
VISIBLE_NARROW__ISO_
  5
2CB
 10
38.4989
 20
2.72295
 30
0.000000
  70
    32
  0
VERTEX
  8
VISIBLE_NARROW__ISO_
  5
2CC
 10
38.5012
 20
2.72631
 30
0.000000
  70
    32
  0
VERTEX
  8
VISIBLE_NARROW__ISO_
  5
2CD
 10
38.5034
 20
2.72967
 30
0.000000
  70
    32
  0
VERTEX
  8
VISIBLE_NARROW__ISO_
  5
2CE
 10
38.5056
 20
2.73305
 30
0.000000
  70
    32
  0
VERTEX
  8
VISIBLE_NARROW__ISO_
  5
2CF
 10
38.5078
 20
2.73643
 30
0.000000
  70
    32
  0
VERTEX
  8
VISIBLE_NARROW__ISO_
  5
2D0
 10
38.5100
 20
2.73982
 30
0.000000
  70
    32
  0
VERTEX
  8
VISIBLE_NARROW__ISO_
  5
2D1
 10
38.5122
 20
2.74321
 30
0.000000
  70
    32
  0
VERTEX
  8
VISIBLE_NARROW__ISO_
  5
2D2
 10
38.5144
 20
2.74661
 30
0.000000
  70
    32
  0
VERTEX
  8
VISIBLE_NARROW__ISO_
  5
2D3
 10
38.5166
 20
2.75002
 30
0.000000
  70
    32
  0
VERTEX
  8
VISIBLE_NARROW__ISO_
  5
2D4
 10
38.5187
 20
2.75343
 30
0.000000
  70
    32
  0
VERTEX
  8
VISIBLE_NARROW__ISO_
  5
2D5
 10
38.5209
 20
2.75685
 30
0.000000
  70
    32
  0
VERTEX
  8
VISIBLE_NARROW__ISO_
  5
2D6
 10
38.5230
 20
2.76028
 30
0.000000
  70
    32
  0
VERTEX
  8
VISIBLE_NARROW__ISO_
  5
2D7
 10
38.5251
 20
2.76372
 30
0.000000
  70
    32
  0
VERTEX
  8
VISIBLE_NARROW__ISO_
  5
2D8
 10
38.5273
 20
2.76716
 30
0.000000
  70
    32
  0
VERTEX
  8
VISIBLE_NARROW__ISO_
  5
2D9
 10
38.5294
 20
2.77060
 30
0.000000
  70
    32
  0
VERTEX
  8
VISIBLE_NARROW__ISO_
  5
2DA
 10
38.5315
 20
2.77406
 30
0.000000
  70
    32
  0
VERTEX
  8
VISIBLE_NARROW__ISO_
  5
2DB
 10
38.5335
 20
2.77752
 30
0.000000
  70
    32
  0
VERTEX
  8
VISIBLE_NARROW__ISO_
  5
2DC
 10
38.5356
 20
2.78098
 30
0.000000
  70
    32
  0
VERTEX
  8
VISIBLE_NARROW__ISO_
  5
2DD
 10
38.5377
 20
2.78446
 30
0.000000
  70
    32
  0
VERTEX
  8
VISIBLE_NARROW__ISO_
  5
2DE
 10
38.5397
 20
2.78794
 30
0.000000
  70
    32
  0
VERTEX
  8
VISIBLE_NARROW__ISO_
  5
2DF
 10
38.5418
 20
2.79142
 30
0.000000
  70
    32
  0
VERTEX
  8
VISIBLE_NARROW__ISO_
  5
2E0
 10
38.5438
 20
2.79491
 30
0.000000
  70
    32
  0
VERTEX
  8
VISIBLE_NARROW__ISO_
  5
2E1
 10
38.5458
 20
2.79841
 30
0.000000
  70
    32
  0
VERTEX
  8
VISIBLE_NARROW__ISO_
  5
2E2
 10
38.5478
 20
2.80192
 30
0.000000
  70
    32
  0
VERTEX
  8
VISIBLE_NARROW__ISO_
  5
2E3
 10
38.5498
 20
2.80543
 30
0.000000
  70
    32
  0
VERTEX
  8
VISIBLE_NARROW__ISO_
  5
2E4
 10
38.5518
 20
2.80894
 30
0.000000
  70
    32
  0
VERTEX
  8
VISIBLE_NARROW__ISO_
  5
2E5
 10
38.5538
 20
2.81247
 30
0.000000
  70
    32
  0
VERTEX
  8
VISIBLE_NARROW__ISO_
  5
2E6
 10
38.5558
 20
2.81599
 30
0.000000
  70
    32
  0
VERTEX
  8
VISIBLE_NARROW__ISO_
  5
2E7
 10
38.5577
 20
2.81953
 30
0.000000
  70
    32
  0
VERTEX
  8
VISIBLE_NARROW__ISO_
  5
2E8
 10
38.5597
 20
2.82307
 30
0.000000
  70
    32
  0
VERTEX
  8
VISIBLE_NARROW__ISO_
  5
2E9
 10
38.5616
 20
2.82662
 30
0.000000
  70
    32
  0
VERTEX
  8
VISIBLE_NARROW__ISO_
  5
2EA
 10
38.5635
 20
2.83017
 30
0.000000
  70
    32
  0
VERTEX
  8
VISIBLE_NARROW__ISO_
  5
2EB
 10
38.5654
 20
2.83373
 30
0.000000
  70
    32
  0
VERTEX
  8
VISIBLE_NARROW__ISO_
  5
2EC
 10
38.5673
 20
2.83729
 30
0.000000
  70
    32
  0
VERTEX
  8
VISIBLE_NARROW__ISO_
  5
2ED
 10
38.5692
 20
2.84086
 30
0.000000
  70
    32
  0
VERTEX
  8
VISIBLE_NARROW__ISO_
  5
2EE
 10
38.5711
 20
2.84444
 30
0.000000
  70
    32
  0
VERTEX
  8
VISIBLE_NARROW__ISO_
  5
2EF
 10
38.5730
 20
2.84802
 30
0.000000
  70
    32
  0
VERTEX
  8
VISIBLE_NARROW__ISO_
  5
2F0
 10
38.5748
 20
2.85161
 30
0.000000
  70
    32
  0
VERTEX
  8
VISIBLE_NARROW__ISO_
  5
2F1
 10
38.5767
 20
2.85520
 30
0.000000
  70
    32
  0
VERTEX
  8
VISIBLE_NARROW__ISO_
  5
2F2
 10
38.5785
 20
2.85880
 30
0.000000
  70
    32
  0
VERTEX
  8
VISIBLE_NARROW__ISO_
  5
2F3
 10
38.5803
 20
2.86240
 30
0.000000
  70
    32
  0
VERTEX
  8
VISIBLE_NARROW__ISO_
  5
2F4
 10
38.5821
 20
2.86601
 30
0.000000
  70
    32
  0
VERTEX
  8
VISIBLE_NARROW__ISO_
  5
2F5
 10
38.5839
 20
2.86963
 30
0.000000
  70
    32
  0
VERTEX
  8
VISIBLE_NARROW__ISO_
  5
2F6
 10
38.5857
 20
2.87325
 30
0.000000
  70
    32
  0
VERTEX
  8
VISIBLE_NARROW__ISO_
  5
2F7
 10
38.5875
 20
2.87687
 30
0.000000
  70
    32
  0
VERTEX
  8
VISIBLE_NARROW__ISO_
  5
2F8
 10
38.5893
 20
2.88051
 30
0.000000
  70
    32
  0
VERTEX
  8
VISIBLE_NARROW__ISO_
  5
2F9
 10
38.5910
 20
2.88414
 30
0.000000
  70
    32
  0
VERTEX
  8
VISIBLE_NARROW__ISO_
  5
2FA
 10
38.5928
 20
2.88778
 30
0.000000
  70
    32
  0
VERTEX
  8
VISIBLE_NARROW__ISO_
  5
2FB
 10
38.5945
 20
2.89143
 30
0.000000
  70
    32
  0
VERTEX
  8
VISIBLE_NARROW__ISO_
  5
2FC
 10
38.5962
 20
2.89509
 30
0.000000
  70
    32
  0
VERTEX
  8
VISIBLE_NARROW__ISO_
  5
2FD
 10
38.5979
 20
2.89874
 30
0.000000
  70
    32
  0
VERTEX
  8
VISIBLE_NARROW__ISO_
  5
2FE
 10
38.5996
 20
2.90241
 30
0.000000
  70
    32
  0
VERTEX
  8
VISIBLE_NARROW__ISO_
  5
2FF
 10
38.6013
 20
2.90608
 30
0.000000
  70
    32
  0
VERTEX
  8
VISIBLE_NARROW__ISO_
  5
300
 10
38.6030
 20
2.90975
 30
0.000000
  70
    32
  0
VERTEX
  8
VISIBLE_NARROW__ISO_
  5
301
 10
38.6047
 20
2.91343
 30
0.000000
  70
    32
  0
VERTEX
  8
VISIBLE_NARROW__ISO_
  5
302
 10
38.6063
 20
2.91711
 30
0.000000
  70
    32
  0
VERTEX
  8
VISIBLE_NARROW__ISO_
  5
303
 10
38.6080
 20
2.92080
 30
0.000000
  70
    32
  0
VERTEX
  8
VISIBLE_NARROW__ISO_
  5
304
 10
38.6096
 20
2.92450
 30
0.000000
  70
    32
  0
VERTEX
  8
VISIBLE_NARROW__ISO_
  5
305
 10
38.6112
 20
2.92820
 30
0.000000
  70
    32
  0
VERTEX
  8
VISIBLE_NARROW__ISO_
  5
306
 10
38.6128
 20
2.93190
 30
0.000000
  70
    32
  0
VERTEX
  8
VISIBLE_NARROW__ISO_
  5
307
 10
38.6144
 20
2.93561
 30
0.000000
  70
    32
  0
VERTEX
  8
VISIBLE_NARROW__ISO_
  5
308
 10
38.6160
 20
2.93932
 30
0.000000
  70
    32
  0
VERTEX
  8
VISIBLE_NARROW__ISO_
  5
309
 10
38.6176
 20
2.94304
 30
0.000000
  70
    32
  0
VERTEX
  8
VISIBLE_NARROW__ISO_
  5
30A
 10
38.6192
 20
2.94677
 30
0.000000
  70
    32
  0
VERTEX
  8
VISIBLE_NARROW__ISO_
  5
30B
 10
38.6207
 20
2.95049
 30
0.000000
  70
    32
  0
VERTEX
  8
VISIBLE_NARROW__ISO_
  5
30C
 10
38.6222
 20
2.95423
 30
0.000000
  70
    32
  0
VERTEX
  8
VISIBLE_NARROW__ISO_
  5
30D
 10
38.6238
 20
2.95797
 30
0.000000
  70
    32
  0
VERTEX
  8
VISIBLE_NARROW__ISO_
  5
30E
 10
38.6253
 20
2.96171
 30
0.000000
  70
    32
  0
VERTEX
  8
VISIBLE_NARROW__ISO_
  5
30F
 10
38.6268
 20
2.96546
 30
0.000000
  70
    32
  0
VERTEX
  8
VISIBLE_NARROW__ISO_
  5
310
 10
38.6283
 20
2.96921
 30
0.000000
  70
    32
  0
VERTEX
  8
VISIBLE_NARROW__ISO_
  5
311
 10
38.6298
 20
2.97296
 30
0.000000
  70
    32
  0
VERTEX
  8
VISIBLE_NARROW__ISO_
  5
312
 10
38.6313
 20
2.97672
 30
0.000000
  70
    32
  0
VERTEX
  8
VISIBLE_NARROW__ISO_
  5
313
 10
38.6327
 20
2.98049
 30
0.000000
  70
    32
  0
VERTEX
  8
VISIBLE_NARROW__ISO_
  5
314
 10
38.6342
 20
2.98426
 30
0.000000
  70
    32
  0
VERTEX
  8
VISIBLE_NARROW__ISO_
  5
315
 10
38.6356
 20
2.98803
 30
0.000000
  70
    32
  0
VERTEX
  8
VISIBLE_NARROW__ISO_
  5
316
 10
38.6370
 20
2.99181
 30
0.000000
  70
    32
  0
VERTEX
  8
VISIBLE_NARROW__ISO_
  5
317
 10
38.6384
 20
2.99560
 30
0.000000
  70
    32
  0
VERTEX
  8
VISIBLE_NARROW__ISO_
  5
318
 10
38.6398
 20
2.99938
 30
0.000000
  70
    32
  0
VERTEX
  8
VISIBLE_NARROW__ISO_
  5
319
 10
38.6412
 20
3.00317
 30
0.000000
  70
    32
  0
VERTEX
  8
VISIBLE_NARROW__ISO_
  5
31A
 10
38.6426
 20
3.00697
 30
0.000000
  70
    32
  0
VERTEX
  8
VISIBLE_NARROW__ISO_
  5
31B
 10
38.6440
 20
3.01077
 30
0.000000
  70
    32
  0
VERTEX
  8
VISIBLE_NARROW__ISO_
  5
31C
 10
38.6453
 20
3.01458
 30
0.000000
  70
    32
  0
VERTEX
  8
VISIBLE_NARROW__ISO_
  5
31D
 10
38.6467
 20
3.01838
 30
0.000000
  70
    32
  0
VERTEX
  8
VISIBLE_NARROW__ISO_
  5
31E
 10
38.6480
 20
3.02220
 30
0.000000
  70
    32
  0
VERTEX
  8
VISIBLE_NARROW__ISO_
  5
31F
 10
38.6493
 20
3.02601
 30
0.000000
  70
    32
  0
VERTEX
  8
VISIBLE_NARROW__ISO_
  5
320
 10
38.6506
 20
3.02983
 30
0.000000
  70
    32
  0
VERTEX
  8
VISIBLE_NARROW__ISO_
  5
321
 10
38.6519
 20
3.03366
 30
0.000000
  70
    32
  0
VERTEX
  8
VISIBLE_NARROW__ISO_
  5
322
 10
38.6532
 20
3.03749
 30
0.000000
  70
    32
  0
VERTEX
  8
VISIBLE_NARROW__ISO_
  5
323
 10
38.6545
 20
3.04132
 30
0.000000
  70
    32
  0
VERTEX
  8
VISIBLE_NARROW__ISO_
  5
324
 10
38.6558
 20
3.04516
 30
0.000000
  70
    32
  0
VERTEX
  8
VISIBLE_NARROW__ISO_
  5
325
 10
38.6570
 20
3.04900
 30
0.000000
  70
    32
  0
VERTEX
  8
VISIBLE_NARROW__ISO_
  5
326
 10
38.6582
 20
3.05284
 30
0.000000
  70
    32
  0
VERTEX
  8
VISIBLE_NARROW__ISO_
  5
327
 10
38.6595
 20
3.05669
 30
0.000000
  70
    32
  0
VERTEX
  8
VISIBLE_NARROW__ISO_
  5
328
 10
38.6607
 20
3.06054
 30
0.000000
  70
    32
  0
VERTEX
  8
VISIBLE_NARROW__ISO_
  5
329
 10
38.6619
 20
3.06440
 30
0.000000
  70
    32
  0
VERTEX
  8
VISIBLE_NARROW__ISO_
  5
32A
 10
38.6631
 20
3.06826
 30
0.000000
  70
    32
  0
VERTEX
  8
VISIBLE_NARROW__ISO_
  5
32B
 10
38.6643
 20
3.07212
 30
0.000000
  70
    32
  0
VERTEX
  8
VISIBLE_NARROW__ISO_
  5
32C
 10
38.6654
 20
3.07599
 30
0.000000
  70
    32
  0
VERTEX
  8
VISIBLE_NARROW__ISO_
  5
32D
 10
38.6666
 20
3.07986
 30
0.000000
  70
    32
  0
VERTEX
  8
VISIBLE_NARROW__ISO_
  5
32E
 10
38.6677
 20
3.08373
 30
0.000000
  70
    32
  0
VERTEX
  8
VISIBLE_NARROW__ISO_
  5
32F
 10
38.6689
 20
3.08761
 30
0.000000
  70
    32
  0
VERTEX
  8
VISIBLE_NARROW__ISO_
  5
330
 10
38.6700
 20
3.09149
 30
0.000000
  70
    32
  0
VERTEX
  8
VISIBLE_NARROW__ISO_
  5
331
 10
38.6711
 20
3.09537
 30
0.000000
  70
    32
  0
VERTEX
  8
VISIBLE_NARROW__ISO_
  5
332
 10
38.6722
 20
3.09926
 30
0.000000
  70
    32
  0
VERTEX
  8
VISIBLE_NARROW__ISO_
  5
333
 10
38.6733
 20
3.10315
 30
0.000000
  70
    32
  0
VERTEX
  8
VISIBLE_NARROW__ISO_
  5
334
 10
38.6743
 20
3.10704
 30
0.000000
  70
    32
  0
VERTEX
  8
VISIBLE_NARROW__ISO_
  5
335
 10
38.6754
 20
3.11094
 30
0.000000
  70
    32
  0
VERTEX
  8
VISIBLE_NARROW__ISO_
  5
336
 10
38.6764
 20
3.11484
 30
0.000000
  70
    32
  0
VERTEX
  8
VISIBLE_NARROW__ISO_
  5
337
 10
38.6775
 20
3.11875
 30
0.000000
  70
    32
  0
VERTEX
  8
VISIBLE_NARROW__ISO_
  5
338
 10
38.6785
 20
3.12265
 30
0.000000
  70
    32
  0
VERTEX
  8
VISIBLE_NARROW__ISO_
  5
339
 10
38.6795
 20
3.12656
 30
0.000000
  70
    32
  0
VERTEX
  8
VISIBLE_NARROW__ISO_
  5
33A
 10
38.6805
 20
3.13048
 30
0.000000
  70
    32
  0
VERTEX
  8
VISIBLE_NARROW__ISO_
  5
33B
 10
38.6815
 20
3.13439
 30
0.000000
  70
    32
  0
VERTEX
  8
VISIBLE_NARROW__ISO_
  5
33C
 10
38.6825
 20
3.13831
 30
0.000000
  70
    32
  0
VERTEX
  8
VISIBLE_NARROW__ISO_
  5
33D
 10
38.6834
 20
3.14223
 30
0.000000
  70
    32
  0
VERTEX
  8
VISIBLE_NARROW__ISO_
  5
33E
 10
38.6844
 20
3.14616
 30
0.000000
  70
    32
  0
VERTEX
  8
VISIBLE_NARROW__ISO_
  5
33F
 10
38.6853
 20
3.15009
 30
0.000000
  70
    32
  0
VERTEX
  8
VISIBLE_NARROW__ISO_
  5
340
 10
38.6862
 20
3.15402
 30
0.000000
  70
    32
  0
VERTEX
  8
VISIBLE_NARROW__ISO_
  5
341
 10
38.6871
 20
3.15795
 30
0.000000
  70
    32
  0
VERTEX
  8
VISIBLE_NARROW__ISO_
  5
342
 10
38.6880
 20
3.16189
 30
0.000000
  70
    32
  0
VERTEX
  8
VISIBLE_NARROW__ISO_
  5
343
 10
38.6889
 20
3.16583
 30
0.000000
  70
    32
  0
VERTEX
  8
VISIBLE_NARROW__ISO_
  5
344
 10
38.6898
 20
3.16977
 30
0.000000
  70
    32
  0
VERTEX
  8
VISIBLE_NARROW__ISO_
  5
345
 10
38.6907
 20
3.17371
 30
0.000000
  70
    32
  0
VERTEX
  8
VISIBLE_NARROW__ISO_
  5
346
 10
38.6915
 20
3.17766
 30
0.000000
  70
    32
  0
VERTEX
  8
VISIBLE_NARROW__ISO_
  5
347
 10
38.6924
 20
3.18161
 30
0.000000
  70
    32
  0
VERTEX
  8
VISIBLE_NARROW__ISO_
  5
348
 10
38.6932
 20
3.18556
 30
0.000000
  70
    32
  0
VERTEX
  8
VISIBLE_NARROW__ISO_
  5
349
 10
38.6940
 20
3.18952
 30
0.000000
  70
    32
  0
VERTEX
  8
VISIBLE_NARROW__ISO_
  5
34A
 10
38.6948
 20
3.19347
 30
0.000000
  70
    32
  0
VERTEX
  8
VISIBLE_NARROW__ISO_
  5
34B
 10
38.6956
 20
3.19743
 30
0.000000
  70
    32
  0
VERTEX
  8
VISIBLE_NARROW__ISO_
  5
34C
 10
38.6964
 20
3.20140
 30
0.000000
  70
    32
  0
VERTEX
  8
VISIBLE_NARROW__ISO_
  5
34D
 10
38.6972
 20
3.20536
 30
0.000000
  70
    32
  0
VERTEX
  8
VISIBLE_NARROW__ISO_
  5
34E
 10
38.6979
 20
3.20933
 30
0.000000
  70
    32
  0
VERTEX
  8
VISIBLE_NARROW__ISO_
  5
34F
 10
38.6987
 20
3.21330
 30
0.000000
  70
    32
  0
VERTEX
  8
VISIBLE_NARROW__ISO_
  5
350
 10
38.6994
 20
3.21727
 30
0.000000
  70
    32
  0
VERTEX
  8
VISIBLE_NARROW__ISO_
  5
351
 10
38.7001
 20
3.22124
 30
0.000000
  70
    32
  0
VERTEX
  8
VISIBLE_NARROW__ISO_
  5
352
 10
38.7008
 20
3.22522
 30
0.000000
  70
    32
  0
VERTEX
  8
VISIBLE_NARROW__ISO_
  5
353
 10
38.7015
 20
3.22920
 30
0.000000
  70
    32
  0
VERTEX
  8
VISIBLE_NARROW__ISO_
  5
354
 10
38.7022
 20
3.23318
 30
0.000000
  70
    32
  0
VERTEX
  8
VISIBLE_NARROW__ISO_
  5
355
 10
38.7029
 20
3.23716
 30
0.000000
  70
    32
  0
VERTEX
  8
VISIBLE_NARROW__ISO_
  5
356
 10
38.7035
 20
3.24114
 30
0.000000
  70
    32
  0
VERTEX
  8
VISIBLE_NARROW__ISO_
  5
357
 10
38.7042
 20
3.24513
 30
0.000000
  70
    32
  0
VERTEX
  8
VISIBLE_NARROW__ISO_
  5
358
 10
38.7048
 20
3.24912
 30
0.000000
  70
    32
  0
VERTEX
  8
VISIBLE_NARROW__ISO_
  5
359
 10
38.7054
 20
3.25311
 30
0.000000
  70
    32
  0
VERTEX
  8
VISIBLE_NARROW__ISO_
  5
35A
 10
38.7061
 20
3.25710
 30
0.000000
  70
    32
  0
VERTEX
  8
VISIBLE_NARROW__ISO_
  5
35B
 10
38.7067
 20
3.26109
 30
0.000000
  70
    32
  0
VERTEX
  8
VISIBLE_NARROW__ISO_
  5
35C
 10
38.7072
 20
3.26509
 30
0.000000
  70
    32
  0
VERTEX
  8
VISIBLE_NARROW__ISO_
  5
35D
 10
38.7078
 20
3.26909
 30
0.000000
  70
    32
  0
VERTEX
  8
VISIBLE_NARROW__ISO_
  5
35E
 10
38.7084
 20
3.27308
 30
0.000000
  70
    32
  0
VERTEX
  8
VISIBLE_NARROW__ISO_
  5
35F
 10
38.7089
 20
3.27709
 30
0.000000
  70
    32
  0
VERTEX
  8
VISIBLE_NARROW__ISO_
  5
360
 10
38.7095
 20
3.28109
 30
0.000000
  70
    32
  0
VERTEX
  8
VISIBLE_NARROW__ISO_
  5
361
 10
38.7100
 20
3.28509
 30
0.000000
  70
    32
  0
VERTEX
  8
VISIBLE_NARROW__ISO_
  5
362
 10
38.7105
 20
3.28910
 30
0.000000
  70
    32
  0
VERTEX
  8
VISIBLE_NARROW__ISO_
  5
363
 10
38.7110
 20
3.29310
 30
0.000000
  70
    32
  0
VERTEX
  8
VISIBLE_NARROW__ISO_
  5
364
 10
38.7115
 20
3.29711
 30
0.000000
  70
    32
  0
VERTEX
  8
VISIBLE_NARROW__ISO_
  5
365
 10
38.7120
 20
3.30112
 30
0.000000
  70
    32
  0
VERTEX
  8
VISIBLE_NARROW__ISO_
  5
366
 10
38.7124
 20
3.30513
 30
0.000000
  70
    32
  0
VERTEX
  8
VISIBLE_NARROW__ISO_
  5
367
 10
38.7129
 20
3.30915
 30
0.000000
  70
    32
  0
VERTEX
  8
VISIBLE_NARROW__ISO_
  5
368
 10
38.7133
 20
3.31316
 30
0.000000
  70
    32
  0
VERTEX
  8
VISIBLE_NARROW__ISO_
  5
369
 10
38.7137
 20
3.31718
 30
0.000000
  70
    32
  0
VERTEX
  8
VISIBLE_NARROW__ISO_
  5
36A
 10
38.7142
 20
3.32119
 30
0.000000
  70
    32
  0
VERTEX
  8
VISIBLE_NARROW__ISO_
  5
36B
 10
38.7146
 20
3.32521
 30
0.000000
  70
    32
  0
VERTEX
  8
VISIBLE_NARROW__ISO_
  5
36C
 10
38.7149
 20
3.32923
 30
0.000000
  70
    32
  0
VERTEX
  8
VISIBLE_NARROW__ISO_
  5
36D
 10
38.7153
 20
3.33325
 30
0.000000
  70
    32
  0
VERTEX
  8
VISIBLE_NARROW__ISO_
  5
36E
 10
38.7157
 20
3.33727
 30
0.000000
  70
    32
  0
VERTEX
  8
VISIBLE_NARROW__ISO_
  5
36F
 10
38.7160
 20
3.34130
 30
0.000000
  70
    32
  0
VERTEX
  8
VISIBLE_NARROW__ISO_
  5
370
 10
38.7164
 20
3.34532
 30
0.000000
  70
    32
  0
VERTEX
  8
VISIBLE_NARROW__ISO_
  5
371
 10
38.7167
 20
3.34935
 30
0.000000
  70
    32
  0
VERTEX
  8
VISIBLE_NARROW__ISO_
  5
372
 10
38.7170
 20
3.35337
 30
0.000000
  70
    32
  0
VERTEX
  8
VISIBLE_NARROW__ISO_
  5
373
 10
38.7173
 20
3.35740
 30
0.000000
  70
    32
  0
VERTEX
  8
VISIBLE_NARROW__ISO_
  5
374
 10
38.7176
 20
3.36143
 30
0.000000
  70
    32
  0
VERTEX
  8
VISIBLE_NARROW__ISO_
  5
375
 10
38.7179
 20
3.36545
 30
0.000000
  70
    32
  0
VERTEX
  8
VISIBLE_NARROW__ISO_
  5
376
 10
38.7182
 20
3.36948
 30
0.000000
  70
    32
  0
VERTEX
  8
VISIBLE_NARROW__ISO_
  5
377
 10
38.7184
 20
3.37351
 30
0.000000
  70
    32
  0
VERTEX
  8
VISIBLE_NARROW__ISO_
  5
378
 10
38.7187
 20
3.37754
 30
0.000000
  70
    32
  0
VERTEX
  8
VISIBLE_NARROW__ISO_
  5
379
 10
38.7189
 20
3.38158
 30
0.000000
  70
    32
  0
VERTEX
  8
VISIBLE_NARROW__ISO_
  5
37A
 10
38.7191
 20
3.38561
 30
0.000000
  70
    32
  0
VERTEX
  8
VISIBLE_NARROW__ISO_
  5
37B
 10
38.7193
 20
3.38964
 30
0.000000
  70
    32
  0
VERTEX
  8
VISIBLE_NARROW__ISO_
  5
37C
 10
38.7195
 20
3.39367
 30
0.000000
  70
    32
  0
VERTEX
  8
VISIBLE_NARROW__ISO_
  5
37D
 10
38.7197
 20
3.39771
 30
0.000000
  70
    32
  0
VERTEX
  8
VISIBLE_NARROW__ISO_
  5
37E
 10
38.7198
 20
3.40174
 30
0.000000
  70
    32
  0
VERTEX
  8
VISIBLE_NARROW__ISO_
  5
37F
 10
38.7200
 20
3.40578
 30
0.000000
  70
    32
  0
VERTEX
  8
VISIBLE_NARROW__ISO_
  5
380
 10
38.7201
 20
3.40981
 30
0.000000
  70
    32
  0
VERTEX
  8
VISIBLE_NARROW__ISO_
  5
381
 10
38.7203
 20
3.41385
 30
0.000000
  70
    32
  0
VERTEX
  8
VISIBLE_NARROW__ISO_
  5
382
 10
38.7204
 20
3.41789
 30
0.000000
  70
    32
  0
VERTEX
  8
VISIBLE_NARROW__ISO_
  5
383
 10
38.7205
 20
3.42192
 30
0.000000
  70
    32
  0
VERTEX
  8
VISIBLE_NARROW__ISO_
  5
384
 10
38.7206
 20
3.42596
 30
0.000000
  70
    32
  0
VERTEX
  8
VISIBLE_NARROW__ISO_
  5
385
 10
38.7207
 20
3.43000
 30
0.000000
  70
    32
  0
VERTEX
  8
VISIBLE_NARROW__ISO_
  5
386
 10
38.7207
 20
3.43403
 30
0.000000
  70
    32
  0
VERTEX
  8
VISIBLE_NARROW__ISO_
  5
387
 10
38.7208
 20
3.43807
 30
0.000000
  70
    32
  0
VERTEX
  8
VISIBLE_NARROW__ISO_
  5
388
 10
38.7208
 20
3.44211
 30
0.000000
  70
    32
  0
VERTEX
  8
VISIBLE_NARROW__ISO_
  5
389
 10
38.7208
 20
3.44615
 30
0.000000
  70
    32
  0
VERTEX
  8
VISIBLE_NARROW__ISO_
  5
38A
 10
38.7209
 20
3.45019
 30
0.000000
  70
    32
  0
VERTEX
  8
VISIBLE_NARROW__ISO_
  5
38B
 10
38.7209
 20
3.45422
 30
0.000000
  70
    32
  0
SEQEND
  8
VISIBLE_NARROW__ISO_
  5
38C
  0
LINE
  5
98
  8
VISIBLE_NARROW__ISO_
 10
38.7208713217142275
 20
22.0059608806161009
 30
0.0
 11
38.7208713217142275
 21
3.4540653540325961
 31
0.0
  0
ARC
  5
99
  8
0
 10
37.5397689595093169
 20
22.0059608806161009
 30
0.0
 40
1.1811023622047241
 50
0.0
 51
90.0
  0
ARC
  5
9A
  8
SKETCH_GEOMETRY__ISO_
 10
8.0823667926461411
 20
3.4533121417179622
 30
0.0
 40
1.312734971420765
 50
179.9450642026421008
 51
270.0549357973707743
  0
VIEWPORT
  5
A4
 67
     1
  8
0
 10
11.4128180567553006
 20
6.3222597319976641
 30
0.0
 40
87.6423789318481568
 41
36.9109249732206735
 68
     1
 69
     1
1001
ACAD
1000
MVIEW
1002
{
1070
    16
1010
0.0
1020
0.0
1030
0.0
1010
0.0
1020
0.0
1030
1.0
1040
0.0
1040
36.9109249732206735
1040
11.4128180567553006
1040
6.3222597319976641
1040
50.0
1040
0.0
1040
0.0
1070
     0
1070
  1000
1070
     1
1070
     1
1070
     0
1070
     0
1070
     0
1070
     0
1040
0.0
1040
0.0
1040
0.0
1040
0.5
1040
0.5
1040
0.5
1040
0.5
1070
     0
1002
{
1002
}
1002
}
  0
LINE
  5
B7
 67
     1
  8
VISIBLE__ISO_
 10
2.3023083507758382
 20
19.6756951148048813
 30
0.0
 11
31.8913427657610704
 21
19.6756951148047712
 31
0.0
  0
ARC
  5
B8
 67
     1
  8
0
 10
2.3023083507758382
 20
18.4945927526000915
 30
0.0
 40
1.1811023622047241
 50
90.0
 51
180.0
  0
LINE
  5
B9
 67
     1
  8
VISIBLE_NARROW__ISO_
 10
1.121205988570928
 20
-0.0573027739834196
 30
0.0
 11
1.121205988570928
 21
18.4945927526000915
 31
0.0
  0
LINE
  5
BA
 67
     1
  8
VISIBLE_NARROW__ISO_
 10
31.7589573053244898
 20
-1.3707905966249101
 30
0.0
 11
2.4346938112124188
 21
-1.3707905966247971
 31
0.0
  0
POLYLINE
  67
1
  8
VISIBLE_NARROW__ISO_
  5
38D
  66
     1
 10
0.000000
 20
0.000000
 30
0.000000
  70
     8
  0
VERTEX
  8
VISIBLE_NARROW__ISO_
  5
38E
 10
31.7588
 20
-1.37079
 30
0.000000
  70
    32
  0
VERTEX
  8
VISIBLE_NARROW__ISO_
  5
38F
 10
31.7628
 20
-1.37079
 30
0.000000
  70
    32
  0
VERTEX
  8
VISIBLE_NARROW__ISO_
  5
390
 10
31.7669
 20
-1.37077
 30
0.000000
  70
    32
  0
VERTEX
  8
VISIBLE_NARROW__ISO_
  5
391
 10
31.7709
 20
-1.37074
 30
0.000000
  70
    32
  0
VERTEX
  8
VISIBLE_NARROW__ISO_
  5
392
 10
31.7750
 20
-1.37070
 30
0.000000
  70
    32
  0
VERTEX
  8
VISIBLE_NARROW__ISO_
  5
393
 10
31.7790
 20
-1.37064
 30
0.000000
  70
    32
  0
VERTEX
  8
VISIBLE_NARROW__ISO_
  5
394
 10
31.7830
 20
-1.37057
 30
0.000000
  70
    32
  0
VERTEX
  8
VISIBLE_NARROW__ISO_
  5
395
 10
31.7871
 20
-1.37049
 30
0.000000
  70
    32
  0
VERTEX
  8
VISIBLE_NARROW__ISO_
  5
396
 10
31.7911
 20
-1.37040
 30
0.000000
  70
    32
  0
VERTEX
  8
VISIBLE_NARROW__ISO_
  5
397
 10
31.7951
 20
-1.37030
 30
0.000000
  70
    32
  0
VERTEX
  8
VISIBLE_NARROW__ISO_
  5
398
 10
31.7992
 20
-1.37018
 30
0.000000
  70
    32
  0
VERTEX
  8
VISIBLE_NARROW__ISO_
  5
399
 10
31.8032
 20
-1.37005
 30
0.000000
  70
    32
  0
VERTEX
  8
VISIBLE_NARROW__ISO_
  5
39A
 10
31.8072
 20
-1.36991
 30
0.000000
  70
    32
  0
VERTEX
  8
VISIBLE_NARROW__ISO_
  5
39B
 10
31.8113
 20
-1.36976
 30
0.000000
  70
    32
  0
VERTEX
  8
VISIBLE_NARROW__ISO_
  5
39C
 10
31.8153
 20
-1.36959
 30
0.000000
  70
    32
  0
VERTEX
  8
VISIBLE_NARROW__ISO_
  5
39D
 10
31.8193
 20
-1.36941
 30
0.000000
  70
    32
  0
VERTEX
  8
VISIBLE_NARROW__ISO_
  5
39E
 10
31.8234
 20
-1.36922
 30
0.000000
  70
    32
  0
VERTEX
  8
VISIBLE_NARROW__ISO_
  5
39F
 10
31.8274
 20
-1.36902
 30
0.000000
  70
    32
  0
VERTEX
  8
VISIBLE_NARROW__ISO_
  5
3A0
 10
31.8314
 20
-1.36880
 30
0.000000
  70
    32
  0
VERTEX
  8
VISIBLE_NARROW__ISO_
  5
3A1
 10
31.8355
 20
-1.36858
 30
0.000000
  70
    32
  0
VERTEX
  8
VISIBLE_NARROW__ISO_
  5
3A2
 10
31.8395
 20
-1.36833
 30
0.000000
  70
    32
  0
VERTEX
  8
VISIBLE_NARROW__ISO_
  5
3A3
 10
31.8435
 20
-1.36808
 30
0.000000
  70
    32
  0
VERTEX
  8
VISIBLE_NARROW__ISO_
  5
3A4
 10
31.8476
 20
-1.36782
 30
0.000000
  70
    32
  0
VERTEX
  8
VISIBLE_NARROW__ISO_
  5
3A5
 10
31.8516
 20
-1.36754
 30
0.000000
  70
    32
  0
VERTEX
  8
VISIBLE_NARROW__ISO_
  5
3A6
 10
31.8556
 20
-1.36725
 30
0.000000
  70
    32
  0
VERTEX
  8
VISIBLE_NARROW__ISO_
  5
3A7
 10
31.8597
 20
-1.36695
 30
0.000000
  70
    32
  0
VERTEX
  8
VISIBLE_NARROW__ISO_
  5
3A8
 10
31.8637
 20
-1.36663
 30
0.000000
  70
    32
  0
VERTEX
  8
VISIBLE_NARROW__ISO_
  5
3A9
 10
31.8677
 20
-1.36631
 30
0.000000
  70
    32
  0
VERTEX
  8
VISIBLE_NARROW__ISO_
  5
3AA
 10
31.8717
 20
-1.36597
 30
0.000000
  70
    32
  0
VERTEX
  8
VISIBLE_NARROW__ISO_
  5
3AB
 10
31.8757
 20
-1.36562
 30
0.000000
  70
    32
  0
VERTEX
  8
VISIBLE_NARROW__ISO_
  5
3AC
 10
31.8798
 20
-1.36525
 30
0.000000
  70
    32
  0
VERTEX
  8
VISIBLE_NARROW__ISO_
  5
3AD
 10
31.8838
 20
-1.36487
 30
0.000000
  70
    32
  0
VERTEX
  8
VISIBLE_NARROW__ISO_
  5
3AE
 10
31.8878
 20
-1.36449
 30
0.000000
  70
    32
  0
VERTEX
  8
VISIBLE_NARROW__ISO_
  5
3AF
 10
31.8918
 20
-1.36409
 30
0.000000
  70
    32
  0
VERTEX
  8
VISIBLE_NARROW__ISO_
  5
3B0
 10
31.8958
 20
-1.36367
 30
0.000000
  70
    32
  0
VERTEX
  8
VISIBLE_NARROW__ISO_
  5
3B1
 10
31.8999
 20
-1.36325
 30
0.000000
  70
    32
  0
VERTEX
  8
VISIBLE_NARROW__ISO_
  5
3B2
 10
31.9039
 20
-1.36281
 30
0.000000
  70
    32
  0
VERTEX
  8
VISIBLE_NARROW__ISO_
  5
3B3
 10
31.9079
 20
-1.36236
 30
0.000000
  70
    32
  0
VERTEX
  8
VISIBLE_NARROW__ISO_
  5
3B4
 10
31.9119
 20
-1.36190
 30
0.000000
  70
    32
  0
VERTEX
  8
VISIBLE_NARROW__ISO_
  5
3B5
 10
31.9159
 20
-1.36142
 30
0.000000
  70
    32
  0
VERTEX
  8
VISIBLE_NARROW__ISO_
  5
3B6
 10
31.9199
 20
-1.36093
 30
0.000000
  70
    32
  0
VERTEX
  8
VISIBLE_NARROW__ISO_
  5
3B7
 10
31.9239
 20
-1.36043
 30
0.000000
  70
    32
  0
VERTEX
  8
VISIBLE_NARROW__ISO_
  5
3B8
 10
31.9279
 20
-1.35992
 30
0.000000
  70
    32
  0
VERTEX
  8
VISIBLE_NARROW__ISO_
  5
3B9
 10
31.9319
 20
-1.35940
 30
0.000000
  70
    32
  0
VERTEX
  8
VISIBLE_NARROW__ISO_
  5
3BA
 10
31.9359
 20
-1.35886
 30
0.000000
  70
    32
  0
VERTEX
  8
VISIBLE_NARROW__ISO_
  5
3BB
 10
31.9399
 20
-1.35831
 30
0.000000
  70
    32
  0
VERTEX
  8
VISIBLE_NARROW__ISO_
  5
3BC
 10
31.9439
 20
-1.35775
 30
0.000000
  70
    32
  0
VERTEX
  8
VISIBLE_NARROW__ISO_
  5
3BD
 10
31.9479
 20
-1.35718
 30
0.000000
  70
    32
  0
VERTEX
  8
VISIBLE_NARROW__ISO_
  5
3BE
 10
31.9519
 20
-1.35659
 30
0.000000
  70
    32
  0
VERTEX
  8
VISIBLE_NARROW__ISO_
  5
3BF
 10
31.9559
 20
-1.35600
 30
0.000000
  70
    32
  0
VERTEX
  8
VISIBLE_NARROW__ISO_
  5
3C0
 10
31.9599
 20
-1.35539
 30
0.000000
  70
    32
  0
VERTEX
  8
VISIBLE_NARROW__ISO_
  5
3C1
 10
31.9639
 20
-1.35476
 30
0.000000
  70
    32
  0
VERTEX
  8
VISIBLE_NARROW__ISO_
  5
3C2
 10
31.9679
 20
-1.35413
 30
0.000000
  70
    32
  0
VERTEX
  8
VISIBLE_NARROW__ISO_
  5
3C3
 10
31.9719
 20
-1.35348
 30
0.000000
  70
    32
  0
VERTEX
  8
VISIBLE_NARROW__ISO_
  5
3C4
 10
31.9759
 20
-1.35282
 30
0.000000
  70
    32
  0
VERTEX
  8
VISIBLE_NARROW__ISO_
  5
3C5
 10
31.9798
 20
-1.35215
 30
0.000000
  70
    32
  0
VERTEX
  8
VISIBLE_NARROW__ISO_
  5
3C6
 10
31.9838
 20
-1.35147
 30
0.000000
  70
    32
  0
VERTEX
  8
VISIBLE_NARROW__ISO_
  5
3C7
 10
31.9878
 20
-1.35077
 30
0.000000
  70
    32
  0
VERTEX
  8
VISIBLE_NARROW__ISO_
  5
3C8
 10
31.9918
 20
-1.35006
 30
0.000000
  70
    32
  0
VERTEX
  8
VISIBLE_NARROW__ISO_
  5
3C9
 10
31.9958
 20
-1.34934
 30
0.000000
  70
    32
  0
VERTEX
  8
VISIBLE_NARROW__ISO_
  5
3CA
 10
31.9997
 20
-1.34861
 30
0.000000
  70
    32
  0
VERTEX
  8
VISIBLE_NARROW__ISO_
  5
3CB
 10
32.0037
 20
-1.34786
 30
0.000000
  70
    32
  0
VERTEX
  8
VISIBLE_NARROW__ISO_
  5
3CC
 10
32.0077
 20
-1.34711
 30
0.000000
  70
    32
  0
VERTEX
  8
VISIBLE_NARROW__ISO_
  5
3CD
 10
32.0116
 20
-1.34634
 30
0.000000
  70
    32
  0
VERTEX
  8
VISIBLE_NARROW__ISO_
  5
3CE
 10
32.0156
 20
-1.34556
 30
0.000000
  70
    32
  0
VERTEX
  8
VISIBLE_NARROW__ISO_
  5
3CF
 10
32.0195
 20
-1.34476
 30
0.000000
  70
    32
  0
VERTEX
  8
VISIBLE_NARROW__ISO_
  5
3D0
 10
32.0235
 20
-1.34396
 30
0.000000
  70
    32
  0
VERTEX
  8
VISIBLE_NARROW__ISO_
  5
3D1
 10
32.0275
 20
-1.34314
 30
0.000000
  70
    32
  0
VERTEX
  8
VISIBLE_NARROW__ISO_
  5
3D2
 10
32.0314
 20
-1.34231
 30
0.000000
  70
    32
  0
VERTEX
  8
VISIBLE_NARROW__ISO_
  5
3D3
 10
32.0354
 20
-1.34146
 30
0.000000
  70
    32
  0
VERTEX
  8
VISIBLE_NARROW__ISO_
  5
3D4
 10
32.0393
 20
-1.34061
 30
0.000000
  70
    32
  0
VERTEX
  8
VISIBLE_NARROW__ISO_
  5
3D5
 10
32.0433
 20
-1.33974
 30
0.000000
  70
    32
  0
VERTEX
  8
VISIBLE_NARROW__ISO_
  5
3D6
 10
32.0472
 20
-1.33886
 30
0.000000
  70
    32
  0
VERTEX
  8
VISIBLE_NARROW__ISO_
  5
3D7
 10
32.0511
 20
-1.33797
 30
0.000000
  70
    32
  0
VERTEX
  8
VISIBLE_NARROW__ISO_
  5
3D8
 10
32.0551
 20
-1.33707
 30
0.000000
  70
    32
  0
VERTEX
  8
VISIBLE_NARROW__ISO_
  5
3D9
 10
32.0590
 20
-1.33615
 30
0.000000
  70
    32
  0
VERTEX
  8
VISIBLE_NARROW__ISO_
  5
3DA
 10
32.0629
 20
-1.33523
 30
0.000000
  70
    32
  0
VERTEX
  8
VISIBLE_NARROW__ISO_
  5
3DB
 10
32.0669
 20
-1.33429
 30
0.000000
  70
    32
  0
VERTEX
  8
VISIBLE_NARROW__ISO_
  5
3DC
 10
32.0708
 20
-1.33334
 30
0.000000
  70
    32
  0
VERTEX
  8
VISIBLE_NARROW__ISO_
  5
3DD
 10
32.0747
 20
-1.33237
 30
0.000000
  70
    32
  0
VERTEX
  8
VISIBLE_NARROW__ISO_
  5
3DE
 10
32.0786
 20
-1.33140
 30
0.000000
  70
    32
  0
VERTEX
  8
VISIBLE_NARROW__ISO_
  5
3DF
 10
32.0825
 20
-1.33041
 30
0.000000
  70
    32
  0
VERTEX
  8
VISIBLE_NARROW__ISO_
  5
3E0
 10
32.0865
 20
-1.32941
 30
0.000000
  70
    32
  0
VERTEX
  8
VISIBLE_NARROW__ISO_
  5
3E1
 10
32.0904
 20
-1.32840
 30
0.000000
  70
    32
  0
VERTEX
  8
VISIBLE_NARROW__ISO_
  5
3E2
 10
32.0943
 20
-1.32737
 30
0.000000
  70
    32
  0
VERTEX
  8
VISIBLE_NARROW__ISO_
  5
3E3
 10
32.0982
 20
-1.32634
 30
0.000000
  70
    32
  0
VERTEX
  8
VISIBLE_NARROW__ISO_
  5
3E4
 10
32.1021
 20
-1.32529
 30
0.000000
  70
    32
  0
VERTEX
  8
VISIBLE_NARROW__ISO_
  5
3E5
 10
32.1060
 20
-1.32423
 30
0.000000
  70
    32
  0
VERTEX
  8
VISIBLE_NARROW__ISO_
  5
3E6
 10
32.1099
 20
-1.32316
 30
0.000000
  70
    32
  0
VERTEX
  8
VISIBLE_NARROW__ISO_
  5
3E7
 10
32.1138
 20
-1.32208
 30
0.000000
  70
    32
  0
VERTEX
  8
VISIBLE_NARROW__ISO_
  5
3E8
 10
32.1176
 20
-1.32098
 30
0.000000
  70
    32
  0
VERTEX
  8
VISIBLE_NARROW__ISO_
  5
3E9
 10
32.1215
 20
-1.31987
 30
0.000000
  70
    32
  0
VERTEX
  8
VISIBLE_NARROW__ISO_
  5
3EA
 10
32.1254
 20
-1.31875
 30
0.000000
  70
    32
  0
VERTEX
  8
VISIBLE_NARROW__ISO_
  5
3EB
 10
32.1293
 20
-1.31762
 30
0.000000
  70
    32
  0
VERTEX
  8
VISIBLE_NARROW__ISO_
  5
3EC
 10
32.1332
 20
-1.31648
 30
0.000000
  70
    32
  0
VERTEX
  8
VISIBLE_NARROW__ISO_
  5
3ED
 10
32.1370
 20
-1.31532
 30
0.000000
  70
    32
  0
VERTEX
  8
VISIBLE_NARROW__ISO_
  5
3EE
 10
32.1409
 20
-1.31416
 30
0.000000
  70
    32
  0
VERTEX
  8
VISIBLE_NARROW__ISO_
  5
3EF
 10
32.1448
 20
-1.31298
 30
0.000000
  70
    32
  0
VERTEX
  8
VISIBLE_NARROW__ISO_
  5
3F0
 10
32.1486
 20
-1.31179
 30
0.000000
  70
    32
  0
VERTEX
  8
VISIBLE_NARROW__ISO_
  5
3F1
 10
32.1525
 20
-1.31059
 30
0.000000
  70
    32
  0
VERTEX
  8
VISIBLE_NARROW__ISO_
  5
3F2
 10
32.1563
 20
-1.30937
 30
0.000000
  70
    32
  0
VERTEX
  8
VISIBLE_NARROW__ISO_
  5
3F3
 10
32.1602
 20
-1.30815
 30
0.000000
  70
    32
  0
VERTEX
  8
VISIBLE_NARROW__ISO_
  5
3F4
 10
32.1640
 20
-1.30691
 30
0.000000
  70
    32
  0
VERTEX
  8
VISIBLE_NARROW__ISO_
  5
3F5
 10
32.1679
 20
-1.30566
 30
0.000000
  70
    32
  0
VERTEX
  8
VISIBLE_NARROW__ISO_
  5
3F6
 10
32.1717
 20
-1.30440
 30
0.000000
  70
    32
  0
VERTEX
  8
VISIBLE_NARROW__ISO_
  5
3F7
 10
32.1755
 20
-1.30313
 30
0.000000
  70
    32
  0
VERTEX
  8
VISIBLE_NARROW__ISO_
  5
3F8
 10
32.1794
 20
-1.30184
 30
0.000000
  70
    32
  0
VERTEX
  8
VISIBLE_NARROW__ISO_
  5
3F9
 10
32.1832
 20
-1.30055
 30
0.000000
  70
    32
  0
VERTEX
  8
VISIBLE_NARROW__ISO_
  5
3FA
 10
32.1870
 20
-1.29924
 30
0.000000
  70
    32
  0
VERTEX
  8
VISIBLE_NARROW__ISO_
  5
3FB
 10
32.1908
 20
-1.29792
 30
0.000000
  70
    32
  0
VERTEX
  8
VISIBLE_NARROW__ISO_
  5
3FC
 10
32.1946
 20
-1.29659
 30
0.000000
  70
    32
  0
VERTEX
  8
VISIBLE_NARROW__ISO_
  5
3FD
 10
32.1984
 20
-1.29524
 30
0.000000
  70
    32
  0
VERTEX
  8
VISIBLE_NARROW__ISO_
  5
3FE
 10
32.2022
 20
-1.29389
 30
0.000000
  70
    32
  0
VERTEX
  8
VISIBLE_NARROW__ISO_
  5
3FF
 10
32.2060
 20
-1.29252
 30
0.000000
  70
    32
  0
VERTEX
  8
VISIBLE_NARROW__ISO_
  5
400
 10
32.2098
 20
-1.29114
 30
0.000000
  70
    32
  0
VERTEX
  8
VISIBLE_NARROW__ISO_
  5
401
 10
32.2136
 20
-1.28975
 30
0.000000
  70
    32
  0
VERTEX
  8
VISIBLE_NARROW__ISO_
  5
402
 10
32.2174
 20
-1.28835
 30
0.000000
  70
    32
  0
VERTEX
  8
VISIBLE_NARROW__ISO_
  5
403
 10
32.2212
 20
-1.28694
 30
0.000000
  70
    32
  0
VERTEX
  8
VISIBLE_NARROW__ISO_
  5
404
 10
32.2250
 20
-1.28551
 30
0.000000
  70
    32
  0
VERTEX
  8
VISIBLE_NARROW__ISO_
  5
405
 10
32.2288
 20
-1.28408
 30
0.000000
  70
    32
  0
VERTEX
  8
VISIBLE_NARROW__ISO_
  5
406
 10
32.2325
 20
-1.28263
 30
0.000000
  70
    32
  0
VERTEX
  8
VISIBLE_NARROW__ISO_
  5
407
 10
32.2363
 20
-1.28117
 30
0.000000
  70
    32
  0
VERTEX
  8
VISIBLE_NARROW__ISO_
  5
408
 10
32.2401
 20
-1.27970
 30
0.000000
  70
    32
  0
VERTEX
  8
VISIBLE_NARROW__ISO_
  5
409
 10
32.2438
 20
-1.27822
 30
0.000000
  70
    32
  0
VERTEX
  8
VISIBLE_NARROW__ISO_
  5
40A
 10
32.2476
 20
-1.27672
 30
0.000000
  70
    32
  0
VERTEX
  8
VISIBLE_NARROW__ISO_
  5
40B
 10
32.2513
 20
-1.27522
 30
0.000000
  70
    32
  0
VERTEX
  8
VISIBLE_NARROW__ISO_
  5
40C
 10
32.2551
 20
-1.27370
 30
0.000000
  70
    32
  0
VERTEX
  8
VISIBLE_NARROW__ISO_
  5
40D
 10
32.2588
 20
-1.27217
 30
0.000000
  70
    32
  0
VERTEX
  8
VISIBLE_NARROW__ISO_
  5
40E
 10
32.2625
 20
-1.27063
 30
0.000000
  70
    32
  0
VERTEX
  8
VISIBLE_NARROW__ISO_
  5
40F
 10
32.2663
 20
-1.26908
 30
0.000000
  70
    32
  0
VERTEX
  8
VISIBLE_NARROW__ISO_
  5
410
 10
32.2700
 20
-1.26751
 30
0.000000
  70
    32
  0
VERTEX
  8
VISIBLE_NARROW__ISO_
  5
411
 10
32.2737
 20
-1.26594
 30
0.000000
  70
    32
  0
VERTEX
  8
VISIBLE_NARROW__ISO_
  5
412
 10
32.2774
 20
-1.26435
 30
0.000000
  70
    32
  0
VERTEX
  8
VISIBLE_NARROW__ISO_
  5
413
 10
32.2811
 20
-1.26276
 30
0.000000
  70
    32
  0
VERTEX
  8
VISIBLE_NARROW__ISO_
  5
414
 10
32.2848
 20
-1.26115
 30
0.000000
  70
    32
  0
VERTEX
  8
VISIBLE_NARROW__ISO_
  5
415
 10
32.2885
 20
-1.25953
 30
0.000000
  70
    32
  0
VERTEX
  8
VISIBLE_NARROW__ISO_
  5
416
 10
32.2922
 20
-1.25789
 30
0.000000
  70
    32
  0
VERTEX
  8
VISIBLE_NARROW__ISO_
  5
417
 10
32.2959
 20
-1.25625
 30
0.000000
  70
    32
  0
VERTEX
  8
VISIBLE_NARROW__ISO_
  5
418
 10
32.2996
 20
-1.25460
 30
0.000000
  70
    32
  0
VERTEX
  8
VISIBLE_NARROW__ISO_
  5
419
 10
32.3033
 20
-1.25293
 30
0.000000
  70
    32
  0
VERTEX
  8
VISIBLE_NARROW__ISO_
  5
41A
 10
32.3070
 20
-1.25125
 30
0.000000
  70
    32
  0
VERTEX
  8
VISIBLE_NARROW__ISO_
  5
41B
 10
32.3106
 20
-1.24956
 30
0.000000
  70
    32
  0
VERTEX
  8
VISIBLE_NARROW__ISO_
  5
41C
 10
32.3143
 20
-1.24786
 30
0.000000
  70
    32
  0
VERTEX
  8
VISIBLE_NARROW__ISO_
  5
41D
 10
32.3179
 20
-1.24615
 30
0.000000
  70
    32
  0
VERTEX
  8
VISIBLE_NARROW__ISO_
  5
41E
 10
32.3216
 20
-1.24443
 30
0.000000
  70
    32
  0
VERTEX
  8
VISIBLE_NARROW__ISO_
  5
41F
 10
32.3252
 20
-1.24270
 30
0.000000
  70
    32
  0
VERTEX
  8
VISIBLE_NARROW__ISO_
  5
420
 10
32.3289
 20
-1.24095
 30
0.000000
  70
    32
  0
VERTEX
  8
VISIBLE_NARROW__ISO_
  5
421
 10
32.3325
 20
-1.23919
 30
0.000000
  70
    32
  0
VERTEX
  8
VISIBLE_NARROW__ISO_
  5
422
 10
32.3362
 20
-1.23743
 30
0.000000
  70
    32
  0
VERTEX
  8
VISIBLE_NARROW__ISO_
  5
423
 10
32.3398
 20
-1.23565
 30
0.000000
  70
    32
  0
VERTEX
  8
VISIBLE_NARROW__ISO_
  5
424
 10
32.3434
 20
-1.23386
 30
0.000000
  70
    32
  0
VERTEX
  8
VISIBLE_NARROW__ISO_
  5
425
 10
32.3470
 20
-1.23206
 30
0.000000
  70
    32
  0
VERTEX
  8
VISIBLE_NARROW__ISO_
  5
426
 10
32.3506
 20
-1.23024
 30
0.000000
  70
    32
  0
VERTEX
  8
VISIBLE_NARROW__ISO_
  5
427
 10
32.3542
 20
-1.22842
 30
0.000000
  70
    32
  0
VERTEX
  8
VISIBLE_NARROW__ISO_
  5
428
 10
32.3578
 20
-1.22658
 30
0.000000
  70
    32
  0
VERTEX
  8
VISIBLE_NARROW__ISO_
  5
429
 10
32.3614
 20
-1.22474
 30
0.000000
  70
    32
  0
VERTEX
  8
VISIBLE_NARROW__ISO_
  5
42A
 10
32.3650
 20
-1.22288
 30
0.000000
  70
    32
  0
VERTEX
  8
VISIBLE_NARROW__ISO_
  5
42B
 10
32.3686
 20
-1.22101
 30
0.000000
  70
    32
  0
VERTEX
  8
VISIBLE_NARROW__ISO_
  5
42C
 10
32.3722
 20
-1.21913
 30
0.000000
  70
    32
  0
VERTEX
  8
VISIBLE_NARROW__ISO_
  5
42D
 10
32.3757
 20
-1.21724
 30
0.000000
  70
    32
  0
VERTEX
  8
VISIBLE_NARROW__ISO_
  5
42E
 10
32.3793
 20
-1.21534
 30
0.000000
  70
    32
  0
VERTEX
  8
VISIBLE_NARROW__ISO_
  5
42F
 10
32.3829
 20
-1.21343
 30
0.000000
  70
    32
  0
VERTEX
  8
VISIBLE_NARROW__ISO_
  5
430
 10
32.3864
 20
-1.21151
 30
0.000000
  70
    32
  0
VERTEX
  8
VISIBLE_NARROW__ISO_
  5
431
 10
32.3900
 20
-1.20957
 30
0.000000
  70
    32
  0
VERTEX
  8
VISIBLE_NARROW__ISO_
  5
432
 10
32.3935
 20
-1.20763
 30
0.000000
  70
    32
  0
VERTEX
  8
VISIBLE_NARROW__ISO_
  5
433
 10
32.3970
 20
-1.20567
 30
0.000000
  70
    32
  0
VERTEX
  8
VISIBLE_NARROW__ISO_
  5
434
 10
32.4006
 20
-1.20371
 30
0.000000
  70
    32
  0
VERTEX
  8
VISIBLE_NARROW__ISO_
  5
435
 10
32.4041
 20
-1.20173
 30
0.000000
  70
    32
  0
VERTEX
  8
VISIBLE_NARROW__ISO_
  5
436
 10
32.4076
 20
-1.19974
 30
0.000000
  70
    32
  0
VERTEX
  8
VISIBLE_NARROW__ISO_
  5
437
 10
32.4111
 20
-1.19774
 30
0.000000
  70
    32
  0
VERTEX
  8
VISIBLE_NARROW__ISO_
  5
438
 10
32.4146
 20
-1.19573
 30
0.000000
  70
    32
  0
VERTEX
  8
VISIBLE_NARROW__ISO_
  5
439
 10
32.4181
 20
-1.19371
 30
0.000000
  70
    32
  0
VERTEX
  8
VISIBLE_NARROW__ISO_
  5
43A
 10
32.4216
 20
-1.19168
 30
0.000000
  70
    32
  0
VERTEX
  8
VISIBLE_NARROW__ISO_
  5
43B
 10
32.4251
 20
-1.18964
 30
0.000000
  70
    32
  0
VERTEX
  8
VISIBLE_NARROW__ISO_
  5
43C
 10
32.4286
 20
-1.18759
 30
0.000000
  70
    32
  0
VERTEX
  8
VISIBLE_NARROW__ISO_
  5
43D
 10
32.4320
 20
-1.18552
 30
0.000000
  70
    32
  0
VERTEX
  8
VISIBLE_NARROW__ISO_
  5
43E
 10
32.4355
 20
-1.18345
 30
0.000000
  70
    32
  0
VERTEX
  8
VISIBLE_NARROW__ISO_
  5
43F
 10
32.4390
 20
-1.18136
 30
0.000000
  70
    32
  0
VERTEX
  8
VISIBLE_NARROW__ISO_
  5
440
 10
32.4424
 20
-1.17927
 30
0.000000
  70
    32
  0
VERTEX
  8
VISIBLE_NARROW__ISO_
  5
441
 10
32.4459
 20
-1.17716
 30
0.000000
  70
    32
  0
VERTEX
  8
VISIBLE_NARROW__ISO_
  5
442
 10
32.4493
 20
-1.17505
 30
0.000000
  70
    32
  0
VERTEX
  8
VISIBLE_NARROW__ISO_
  5
443
 10
32.4527
 20
-1.17292
 30
0.000000
  70
    32
  0
VERTEX
  8
VISIBLE_NARROW__ISO_
  5
444
 10
32.4562
 20
-1.17078
 30
0.000000
  70
    32
  0
VERTEX
  8
VISIBLE_NARROW__ISO_
  5
445
 10
32.4596
 20
-1.16864
 30
0.000000
  70
    32
  0
VERTEX
  8
VISIBLE_NARROW__ISO_
  5
446
 10
32.4630
 20
-1.16648
 30
0.000000
  70
    32
  0
VERTEX
  8
VISIBLE_NARROW__ISO_
  5
447
 10
32.4664
 20
-1.16431
 30
0.000000
  70
    32
  0
VERTEX
  8
VISIBLE_NARROW__ISO_
  5
448
 10
32.4698
 20
-1.16213
 30
0.000000
  70
    32
  0
VERTEX
  8
VISIBLE_NARROW__ISO_
  5
449
 10
32.4732
 20
-1.15994
 30
0.000000
  70
    32
  0
VERTEX
  8
VISIBLE_NARROW__ISO_
  5
44A
 10
32.4766
 20
-1.15774
 30
0.000000
  70
    32
  0
VERTEX
  8
VISIBLE_NARROW__ISO_
  5
44B
 10
32.4800
 20
-1.15553
 30
0.000000
  70
    32
  0
VERTEX
  8
VISIBLE_NARROW__ISO_
  5
44C
 10
32.4833
 20
-1.15331
 30
0.000000
  70
    32
  0
VERTEX
  8
VISIBLE_NARROW__ISO_
  5
44D
 10
32.4867
 20
-1.15108
 30
0.000000
  70
    32
  0
VERTEX
  8
VISIBLE_NARROW__ISO_
  5
44E
 10
32.4901
 20
-1.14883
 30
0.000000
  70
    32
  0
VERTEX
  8
VISIBLE_NARROW__ISO_
  5
44F
 10
32.4934
 20
-1.14658
 30
0.000000
  70
    32
  0
VERTEX
  8
VISIBLE_NARROW__ISO_
  5
450
 10
32.4968
 20
-1.14432
 30
0.000000
  70
    32
  0
VERTEX
  8
VISIBLE_NARROW__ISO_
  5
451
 10
32.5001
 20
-1.14205
 30
0.000000
  70
    32
  0
VERTEX
  8
VISIBLE_NARROW__ISO_
  5
452
 10
32.5034
 20
-1.13976
 30
0.000000
  70
    32
  0
VERTEX
  8
VISIBLE_NARROW__ISO_
  5
453
 10
32.5068
 20
-1.13747
 30
0.000000
  70
    32
  0
VERTEX
  8
VISIBLE_NARROW__ISO_
  5
454
 10
32.5101
 20
-1.13517
 30
0.000000
  70
    32
  0
VERTEX
  8
VISIBLE_NARROW__ISO_
  5
455
 10
32.5134
 20
-1.13286
 30
0.000000
  70
    32
  0
VERTEX
  8
VISIBLE_NARROW__ISO_
  5
456
 10
32.5167
 20
-1.13053
 30
0.000000
  70
    32
  0
VERTEX
  8
VISIBLE_NARROW__ISO_
  5
457
 10
32.5200
 20
-1.12820
 30
0.000000
  70
    32
  0
VERTEX
  8
VISIBLE_NARROW__ISO_
  5
458
 10
32.5233
 20
-1.12585
 30
0.000000
  70
    32
  0
VERTEX
  8
VISIBLE_NARROW__ISO_
  5
459
 10
32.5266
 20
-1.12350
 30
0.000000
  70
    32
  0
VERTEX
  8
VISIBLE_NARROW__ISO_
  5
45A
 10
32.5298
 20
-1.12114
 30
0.000000
  70
    32
  0
VERTEX
  8
VISIBLE_NARROW__ISO_
  5
45B
 10
32.5331
 20
-1.11876
 30
0.000000
  70
    32
  0
VERTEX
  8
VISIBLE_NARROW__ISO_
  5
45C
 10
32.5364
 20
-1.11638
 30
0.000000
  70
    32
  0
VERTEX
  8
VISIBLE_NARROW__ISO_
  5
45D
 10
32.5396
 20
-1.11398
 30
0.000000
  70
    32
  0
VERTEX
  8
VISIBLE_NARROW__ISO_
  5
45E
 10
32.5429
 20
-1.11158
 30
0.000000
  70
    32
  0
VERTEX
  8
VISIBLE_NARROW__ISO_
  5
45F
 10
32.5461
 20
-1.10917
 30
0.000000
  70
    32
  0
VERTEX
  8
VISIBLE_NARROW__ISO_
  5
460
 10
32.5493
 20
-1.10674
 30
0.000000
  70
    32
  0
VERTEX
  8
VISIBLE_NARROW__ISO_
  5
461
 10
32.5526
 20
-1.10431
 30
0.000000
  70
    32
  0
VERTEX
  8
VISIBLE_NARROW__ISO_
  5
462
 10
32.5558
 20
-1.10187
 30
0.000000
  70
    32
  0
VERTEX
  8
VISIBLE_NARROW__ISO_
  5
463
 10
32.5590
 20
-1.09941
 30
0.000000
  70
    32
  0
VERTEX
  8
VISIBLE_NARROW__ISO_
  5
464
 10
32.5622
 20
-1.09695
 30
0.000000
  70
    32
  0
VERTEX
  8
VISIBLE_NARROW__ISO_
  5
465
 10
32.5654
 20
-1.09448
 30
0.000000
  70
    32
  0
VERTEX
  8
VISIBLE_NARROW__ISO_
  5
466
 10
32.5686
 20
-1.09199
 30
0.000000
  70
    32
  0
VERTEX
  8
VISIBLE_NARROW__ISO_
  5
467
 10
32.5717
 20
-1.08950
 30
0.000000
  70
    32
  0
VERTEX
  8
VISIBLE_NARROW__ISO_
  5
468
 10
32.5749
 20
-1.08700
 30
0.000000
  70
    32
  0
VERTEX
  8
VISIBLE_NARROW__ISO_
  5
469
 10
32.5781
 20
-1.08448
 30
0.000000
  70
    32
  0
VERTEX
  8
VISIBLE_NARROW__ISO_
  5
46A
 10
32.5812
 20
-1.08196
 30
0.000000
  70
    32
  0
VERTEX
  8
VISIBLE_NARROW__ISO_
  5
46B
 10
32.5844
 20
-1.07943
 30
0.000000
  70
    32
  0
VERTEX
  8
VISIBLE_NARROW__ISO_
  5
46C
 10
32.5875
 20
-1.07689
 30
0.000000
  70
    32
  0
VERTEX
  8
VISIBLE_NARROW__ISO_
  5
46D
 10
32.5906
 20
-1.07434
 30
0.000000
  70
    32
  0
VERTEX
  8
VISIBLE_NARROW__ISO_
  5
46E
 10
32.5938
 20
-1.07178
 30
0.000000
  70
    32
  0
VERTEX
  8
VISIBLE_NARROW__ISO_
  5
46F
 10
32.5969
 20
-1.06921
 30
0.000000
  70
    32
  0
VERTEX
  8
VISIBLE_NARROW__ISO_
  5
470
 10
32.6000
 20
-1.06662
 30
0.000000
  70
    32
  0
VERTEX
  8
VISIBLE_NARROW__ISO_
  5
471
 10
32.6031
 20
-1.06404
 30
0.000000
  70
    32
  0
VERTEX
  8
VISIBLE_NARROW__ISO_
  5
472
 10
32.6062
 20
-1.06144
 30
0.000000
  70
    32
  0
VERTEX
  8
VISIBLE_NARROW__ISO_
  5
473
 10
32.6093
 20
-1.05883
 30
0.000000
  70
    32
  0
VERTEX
  8
VISIBLE_NARROW__ISO_
  5
474
 10
32.6123
 20
-1.05621
 30
0.000000
  70
    32
  0
VERTEX
  8
VISIBLE_NARROW__ISO_
  5
475
 10
32.6154
 20
-1.05358
 30
0.000000
  70
    32
  0
VERTEX
  8
VISIBLE_NARROW__ISO_
  5
476
 10
32.6185
 20
-1.05094
 30
0.000000
  70
    32
  0
VERTEX
  8
VISIBLE_NARROW__ISO_
  5
477
 10
32.6215
 20
-1.04830
 30
0.000000
  70
    32
  0
VERTEX
  8
VISIBLE_NARROW__ISO_
  5
478
 10
32.6246
 20
-1.04564
 30
0.000000
  70
    32
  0
VERTEX
  8
VISIBLE_NARROW__ISO_
  5
479
 10
32.6276
 20
-1.04297
 30
0.000000
  70
    32
  0
VERTEX
  8
VISIBLE_NARROW__ISO_
  5
47A
 10
32.6306
 20
-1.04030
 30
0.000000
  70
    32
  0
VERTEX
  8
VISIBLE_NARROW__ISO_
  5
47B
 10
32.6336
 20
-1.03761
 30
0.000000
  70
    32
  0
VERTEX
  8
VISIBLE_NARROW__ISO_
  5
47C
 10
32.6367
 20
-1.03492
 30
0.000000
  70
    32
  0
VERTEX
  8
VISIBLE_NARROW__ISO_
  5
47D
 10
32.6397
 20
-1.03222
 30
0.000000
  70
    32
  0
VERTEX
  8
VISIBLE_NARROW__ISO_
  5
47E
 10
32.6426
 20
-1.02950
 30
0.000000
  70
    32
  0
VERTEX
  8
VISIBLE_NARROW__ISO_
  5
47F
 10
32.6456
 20
-1.02678
 30
0.000000
  70
    32
  0
VERTEX
  8
VISIBLE_NARROW__ISO_
  5
480
 10
32.6486
 20
-1.02405
 30
0.000000
  70
    32
  0
VERTEX
  8
VISIBLE_NARROW__ISO_
  5
481
 10
32.6516
 20
-1.02131
 30
0.000000
  70
    32
  0
VERTEX
  8
VISIBLE_NARROW__ISO_
  5
482
 10
32.6545
 20
-1.01856
 30
0.000000
  70
    32
  0
VERTEX
  8
VISIBLE_NARROW__ISO_
  5
483
 10
32.6575
 20
-1.01580
 30
0.000000
  70
    32
  0
VERTEX
  8
VISIBLE_NARROW__ISO_
  5
484
 10
32.6604
 20
-1.01304
 30
0.000000
  70
    32
  0
VERTEX
  8
VISIBLE_NARROW__ISO_
  5
485
 10
32.6634
 20
-1.01026
 30
0.000000
  70
    32
  0
VERTEX
  8
VISIBLE_NARROW__ISO_
  5
486
 10
32.6663
 20
-1.00748
 30
0.000000
  70
    32
  0
VERTEX
  8
VISIBLE_NARROW__ISO_
  5
487
 10
32.6692
 20
-1.00468
 30
0.000000
  70
    32
  0
VERTEX
  8
VISIBLE_NARROW__ISO_
  5
488
 10
32.6721
 20
-1.00188
 30
0.000000
  70
    32
  0
VERTEX
  8
VISIBLE_NARROW__ISO_
  5
489
 10
32.6750
 20
-0.999065
 30
0.000000
  70
    32
  0
VERTEX
  8
VISIBLE_NARROW__ISO_
  5
48A
 10
32.6779
 20
-0.996244
 30
0.000000
  70
    32
  0
VERTEX
  8
VISIBLE_NARROW__ISO_
  5
48B
 10
32.6808
 20
-0.993414
 30
0.000000
  70
    32
  0
VERTEX
  8
VISIBLE_NARROW__ISO_
  5
48C
 10
32.6837
 20
-0.990574
 30
0.000000
  70
    32
  0
VERTEX
  8
VISIBLE_NARROW__ISO_
  5
48D
 10
32.6865
 20
-0.987727
 30
0.000000
  70
    32
  0
VERTEX
  8
VISIBLE_NARROW__ISO_
  5
48E
 10
32.6894
 20
-0.984870
 30
0.000000
  70
    32
  0
VERTEX
  8
VISIBLE_NARROW__ISO_
  5
48F
 10
32.6922
 20
-0.982005
 30
0.000000
  70
    32
  0
VERTEX
  8
VISIBLE_NARROW__ISO_
  5
490
 10
32.6951
 20
-0.979130
 30
0.000000
  70
    32
  0
VERTEX
  8
VISIBLE_NARROW__ISO_
  5
491
 10
32.6979
 20
-0.976248
 30
0.000000
  70
    32
  0
VERTEX
  8
VISIBLE_NARROW__ISO_
  5
492
 10
32.7007
 20
-0.973356
 30
0.000000
  70
    32
  0
VERTEX
  8
VISIBLE_NARROW__ISO_
  5
493
 10
32.7035
 20
-0.970456
 30
0.000000
  70
    32
  0
VERTEX
  8
VISIBLE_NARROW__ISO_
  5
494
 10
32.7063
 20
-0.967547
 30
0.000000
  70
    32
  0
VERTEX
  8
VISIBLE_NARROW__ISO_
  5
495
 10
32.7091
 20
-0.964630
 30
0.000000
  70
    32
  0
VERTEX
  8
VISIBLE_NARROW__ISO_
  5
496
 10
32.7119
 20
-0.961704
 30
0.000000
  70
    32
  0
VERTEX
  8
VISIBLE_NARROW__ISO_
  5
497
 10
32.7147
 20
-0.958769
 30
0.000000
  70
    32
  0
VERTEX
  8
VISIBLE_NARROW__ISO_
  5
498
 10
32.7174
 20
-0.955826
 30
0.000000
  70
    32
  0
VERTEX
  8
VISIBLE_NARROW__ISO_
  5
499
 10
32.7202
 20
-0.952874
 30
0.000000
  70
    32
  0
VERTEX
  8
VISIBLE_NARROW__ISO_
  5
49A
 10
32.7230
 20
-0.949914
 30
0.000000
  70
    32
  0
VERTEX
  8
VISIBLE_NARROW__ISO_
  5
49B
 10
32.7257
 20
-0.946946
 30
0.000000
  70
    32
  0
VERTEX
  8
VISIBLE_NARROW__ISO_
  5
49C
 10
32.7284
 20
-0.943969
 30
0.000000
  70
    32
  0
VERTEX
  8
VISIBLE_NARROW__ISO_
  5
49D
 10
32.7311
 20
-0.940984
 30
0.000000
  70
    32
  0
VERTEX
  8
VISIBLE_NARROW__ISO_
  5
49E
 10
32.7339
 20
-0.937990
 30
0.000000
  70
    32
  0
VERTEX
  8
VISIBLE_NARROW__ISO_
  5
49F
 10
32.7366
 20
-0.934989
 30
0.000000
  70
    32
  0
VERTEX
  8
VISIBLE_NARROW__ISO_
  5
4A0
 10
32.7393
 20
-0.931979
 30
0.000000
  70
    32
  0
VERTEX
  8
VISIBLE_NARROW__ISO_
  5
4A1
 10
32.7419
 20
-0.928960
 30
0.000000
  70
    32
  0
VERTEX
  8
VISIBLE_NARROW__ISO_
  5
4A2
 10
32.7446
 20
-0.925934
 30
0.000000
  70
    32
  0
VERTEX
  8
VISIBLE_NARROW__ISO_
  5
4A3
 10
32.7473
 20
-0.922899
 30
0.000000
  70
    32
  0
VERTEX
  8
VISIBLE_NARROW__ISO_
  5
4A4
 10
32.7499
 20
-0.919856
 30
0.000000
  70
    32
  0
VERTEX
  8
VISIBLE_NARROW__ISO_
  5
4A5
 10
32.7526
 20
-0.916805
 30
0.000000
  70
    32
  0
VERTEX
  8
VISIBLE_NARROW__ISO_
  5
4A6
 10
32.7552
 20
-0.913746
 30
0.000000
  70
    32
  0
VERTEX
  8
VISIBLE_NARROW__ISO_
  5
4A7
 10
32.7578
 20
-0.910678
 30
0.000000
  70
    32
  0
VERTEX
  8
VISIBLE_NARROW__ISO_
  5
4A8
 10
32.7605
 20
-0.907603
 30
0.000000
  70
    32
  0
VERTEX
  8
VISIBLE_NARROW__ISO_
  5
4A9
 10
32.7631
 20
-0.904520
 30
0.000000
  70
    32
  0
VERTEX
  8
VISIBLE_NARROW__ISO_
  5
4AA
 10
32.7657
 20
-0.901428
 30
0.000000
  70
    32
  0
VERTEX
  8
VISIBLE_NARROW__ISO_
  5
4AB
 10
32.7683
 20
-0.898329
 30
0.000000
  70
    32
  0
VERTEX
  8
VISIBLE_NARROW__ISO_
  5
4AC
 10
32.7708
 20
-0.895222
 30
0.000000
  70
    32
  0
VERTEX
  8
VISIBLE_NARROW__ISO_
  5
4AD
 10
32.7734
 20
-0.892107
 30
0.000000
  70
    32
  0
VERTEX
  8
VISIBLE_NARROW__ISO_
  5
4AE
 10
32.7760
 20
-0.888984
 30
0.000000
  70
    32
  0
VERTEX
  8
VISIBLE_NARROW__ISO_
  5
4AF
 10
32.7785
 20
-0.885853
 30
0.000000
  70
    32
  0
VERTEX
  8
VISIBLE_NARROW__ISO_
  5
4B0
 10
32.7811
 20
-0.882714
 30
0.000000
  70
    32
  0
VERTEX
  8
VISIBLE_NARROW__ISO_
  5
4B1
 10
32.7836
 20
-0.879568
 30
0.000000
  70
    32
  0
VERTEX
  8
VISIBLE_NARROW__ISO_
  5
4B2
 10
32.7861
 20
-0.876413
 30
0.000000
  70
    32
  0
VERTEX
  8
VISIBLE_NARROW__ISO_
  5
4B3
 10
32.7886
 20
-0.873251
 30
0.000000
  70
    32
  0
VERTEX
  8
VISIBLE_NARROW__ISO_
  5
4B4
 10
32.7911
 20
-0.870082
 30
0.000000
  70
    32
  0
VERTEX
  8
VISIBLE_NARROW__ISO_
  5
4B5
 10
32.7936
 20
-0.866904
 30
0.000000
  70
    32
  0
VERTEX
  8
VISIBLE_NARROW__ISO_
  5
4B6
 10
32.7961
 20
-0.863719
 30
0.000000
  70
    32
  0
VERTEX
  8
VISIBLE_NARROW__ISO_
  5
4B7
 10
32.7986
 20
-0.860527
 30
0.000000
  70
    32
  0
VERTEX
  8
VISIBLE_NARROW__ISO_
  5
4B8
 10
32.8011
 20
-0.857327
 30
0.000000
  70
    32
  0
VERTEX
  8
VISIBLE_NARROW__ISO_
  5
4B9
 10
32.8035
 20
-0.854119
 30
0.000000
  70
    32
  0
VERTEX
  8
VISIBLE_NARROW__ISO_
  5
4BA
 10
32.8060
 20
-0.850903
 30
0.000000
  70
    32
  0
VERTEX
  8
VISIBLE_NARROW__ISO_
  5
4BB
 10
32.8084
 20
-0.847681
 30
0.000000
  70
    32
  0
VERTEX
  8
VISIBLE_NARROW__ISO_
  5
4BC
 10
32.8108
 20
-0.844450
 30
0.000000
  70
    32
  0
VERTEX
  8
VISIBLE_NARROW__ISO_
  5
4BD
 10
32.8132
 20
-0.841213
 30
0.000000
  70
    32
  0
VERTEX
  8
VISIBLE_NARROW__ISO_
  5
4BE
 10
32.8156
 20
-0.837968
 30
0.000000
  70
    32
  0
VERTEX
  8
VISIBLE_NARROW__ISO_
  5
4BF
 10
32.8180
 20
-0.834715
 30
0.000000
  70
    32
  0
VERTEX
  8
VISIBLE_NARROW__ISO_
  5
4C0
 10
32.8204
 20
-0.831455
 30
0.000000
  70
    32
  0
VERTEX
  8
VISIBLE_NARROW__ISO_
  5
4C1
 10
32.8228
 20
-0.828188
 30
0.000000
  70
    32
  0
VERTEX
  8
VISIBLE_NARROW__ISO_
  5
4C2
 10
32.8252
 20
-0.824913
 30
0.000000
  70
    32
  0
VERTEX
  8
VISIBLE_NARROW__ISO_
  5
4C3
 10
32.8275
 20
-0.821632
 30
0.000000
  70
    32
  0
VERTEX
  8
VISIBLE_NARROW__ISO_
  5
4C4
 10
32.8299
 20
-0.818343
 30
0.000000
  70
    32
  0
VERTEX
  8
VISIBLE_NARROW__ISO_
  5
4C5
 10
32.8322
 20
-0.815046
 30
0.000000
  70
    32
  0
VERTEX
  8
VISIBLE_NARROW__ISO_
  5
4C6
 10
32.8345
 20
-0.811743
 30
0.000000
  70
    32
  0
VERTEX
  8
VISIBLE_NARROW__ISO_
  5
4C7
 10
32.8368
 20
-0.808432
 30
0.000000
  70
    32
  0
VERTEX
  8
VISIBLE_NARROW__ISO_
  5
4C8
 10
32.8391
 20
-0.805114
 30
0.000000
  70
    32
  0
VERTEX
  8
VISIBLE_NARROW__ISO_
  5
4C9
 10
32.8414
 20
-0.801790
 30
0.000000
  70
    32
  0
VERTEX
  8
VISIBLE_NARROW__ISO_
  5
4CA
 10
32.8437
 20
-0.798458
 30
0.000000
  70
    32
  0
VERTEX
  8
VISIBLE_NARROW__ISO_
  5
4CB
 10
32.8460
 20
-0.795119
 30
0.000000
  70
    32
  0
VERTEX
  8
VISIBLE_NARROW__ISO_
  5
4CC
 10
32.8483
 20
-0.791773
 30
0.000000
  70
    32
  0
VERTEX
  8
VISIBLE_NARROW__ISO_
  5
4CD
 10
32.8505
 20
-0.788420
 30
0.000000
  70
    32
  0
VERTEX
  8
VISIBLE_NARROW__ISO_
  5
4CE
 10
32.8527
 20
-0.785060
 30
0.000000
  70
    32
  0
VERTEX
  8
VISIBLE_NARROW__ISO_
  5
4CF
 10
32.8550
 20
-0.781693
 30
0.000000
  70
    32
  0
VERTEX
  8
VISIBLE_NARROW__ISO_
  5
4D0
 10
32.8572
 20
-0.778319
 30
0.000000
  70
    32
  0
VERTEX
  8
VISIBLE_NARROW__ISO_
  5
4D1
 10
32.8594
 20
-0.774939
 30
0.000000
  70
    32
  0
VERTEX
  8
VISIBLE_NARROW__ISO_
  5
4D2
 10
32.8616
 20
-0.771551
 30
0.000000
  70
    32
  0
VERTEX
  8
VISIBLE_NARROW__ISO_
  5
4D3
 10
32.8638
 20
-0.768157
 30
0.000000
  70
    32
  0
VERTEX
  8
VISIBLE_NARROW__ISO_
  5
4D4
 10
32.8660
 20
-0.764756
 30
0.000000
  70
    32
  0
VERTEX
  8
VISIBLE_NARROW__ISO_
  5
4D5
 10
32.8681
 20
-0.761349
 30
0.000000
  70
    32
  0
VERTEX
  8
VISIBLE_NARROW__ISO_
  5
4D6
 10
32.8703
 20
-0.757934
 30
0.000000
  70
    32
  0
VERTEX
  8
VISIBLE_NARROW__ISO_
  5
4D7
 10
32.8725
 20
-0.754513
 30
0.000000
  70
    32
  0
VERTEX
  8
VISIBLE_NARROW__ISO_
  5
4D8
 10
32.8746
 20
-0.751086
 30
0.000000
  70
    32
  0
VERTEX
  8
VISIBLE_NARROW__ISO_
  5
4D9
 10
32.8767
 20
-0.747652
 30
0.000000
  70
    32
  0
VERTEX
  8
VISIBLE_NARROW__ISO_
  5
4DA
 10
32.8788
 20
-0.744211
 30
0.000000
  70
    32
  0
VERTEX
  8
VISIBLE_NARROW__ISO_
  5
4DB
 10
32.8809
 20
-0.740764
 30
0.000000
  70
    32
  0
VERTEX
  8
VISIBLE_NARROW__ISO_
  5
4DC
 10
32.8830
 20
-0.737310
 30
0.000000
  70
    32
  0
VERTEX
  8
VISIBLE_NARROW__ISO_
  5
4DD
 10
32.8851
 20
-0.733850
 30
0.000000
  70
    32
  0
VERTEX
  8
VISIBLE_NARROW__ISO_
  5
4DE
 10
32.8872
 20
-0.730384
 30
0.000000
  70
    32
  0
VERTEX
  8
VISIBLE_NARROW__ISO_
  5
4DF
 10
32.8892
 20
-0.726911
 30
0.000000
  70
    32
  0
VERTEX
  8
VISIBLE_NARROW__ISO_
  5
4E0
 10
32.8913
 20
-0.723432
 30
0.000000
  70
    32
  0
VERTEX
  8
VISIBLE_NARROW__ISO_
  5
4E1
 10
32.8933
 20
-0.719946
 30
0.000000
  70
    32
  0
VERTEX
  8
VISIBLE_NARROW__ISO_
  5
4E2
 10
32.8954
 20
-0.716454
 30
0.000000
  70
    32
  0
VERTEX
  8
VISIBLE_NARROW__ISO_
  5
4E3
 10
32.8974
 20
-0.712956
 30
0.000000
  70
    32
  0
VERTEX
  8
VISIBLE_NARROW__ISO_
  5
4E4
 10
32.8994
 20
-0.709452
 30
0.000000
  70
    32
  0
VERTEX
  8
VISIBLE_NARROW__ISO_
  5
4E5
 10
32.9014
 20
-0.705942
 30
0.000000
  70
    32
  0
VERTEX
  8
VISIBLE_NARROW__ISO_
  5
4E6
 10
32.9034
 20
-0.702425
 30
0.000000
  70
    32
  0
VERTEX
  8
VISIBLE_NARROW__ISO_
  5
4E7
 10
32.9054
 20
-0.698903
 30
0.000000
  70
    32
  0
VERTEX
  8
VISIBLE_NARROW__ISO_
  5
4E8
 10
32.9073
 20
-0.695374
 30
0.000000
  70
    32
  0
VERTEX
  8
VISIBLE_NARROW__ISO_
  5
4E9
 10
32.9093
 20
-0.691839
 30
0.000000
  70
    32
  0
VERTEX
  8
VISIBLE_NARROW__ISO_
  5
4EA
 10
32.9112
 20
-0.688299
 30
0.000000
  70
    32
  0
VERTEX
  8
VISIBLE_NARROW__ISO_
  5
4EB
 10
32.9132
 20
-0.684752
 30
0.000000
  70
    32
  0
VERTEX
  8
VISIBLE_NARROW__ISO_
  5
4EC
 10
32.9151
 20
-0.681200
 30
0.000000
  70
    32
  0
VERTEX
  8
VISIBLE_NARROW__ISO_
  5
4ED
 10
32.9170
 20
-0.677641
 30
0.000000
  70
    32
  0
VERTEX
  8
VISIBLE_NARROW__ISO_
  5
4EE
 10
32.9189
 20
-0.674077
 30
0.000000
  70
    32
  0
VERTEX
  8
VISIBLE_NARROW__ISO_
  5
4EF
 10
32.9208
 20
-0.670507
 30
0.000000
  70
    32
  0
VERTEX
  8
VISIBLE_NARROW__ISO_
  5
4F0
 10
32.9227
 20
-0.666931
 30
0.000000
  70
    32
  0
VERTEX
  8
VISIBLE_NARROW__ISO_
  5
4F1
 10
32.9245
 20
-0.663350
 30
0.000000
  70
    32
  0
VERTEX
  8
VISIBLE_NARROW__ISO_
  5
4F2
 10
32.9264
 20
-0.659762
 30
0.000000
  70
    32
  0
VERTEX
  8
VISIBLE_NARROW__ISO_
  5
4F3
 10
32.9282
 20
-0.656169
 30
0.000000
  70
    32
  0
VERTEX
  8
VISIBLE_NARROW__ISO_
  5
4F4
 10
32.9301
 20
-0.652571
 30
0.000000
  70
    32
  0
VERTEX
  8
VISIBLE_NARROW__ISO_
  5
4F5
 10
32.9319
 20
-0.648967
 30
0.000000
  70
    32
  0
VERTEX
  8
VISIBLE_NARROW__ISO_
  5
4F6
 10
32.9337
 20
-0.645357
 30
0.000000
  70
    32
  0
VERTEX
  8
VISIBLE_NARROW__ISO_
  5
4F7
 10
32.9355
 20
-0.641742
 30
0.000000
  70
    32
  0
VERTEX
  8
VISIBLE_NARROW__ISO_
  5
4F8
 10
32.9373
 20
-0.638121
 30
0.000000
  70
    32
  0
VERTEX
  8
VISIBLE_NARROW__ISO_
  5
4F9
 10
32.9391
 20
-0.634494
 30
0.000000
  70
    32
  0
VERTEX
  8
VISIBLE_NARROW__ISO_
  5
4FA
 10
32.9408
 20
-0.630863
 30
0.000000
  70
    32
  0
VERTEX
  8
VISIBLE_NARROW__ISO_
  5
4FB
 10
32.9426
 20
-0.627226
 30
0.000000
  70
    32
  0
VERTEX
  8
VISIBLE_NARROW__ISO_
  5
4FC
 10
32.9443
 20
-0.623583
 30
0.000000
  70
    32
  0
VERTEX
  8
VISIBLE_NARROW__ISO_
  5
4FD
 10
32.9461
 20
-0.619935
 30
0.000000
  70
    32
  0
VERTEX
  8
VISIBLE_NARROW__ISO_
  5
4FE
 10
32.9478
 20
-0.616282
 30
0.000000
  70
    32
  0
VERTEX
  8
VISIBLE_NARROW__ISO_
  5
4FF
 10
32.9495
 20
-0.612624
 30
0.000000
  70
    32
  0
VERTEX
  8
VISIBLE_NARROW__ISO_
  5
500
 10
32.9512
 20
-0.608960
 30
0.000000
  70
    32
  0
VERTEX
  8
VISIBLE_NARROW__ISO_
  5
501
 10
32.9529
 20
-0.605291
 30
0.000000
  70
    32
  0
VERTEX
  8
VISIBLE_NARROW__ISO_
  5
502
 10
32.9546
 20
-0.601617
 30
0.000000
  70
    32
  0
VERTEX
  8
VISIBLE_NARROW__ISO_
  5
503
 10
32.9562
 20
-0.597938
 30
0.000000
  70
    32
  0
VERTEX
  8
VISIBLE_NARROW__ISO_
  5
504
 10
32.9579
 20
-0.594254
 30
0.000000
  70
    32
  0
VERTEX
  8
VISIBLE_NARROW__ISO_
  5
505
 10
32.9595
 20
-0.590565
 30
0.000000
  70
    32
  0
VERTEX
  8
VISIBLE_NARROW__ISO_
  5
506
 10
32.9612
 20
-0.586871
 30
0.000000
  70
    32
  0
VERTEX
  8
VISIBLE_NARROW__ISO_
  5
507
 10
32.9628
 20
-0.583172
 30
0.000000
  70
    32
  0
VERTEX
  8
VISIBLE_NARROW__ISO_
  5
508
 10
32.9644
 20
-0.579467
 30
0.000000
  70
    32
  0
VERTEX
  8
VISIBLE_NARROW__ISO_
  5
509
 10
32.9660
 20
-0.575758
 30
0.000000
  70
    32
  0
VERTEX
  8
VISIBLE_NARROW__ISO_
  5
50A
 10
32.9676
 20
-0.572044
 30
0.000000
  70
    32
  0
VERTEX
  8
VISIBLE_NARROW__ISO_
  5
50B
 10
32.9692
 20
-0.568325
 30
0.000000
  70
    32
  0
VERTEX
  8
VISIBLE_NARROW__ISO_
  5
50C
 10
32.9707
 20
-0.564602
 30
0.000000
  70
    32
  0
VERTEX
  8
VISIBLE_NARROW__ISO_
  5
50D
 10
32.9723
 20
-0.560873
 30
0.000000
  70
    32
  0
VERTEX
  8
VISIBLE_NARROW__ISO_
  5
50E
 10
32.9738
 20
-0.557140
 30
0.000000
  70
    32
  0
VERTEX
  8
VISIBLE_NARROW__ISO_
  5
50F
 10
32.9753
 20
-0.553402
 30
0.000000
  70
    32
  0
VERTEX
  8
VISIBLE_NARROW__ISO_
  5
510
 10
32.9769
 20
-0.549660
 30
0.000000
  70
    32
  0
VERTEX
  8
VISIBLE_NARROW__ISO_
  5
511
 10
32.9784
 20
-0.545913
 30
0.000000
  70
    32
  0
VERTEX
  8
VISIBLE_NARROW__ISO_
  5
512
 10
32.9799
 20
-0.542161
 30
0.000000
  70
    32
  0
VERTEX
  8
VISIBLE_NARROW__ISO_
  5
513
 10
32.9814
 20
-0.538405
 30
0.000000
  70
    32
  0
VERTEX
  8
VISIBLE_NARROW__ISO_
  5
514
 10
32.9828
 20
-0.534644
 30
0.000000
  70
    32
  0
VERTEX
  8
VISIBLE_NARROW__ISO_
  5
515
 10
32.9843
 20
-0.530878
 30
0.000000
  70
    32
  0
VERTEX
  8
VISIBLE_NARROW__ISO_
  5
516
 10
32.9857
 20
-0.527108
 30
0.000000
  70
    32
  0
VERTEX
  8
VISIBLE_NARROW__ISO_
  5
517
 10
32.9872
 20
-0.523334
 30
0.000000
  70
    32
  0
VERTEX
  8
VISIBLE_NARROW__ISO_
  5
518
 10
32.9886
 20
-0.519555
 30
0.000000
  70
    32
  0
VERTEX
  8
VISIBLE_NARROW__ISO_
  5
519
 10
32.9900
 20
-0.515772
 30
0.000000
  70
    32
  0
VERTEX
  8
VISIBLE_NARROW__ISO_
  5
51A
 10
32.9914
 20
-0.511985
 30
0.000000
  70
    32
  0
VERTEX
  8
VISIBLE_NARROW__ISO_
  5
51B
 10
32.9928
 20
-0.508193
 30
0.000000
  70
    32
  0
VERTEX
  8
VISIBLE_NARROW__ISO_
  5
51C
 10
32.9942
 20
-0.504397
 30
0.000000
  70
    32
  0
VERTEX
  8
VISIBLE_NARROW__ISO_
  5
51D
 10
32.9956
 20
-0.500597
 30
0.000000
  70
    32
  0
VERTEX
  8
VISIBLE_NARROW__ISO_
  5
51E
 10
32.9969
 20
-0.496793
 30
0.000000
  70
    32
  0
VERTEX
  8
VISIBLE_NARROW__ISO_
  5
51F
 10
32.9983
 20
-0.492984
 30
0.000000
  70
    32
  0
VERTEX
  8
VISIBLE_NARROW__ISO_
  5
520
 10
32.9996
 20
-0.489172
 30
0.000000
  70
    32
  0
VERTEX
  8
VISIBLE_NARROW__ISO_
  5
521
 10
33.0009
 20
-0.485355
 30
0.000000
  70
    32
  0
VERTEX
  8
VISIBLE_NARROW__ISO_
  5
522
 10
33.0022
 20
-0.481534
 30
0.000000
  70
    32
  0
VERTEX
  8
VISIBLE_NARROW__ISO_
  5
523
 10
33.0035
 20
-0.477710
 30
0.000000
  70
    32
  0
VERTEX
  8
VISIBLE_NARROW__ISO_
  5
524
 10
33.0048
 20
-0.473881
 30
0.000000
  70
    32
  0
VERTEX
  8
VISIBLE_NARROW__ISO_
  5
525
 10
33.0061
 20
-0.470048
 30
0.000000
  70
    32
  0
VERTEX
  8
VISIBLE_NARROW__ISO_
  5
526
 10
33.0073
 20
-0.466211
 30
0.000000
  70
    32
  0
VERTEX
  8
VISIBLE_NARROW__ISO_
  5
527
 10
33.0086
 20
-0.462371
 30
0.000000
  70
    32
  0
VERTEX
  8
VISIBLE_NARROW__ISO_
  5
528
 10
33.0098
 20
-0.458527
 30
0.000000
  70
    32
  0
VERTEX
  8
VISIBLE_NARROW__ISO_
  5
529
 10
33.0110
 20
-0.454678
 30
0.000000
  70
    32
  0
VERTEX
  8
VISIBLE_NARROW__ISO_
  5
52A
 10
33.0123
 20
-0.450826
 30
0.000000
  70
    32
  0
VERTEX
  8
VISIBLE_NARROW__ISO_
  5
52B
 10
33.0135
 20
-0.446971
 30
0.000000
  70
    32
  0
VERTEX
  8
VISIBLE_NARROW__ISO_
  5
52C
 10
33.0147
 20
-0.443112
 30
0.000000
  70
    32
  0
VERTEX
  8
VISIBLE_NARROW__ISO_
  5
52D
 10
33.0158
 20
-0.439249
 30
0.000000
  70
    32
  0
VERTEX
  8
VISIBLE_NARROW__ISO_
  5
52E
 10
33.0170
 20
-0.435382
 30
0.000000
  70
    32
  0
VERTEX
  8
VISIBLE_NARROW__ISO_
  5
52F
 10
33.0182
 20
-0.431512
 30
0.000000
  70
    32
  0
VERTEX
  8
VISIBLE_NARROW__ISO_
  5
530
 10
33.0193
 20
-0.427638
 30
0.000000
  70
    32
  0
VERTEX
  8
VISIBLE_NARROW__ISO_
  5
531
 10
33.0204
 20
-0.423761
 30
0.000000
  70
    32
  0
VERTEX
  8
VISIBLE_NARROW__ISO_
  5
532
 10
33.0215
 20
-0.419880
 30
0.000000
  70
    32
  0
VERTEX
  8
VISIBLE_NARROW__ISO_
  5
533
 10
33.0226
 20
-0.415996
 30
0.000000
  70
    32
  0
VERTEX
  8
VISIBLE_NARROW__ISO_
  5
534
 10
33.0237
 20
-0.412109
 30
0.000000
  70
    32
  0
VERTEX
  8
VISIBLE_NARROW__ISO_
  5
535
 10
33.0248
 20
-0.408218
 30
0.000000
  70
    32
  0
VERTEX
  8
VISIBLE_NARROW__ISO_
  5
536
 10
33.0259
 20
-0.404324
 30
0.000000
  70
    32
  0
VERTEX
  8
VISIBLE_NARROW__ISO_
  5
537
 10
33.0270
 20
-0.400427
 30
0.000000
  70
    32
  0
VERTEX
  8
VISIBLE_NARROW__ISO_
  5
538
 10
33.0280
 20
-0.396526
 30
0.000000
  70
    32
  0
VERTEX
  8
VISIBLE_NARROW__ISO_
  5
539
 10
33.0290
 20
-0.392622
 30
0.000000
  70
    32
  0
VERTEX
  8
VISIBLE_NARROW__ISO_
  5
53A
 10
33.0301
 20
-0.388715
 30
0.000000
  70
    32
  0
VERTEX
  8
VISIBLE_NARROW__ISO_
  5
53B
 10
33.0311
 20
-0.384805
 30
0.000000
  70
    32
  0
VERTEX
  8
VISIBLE_NARROW__ISO_
  5
53C
 10
33.0321
 20
-0.380892
 30
0.000000
  70
    32
  0
VERTEX
  8
VISIBLE_NARROW__ISO_
  5
53D
 10
33.0331
 20
-0.376976
 30
0.000000
  70
    32
  0
VERTEX
  8
VISIBLE_NARROW__ISO_
  5
53E
 10
33.0340
 20
-0.373057
 30
0.000000
  70
    32
  0
VERTEX
  8
VISIBLE_NARROW__ISO_
  5
53F
 10
33.0350
 20
-0.369135
 30
0.000000
  70
    32
  0
VERTEX
  8
VISIBLE_NARROW__ISO_
  5
540
 10
33.0359
 20
-0.365210
 30
0.000000
  70
    32
  0
VERTEX
  8
VISIBLE_NARROW__ISO_
  5
541
 10
33.0369
 20
-0.361282
 30
0.000000
  70
    32
  0
VERTEX
  8
VISIBLE_NARROW__ISO_
  5
542
 10
33.0378
 20
-0.357351
 30
0.000000
  70
    32
  0
VERTEX
  8
VISIBLE_NARROW__ISO_
  5
543
 10
33.0387
 20
-0.353417
 30
0.000000
  70
    32
  0
VERTEX
  8
VISIBLE_NARROW__ISO_
  5
544
 10
33.0396
 20
-0.349481
 30
0.000000
  70
    32
  0
VERTEX
  8
VISIBLE_NARROW__ISO_
  5
545
 10
33.0405
 20
-0.345541
 30
0.000000
  70
    32
  0
VERTEX
  8
VISIBLE_NARROW__ISO_
  5
546
 10
33.0414
 20
-0.341600
 30
0.000000
  70
    32
  0
VERTEX
  8
VISIBLE_NARROW__ISO_
  5
547
 10
33.0423
 20
-0.337655
 30
0.000000
  70
    32
  0
VERTEX
  8
VISIBLE_NARROW__ISO_
  5
548
 10
33.0431
 20
-0.333708
 30
0.000000
  70
    32
  0
VERTEX
  8
VISIBLE_NARROW__ISO_
  5
549
 10
33.0440
 20
-0.329758
 30
0.000000
  70
    32
  0
VERTEX
  8
VISIBLE_NARROW__ISO_
  5
54A
 10
33.0448
 20
-0.325806
 30
0.000000
  70
    32
  0
VERTEX
  8
VISIBLE_NARROW__ISO_
  5
54B
 10
33.0456
 20
-0.321851
 30
0.000000
  70
    32
  0
VERTEX
  8
VISIBLE_NARROW__ISO_
  5
54C
 10
33.0464
 20
-0.317893
 30
0.000000
  70
    32
  0
VERTEX
  8
VISIBLE_NARROW__ISO_
  5
54D
 10
33.0472
 20
-0.313934
 30
0.000000
  70
    32
  0
VERTEX
  8
VISIBLE_NARROW__ISO_
  5
54E
 10
33.0480
 20
-0.309971
 30
0.000000
  70
    32
  0
VERTEX
  8
VISIBLE_NARROW__ISO_
  5
54F
 10
33.0487
 20
-0.306007
 30
0.000000
  70
    32
  0
VERTEX
  8
VISIBLE_NARROW__ISO_
  5
550
 10
33.0495
 20
-0.302040
 30
0.000000
  70
    32
  0
VERTEX
  8
VISIBLE_NARROW__ISO_
  5
551
 10
33.0502
 20
-0.298071
 30
0.000000
  70
    32
  0
VERTEX
  8
VISIBLE_NARROW__ISO_
  5
552
 10
33.0510
 20
-0.294099
 30
0.000000
  70
    32
  0
VERTEX
  8
VISIBLE_NARROW__ISO_
  5
553
 10
33.0517
 20
-0.290126
 30
0.000000
  70
    32
  0
VERTEX
  8
VISIBLE_NARROW__ISO_
  5
554
 10
33.0524
 20
-0.286150
 30
0.000000
  70
    32
  0
VERTEX
  8
VISIBLE_NARROW__ISO_
  5
555
 10
33.0531
 20
-0.282172
 30
0.000000
  70
    32
  0
VERTEX
  8
VISIBLE_NARROW__ISO_
  5
556
 10
33.0538
 20
-0.278192
 30
0.000000
  70
    32
  0
VERTEX
  8
VISIBLE_NARROW__ISO_
  5
557
 10
33.0545
 20
-0.274210
 30
0.000000
  70
    32
  0
VERTEX
  8
VISIBLE_NARROW__ISO_
  5
558
 10
33.0551
 20
-0.270226
 30
0.000000
  70
    32
  0
VERTEX
  8
VISIBLE_NARROW__ISO_
  5
559
 10
33.0558
 20
-0.266239
 30
0.000000
  70
    32
  0
VERTEX
  8
VISIBLE_NARROW__ISO_
  5
55A
 10
33.0564
 20
-0.262251
 30
0.000000
  70
    32
  0
VERTEX
  8
VISIBLE_NARROW__ISO_
  5
55B
 10
33.0570
 20
-0.258261
 30
0.000000
  70
    32
  0
VERTEX
  8
VISIBLE_NARROW__ISO_
  5
55C
 10
33.0576
 20
-0.254269
 30
0.000000
  70
    32
  0
VERTEX
  8
VISIBLE_NARROW__ISO_
  5
55D
 10
33.0582
 20
-0.250275
 30
0.000000
  70
    32
  0
VERTEX
  8
VISIBLE_NARROW__ISO_
  5
55E
 10
33.0588
 20
-0.246280
 30
0.000000
  70
    32
  0
VERTEX
  8
VISIBLE_NARROW__ISO_
  5
55F
 10
33.0594
 20
-0.242283
 30
0.000000
  70
    32
  0
VERTEX
  8
VISIBLE_NARROW__ISO_
  5
560
 10
33.0600
 20
-0.238283
 30
0.000000
  70
    32
  0
VERTEX
  8
VISIBLE_NARROW__ISO_
  5
561
 10
33.0605
 20
-0.234283
 30
0.000000
  70
    32
  0
VERTEX
  8
VISIBLE_NARROW__ISO_
  5
562
 10
33.0610
 20
-0.230280
 30
0.000000
  70
    32
  0
VERTEX
  8
VISIBLE_NARROW__ISO_
  5
563
 10
33.0616
 20
-0.226276
 30
0.000000
  70
    32
  0
VERTEX
  8
VISIBLE_NARROW__ISO_
  5
564
 10
33.0621
 20
-0.222271
 30
0.000000
  70
    32
  0
VERTEX
  8
VISIBLE_NARROW__ISO_
  5
565
 10
33.0626
 20
-0.218264
 30
0.000000
  70
    32
  0
VERTEX
  8
VISIBLE_NARROW__ISO_
  5
566
 10
33.0631
 20
-0.214255
 30
0.000000
  70
    32
  0
VERTEX
  8
VISIBLE_NARROW__ISO_
  5
567
 10
33.0635
 20
-0.210245
 30
0.000000
  70
    32
  0
VERTEX
  8
VISIBLE_NARROW__ISO_
  5
568
 10
33.0640
 20
-0.206233
 30
0.000000
  70
    32
  0
VERTEX
  8
VISIBLE_NARROW__ISO_
  5
569
 10
33.0645
 20
-0.202220
 30
0.000000
  70
    32
  0
VERTEX
  8
VISIBLE_NARROW__ISO_
  5
56A
 10
33.0649
 20
-0.198206
 30
0.000000
  70
    32
  0
VERTEX
  8
VISIBLE_NARROW__ISO_
  5
56B
 10
33.0653
 20
-0.194190
 30
0.000000
  70
    32
  0
VERTEX
  8
VISIBLE_NARROW__ISO_
  5
56C
 10
33.0657
 20
-0.190173
 30
0.000000
  70
    32
  0
VERTEX
  8
VISIBLE_NARROW__ISO_
  5
56D
 10
33.0661
 20
-0.186155
 30
0.000000
  70
    32
  0
VERTEX
  8
VISIBLE_NARROW__ISO_
  5
56E
 10
33.0665
 20
-0.182136
 30
0.000000
  70
    32
  0
VERTEX
  8
VISIBLE_NARROW__ISO_
  5
56F
 10
33.0669
 20
-0.178115
 30
0.000000
  70
    32
  0
VERTEX
  8
VISIBLE_NARROW__ISO_
  5
570
 10
33.0673
 20
-0.174094
 30
0.000000
  70
    32
  0
VERTEX
  8
VISIBLE_NARROW__ISO_
  5
571
 10
33.0676
 20
-0.170071
 30
0.000000
  70
    32
  0
VERTEX
  8
VISIBLE_NARROW__ISO_
  5
572
 10
33.0680
 20
-0.166047
 30
0.000000
  70
    32
  0
VERTEX
  8
VISIBLE_NARROW__ISO_
  5
573
 10
33.0683
 20
-0.162022
 30
0.000000
  70
    32
  0
VERTEX
  8
VISIBLE_NARROW__ISO_
  5
574
 10
33.0686
 20
-0.157997
 30
0.000000
  70
    32
  0
VERTEX
  8
VISIBLE_NARROW__ISO_
  5
575
 10
33.0689
 20
-0.153970
 30
0.000000
  70
    32
  0
VERTEX
  8
VISIBLE_NARROW__ISO_
  5
576
 10
33.0692
 20
-0.149942
 30
0.000000
  70
    32
  0
VERTEX
  8
VISIBLE_NARROW__ISO_
  5
577
 10
33.0695
 20
-0.145914
 30
0.000000
  70
    32
  0
VERTEX
  8
VISIBLE_NARROW__ISO_
  5
578
 10
33.0697
 20
-0.141884
 30
0.000000
  70
    32
  0
VERTEX
  8
VISIBLE_NARROW__ISO_
  5
579
 10
33.0700
 20
-0.137854
 30
0.000000
  70
    32
  0
VERTEX
  8
VISIBLE_NARROW__ISO_
  5
57A
 10
33.0702
 20
-0.133823
 30
0.000000
  70
    32
  0
VERTEX
  8
VISIBLE_NARROW__ISO_
  5
57B
 10
33.0705
 20
-0.129792
 30
0.000000
  70
    32
  0
VERTEX
  8
VISIBLE_NARROW__ISO_
  5
57C
 10
33.0707
 20
-0.125760
 30
0.000000
  70
    32
  0
VERTEX
  8
VISIBLE_NARROW__ISO_
  5
57D
 10
33.0709
 20
-0.121727
 30
0.000000
  70
    32
  0
VERTEX
  8
VISIBLE_NARROW__ISO_
  5
57E
 10
33.0711
 20
-0.117693
 30
0.000000
  70
    32
  0
VERTEX
  8
VISIBLE_NARROW__ISO_
  5
57F
 10
33.0712
 20
-0.113659
 30
0.000000
  70
    32
  0
VERTEX
  8
VISIBLE_NARROW__ISO_
  5
580
 10
33.0714
 20
-0.109625
 30
0.000000
  70
    32
  0
VERTEX
  8
VISIBLE_NARROW__ISO_
  5
581
 10
33.0716
 20
-0.105589
 30
0.000000
  70
    32
  0
VERTEX
  8
VISIBLE_NARROW__ISO_
  5
582
 10
33.0717
 20
-0.101554
 30
0.000000
  70
    32
  0
VERTEX
  8
VISIBLE_NARROW__ISO_
  5
583
 10
33.0718
 20
-0.0975180
 30
0.000000
  70
    32
  0
VERTEX
  8
VISIBLE_NARROW__ISO_
  5
584
 10
33.0720
 20
-0.0934816
 30
0.000000
  70
    32
  0
VERTEX
  8
VISIBLE_NARROW__ISO_
  5
585
 10
33.0721
 20
-0.0894450
 30
0.000000
  70
    32
  0
VERTEX
  8
VISIBLE_NARROW__ISO_
  5
586
 10
33.0722
 20
-0.0854080
 30
0.000000
  70
    32
  0
VERTEX
  8
VISIBLE_NARROW__ISO_
  5
587
 10
33.0722
 20
-0.0813708
 30
0.000000
  70
    32
  0
VERTEX
  8
VISIBLE_NARROW__ISO_
  5
588
 10
33.0723
 20
-0.0773334
 30
0.000000
  70
    32
  0
VERTEX
  8
VISIBLE_NARROW__ISO_
  5
589
 10
33.0724
 20
-0.0732958
 30
0.000000
  70
    32
  0
VERTEX
  8
VISIBLE_NARROW__ISO_
  5
58A
 10
33.0724
 20
-0.0692581
 30
0.000000
  70
    32
  0
VERTEX
  8
VISIBLE_NARROW__ISO_
  5
58B
 10
33.0724
 20
-0.0652202
 30
0.000000
  70
    32
  0
VERTEX
  8
VISIBLE_NARROW__ISO_
  5
58C
 10
33.0724
 20
-0.0611823
 30
0.000000
  70
    32
  0
VERTEX
  8
VISIBLE_NARROW__ISO_
  5
58D
 10
33.0724
 20
-0.0571444
 30
0.000000
  70
    32
  0
SEQEND
  8
VISIBLE_NARROW__ISO_
  5
58E
  0
LINE
  5
BC
 67
     1
  8
VISIBLE_NARROW__ISO_
 10
33.0724451279659917
 20
18.4945927526000915
 30
0.0
 11
33.0724451279659917
 21
-0.0573027739834196
 31
0.0
  0
ARC
  5
BD
 67
     1
  8
0
 10
31.8913427657610704
 20
18.4945927526000915
 30
0.0
 40
1.1811023622047241
 50
0.0
 51
90.0
  0
ARC
  5
BE
 67
     1
  8
SKETCH_GEOMETRY__ISO_
 10
2.4339405988978982
 20
-0.0580559862980543
 30
0.0
 40
1.312734971420765
 50
179.9450642026421008
 51
270.0549357973708879
  0
ENDSEC
  0
EOF
