  0
SECTION
  2
HEADER
  9
$ACADVER
  1
AC1009
  9
$INSBASE
 10
0.0
 20
0.0
 30
0.0
  9
$EXTMIN
 10
6.9476004698256251
 20
2.1405789654363589
 30
0.0
  9
$EXTMAX
 10
38.9382680860870494
 20
23.2127233117158305
 30
0.0
  9
$LIMMIN
 10
0.0
 20
0.0
  9
$LIMMAX
 10
12.0
 20
9.0
  9
$ORTHOMODE
 70
     0
  9
$REGENMODE
 70
     1
  9
$FILLMODE
 70
     1
  9
$QTEXTMODE
 70
     0
  9
$MIRRTEXT
 70
     0
  9
$DRAGMODE
 70
     2
  9
$LTSCALE
 40
1.0
  9
$OSMODE
 70
   695
  9
$ATTMODE
 70
     1
  9
$TEXTSIZE
 40
0.2
  9
$TRACEWID
 40
0.05
  9
$TEXTSTYLE
  7
STANDARD
  9
$CLAYER
  8
0
  9
$CELTYPE
  6
BYLAYER
  9
$CECOLOR
 62
   256
  9
$DIMSCALE
 40
1.0
  9
$DIMASZ
 40
0.18
  9
$DIMEXO
 40
0.0625
  9
$DIMDLI
 40
0.38
  9
$DIMRND
 40
0.0
  9
$DIMDLE
 40
0.0
  9
$DIMEXE
 40
0.18
  9
$DIMTP
 40
0.0
  9
$DIMTM
 40
0.0
  9
$DIMTXT
 40
0.18
  9
$DIMCEN
 40
0.09
  9
$DIMTSZ
 40
0.0
  9
$DIMTOL
 70
     0
  9
$DIMLIM
 70
     0
  9
$DIMTIH
 70
     1
  9
$DIMTOH
 70
     1
  9
$DIMSE1
 70
     0
  9
$DIMSE2
 70
     0
  9
$DIMTAD
 70
     0
  9
$DIMZIN
 70
     0
  9
$DIMBLK
  1

  9
$DIMASO
 70
     1
  9
$DIMSHO
 70
     1
  9
$DIMPOST
  1

  9
$DIMAPOST
  1

  9
$DIMALT
 70
     0
  9
$DIMALTD
 70
     2
  9
$DIMALTF
 40
25.3999999999999986
  9
$DIMLFAC
 40
1.0
  9
$DIMTOFL
 70
     0
  9
$DIMTVP
 40
0.0
  9
$DIMTIX
 70
     0
  9
$DIMSOXD
 70
     0
  9
$DIMSAH
 70
     0
  9
$DIMBLK1
  1

  9
$DIMBLK2
  1

  9
$DIMSTYLE
  2
STANDARD
  9
$DIMCLRD
 70
     0
  9
$DIMCLRE
 70
     0
  9
$DIMCLRT
 70
     0
  9
$DIMTFAC
 40
1.0
  9
$DIMGAP
 40
0.09
  9
$LUNITS
 70
     2
  9
$LUPREC
 70
     4
  9
$SKETCHINC
 40
0.1
  9
$FILLETRAD
 40
0.0
  9
$AUNITS
 70
     0
  9
$AUPREC
 70
     0
  9
$MENU
  1
.
  9
$ELEVATION
 40
0.0
  9
$PELEVATION
 40
0.0
  9
$THICKNESS
 40
0.0
  9
$LIMCHECK
 70
     0
  9
$BLIPMODE
 70
     0
  9
$CHAMFERA
 40
0.0
  9
$CHAMFERB
 40
0.0
  9
$SKPOLY
 70
     0
  9
$TDCREATE
 40
2459084.6257754629477859
  9
$TDUPDATE
 40
2459084.627094907220453
  9
$TDINDWG
 40
0.0013310185
  9
$TDUSRTIMER
 40
0.0013310185
  9
$USRTIMER
 70
     1
  9
$ANGBASE
 50
0.0
  9
$ANGDIR
 70
     0
  9
$PDMODE
 70
     0
  9
$PDSIZE
 40
0.0
  9
$PLINEWID
 40
0.0
  9
$COORDS
 70
     1
  9
$SPLFRAME
 70
     0
  9
$SPLINETYPE
 70
     6
  9
$SPLINESEGS
 70
     8
  9
$ATTDIA
 70
     1
  9
$ATTREQ
 70
     1
  9
$HANDLING
 70
     1
  9
$HANDSEED
  5
52A
  9
$SURFTAB1
 70
     6
  9
$SURFTAB2
 70
     6
  9
$SURFTYPE
 70
     6
  9
$SURFU
 70
     6
  9
$SURFV
 70
     6
  9
$UCSNAME
  2

  9
$UCSORG
 10
0.0
 20
0.0
 30
0.0
  9
$UCSXDIR
 10
1.0
 20
0.0
 30
0.0
  9
$UCSYDIR
 10
0.0
 20
1.0
 30
0.0
  9
$PUCSNAME
  2

  9
$PUCSORG
 10
0.0
 20
0.0
 30
0.0
  9
$PUCSXDIR
 10
1.0
 20
0.0
 30
0.0
  9
$PUCSYDIR
 10
0.0
 20
1.0
 30
0.0
  9
$USERI1
 70
     0
  9
$USERI2
 70
     0
  9
$USERI3
 70
     0
  9
$USERI4
 70
     0
  9
$USERI5
 70
     0
  9
$USERR1
 40
0.0
  9
$USERR2
 40
0.0
  9
$USERR3
 40
0.0
  9
$USERR4
 40
0.0
  9
$USERR5
 40
0.0
  9
$WORLDVIEW
 70
     1
  9
$SHADEDGE
 70
     3
  9
$SHADEDIF
 70
    70
  9
$TILEMODE
 70
     0
  9
$MAXACTVP
 70
    64
  9
$PLIMCHECK
 70
     0
  9
$PEXTMIN
 10
-7.4210956984042626
 20
-6.9126124831750584
 30
0.0
  9
$PEXTMAX
 10
24.5695719178571608
 20
14.1595318631043998
 30
0.0
  9
$PLIMMIN
 10
0.0
 20
0.0
  9
$PLIMMAX
 10
12.0
 20
9.0
  9
$UNITMODE
 70
     0
  9
$VISRETAIN
 70
     1
  9
$PLINEGEN
 70
     0
  9
$PSLTSCALE
 70
     1
  0
ENDSEC
  0
SECTION
  2
TABLES
  0
TABLE
  2
VPORT
 70
     1
  0
VPORT
  2
*ACTIVE
 70
     0
 10
0.0
 20
0.0
 11
1.0
 21
1.0
 12
20.9411946155738384
 22
10.6314855028081805
 13
0.0
 23
0.0
 14
0.5
 24
0.5
 15
0.5
 25
0.5
 16
0.0
 26
0.0
 36
1.0
 17
0.0
 27
0.0
 37
0.0
 40
36.901809087502599
 41
2.3744292237442921
 42
50.0
 43
0.0
 44
0.0
 50
0.0
 51
0.0
 71
     0
 72
  1000
 73
     1
 74
     3
 75
     0
 76
     0
 77
     0
 78
     0
  0
ENDTAB
  0
TABLE
  2
LTYPE
 70
     1
  0
LTYPE
  2
CONTINUOUS
 70
     0
  3
Solid line
 72
    65
 73
     0
 40
0.0
  0
ENDTAB
  0
TABLE
  2
LAYER
 70
     4
  0
LAYER
  2
0
 70
     0
 62
     7
  6
CONTINUOUS
  0
LAYER
  2
SKETCH_GEOMETRY__ISO_
 70
     0
 62
     7
  6
CONTINUOUS
  0
LAYER
  2
VISIBLE__ISO_
 70
     0
 62
     7
  6
CONTINUOUS
  0
LAYER
  2
VISIBLE_NARROW__ISO_
 70
     0
 62
     7
  6
CONTINUOUS
  0
ENDTAB
  0
TABLE
  2
STYLE
 70
     3
  0
STYLE
  2
STANDARD
 70
     0
 40
0.0
 41
1.0
 50
0.0
 71
     0
 42
0.2
  3
txt
  4

  0
STYLE
  2
ANNOTATIVE
 70
     0
 40
0.0
 41
1.0
 50
0.0
 71
     0
 42
0.2
  3
txt
  4

  0
STYLE
  2
TEXT_3_5MM
 70
     0
 40
0.0
 41
0.899999976158142
 50
0.0
 71
     0
 42
0.2
  3
txt
  4

  0
ENDTAB
  0
TABLE
  2
VIEW
 70
     1
  0
ENDTAB
  0
TABLE
  2
UCS
 70
     0
  0
ENDTAB
  0
TABLE
  2
APPID
 70
     5
  0
APPID
  2
ACAD
 70
     0
  0
APPID
  2
ACADANNOTATIVE
 70
     0
  0
APPID
  2
ACAD_NAV_VCDISPLAY
 70
     0
  0
APPID
  2
ACAD_PSEXT
 70
     0
  0
APPID
  2
ACAD_MLEADERVER
 70
     0
  0
ENDTAB
  0
TABLE
  2
DIMSTYLE
 70
     3
  0
DIMSTYLE
  2
STANDARD
 70
     0
  3

  4

  5

  6

  7

 40
1.0
 41
0.18
 42
0.0625
 43
0.38
 44
0.18
 45
0.0
 46
0.0
 47
0.0
 48
0.0
140
0.18
141
0.09
142
0.0
143
25.3999999999999986
144
1.0
145
0.0
146
1.0
147
0.09
 71
     0
 72
     0
 73
     1
 74
     1
 75
     0
 76
     0
 77
     0
 78
     0
170
     0
171
     2
172
     0
173
     0
174
     0
175
     0
176
     0
177
     0
178
     0
  0
DIMSTYLE
  2
ANNOTATIVE
 70
     0
  3

  4

  5

  6

  7

 40
1.0
 41
0.18
 42
0.0625
 43
0.38
 44
0.18
 45
0.0
 46
0.0
 47
0.0
 48
0.0
140
0.18
141
0.09
142
0.0
143
25.3999999999999986
144
1.0
145
0.0
146
1.0
147
0.09
 71
     0
 72
     0
 73
     1
 74
     1
 75
     0
 76
     0
 77
     0
 78
     0
170
     0
171
     2
172
     0
173
     0
174
     0
175
     0
176
     0
177
     0
178
     0
  0
DIMSTYLE
  2
KS-STANDARD
 70
     0
  3

  4

  5

  6

  7

 40
5.0
 41
2.5
 42
1.0
 43
12.0
 44
2.0
 45
0.00000001
 46
10.0
 47
0.0
 48
0.0
140
2.5
141
0.09
142
0.0
143
0.03937
144
1.0
145
0.0
146
1.0
147
0.8
 71
     0
 72
     0
 73
     0
 74
     0
 75
     0
 76
     0
 77
     1
 78
     8
170
     0
171
     3
172
     1
173
     0
174
     0
175
     0
176
     7
177
     7
178
     7
  0
ENDTAB
  0
ENDSEC
  0
SECTION
  2
BLOCKS
  0
BLOCK
  8
0
  2
$MODEL_SPACE
 70
     0
 10
0.0
 20
0.0
 30
0.0
  3
$MODEL_SPACE
  1

  0
ENDBLK
  5
72
  8
0
  0
BLOCK
 67
     1
  8
0
  2
$PAPER_SPACE
 70
     0
 10
0.0
 20
0.0
 30
0.0
  3
$PAPER_SPACE
  1

  0
ENDBLK
  5
6E
 67
     1
  8
0
  0
ENDSEC
  0
SECTION
  2
ENTITIES
  0
LINE
  5
93
  8
VISIBLE_NARROW__ISO_
 10
6.9476008309196402
 20
3.474145889329125
 30
0.0
 11
6.9476008309196402
 21
21.2442193747079386
 31
0.0
  0
LINE
  5
94
  8
VISIBLE_NARROW__ISO_
 10
37.6045371407534219
 20
2.1405793512191771
 30
0.0
 11
8.2811673937183912
 21
2.1405793265302608
 31
0.0
  0
POLYLINE
  8
VISIBLE_NARROW__ISO_
  5
126
  66
     1
 10
0.000000
 20
0.000000
 30
0.000000
  70
     8
  0
VERTEX
  8
VISIBLE_NARROW__ISO_
  5
127
 10
37.6045
 20
2.14058
 30
0.000000
  70
    32
  0
VERTEX
  8
VISIBLE_NARROW__ISO_
  5
128
 10
37.6086
 20
2.14058
 30
0.000000
  70
    32
  0
VERTEX
  8
VISIBLE_NARROW__ISO_
  5
129
 10
37.6127
 20
2.14060
 30
0.000000
  70
    32
  0
VERTEX
  8
VISIBLE_NARROW__ISO_
  5
12A
 10
37.6168
 20
2.14063
 30
0.000000
  70
    32
  0
VERTEX
  8
VISIBLE_NARROW__ISO_
  5
12B
 10
37.6209
 20
2.14068
 30
0.000000
  70
    32
  0
VERTEX
  8
VISIBLE_NARROW__ISO_
  5
12C
 10
37.6250
 20
2.14073
 30
0.000000
  70
    32
  0
VERTEX
  8
VISIBLE_NARROW__ISO_
  5
12D
 10
37.6291
 20
2.14080
 30
0.000000
  70
    32
  0
VERTEX
  8
VISIBLE_NARROW__ISO_
  5
12E
 10
37.6332
 20
2.14088
 30
0.000000
  70
    32
  0
VERTEX
  8
VISIBLE_NARROW__ISO_
  5
12F
 10
37.6373
 20
2.14097
 30
0.000000
  70
    32
  0
VERTEX
  8
VISIBLE_NARROW__ISO_
  5
130
 10
37.6414
 20
2.14108
 30
0.000000
  70
    32
  0
VERTEX
  8
VISIBLE_NARROW__ISO_
  5
131
 10
37.6455
 20
2.14120
 30
0.000000
  70
    32
  0
VERTEX
  8
VISIBLE_NARROW__ISO_
  5
132
 10
37.6496
 20
2.14133
 30
0.000000
  70
    32
  0
VERTEX
  8
VISIBLE_NARROW__ISO_
  5
133
 10
37.6537
 20
2.14147
 30
0.000000
  70
    32
  0
VERTEX
  8
VISIBLE_NARROW__ISO_
  5
134
 10
37.6578
 20
2.14163
 30
0.000000
  70
    32
  0
VERTEX
  8
VISIBLE_NARROW__ISO_
  5
135
 10
37.6619
 20
2.14180
 30
0.000000
  70
    32
  0
VERTEX
  8
VISIBLE_NARROW__ISO_
  5
136
 10
37.6660
 20
2.14198
 30
0.000000
  70
    32
  0
VERTEX
  8
VISIBLE_NARROW__ISO_
  5
137
 10
37.6701
 20
2.14217
 30
0.000000
  70
    32
  0
VERTEX
  8
VISIBLE_NARROW__ISO_
  5
138
 10
37.6742
 20
2.14238
 30
0.000000
  70
    32
  0
VERTEX
  8
VISIBLE_NARROW__ISO_
  5
139
 10
37.6783
 20
2.14260
 30
0.000000
  70
    32
  0
VERTEX
  8
VISIBLE_NARROW__ISO_
  5
13A
 10
37.6824
 20
2.14283
 30
0.000000
  70
    32
  0
VERTEX
  8
VISIBLE_NARROW__ISO_
  5
13B
 10
37.6865
 20
2.14307
 30
0.000000
  70
    32
  0
VERTEX
  8
VISIBLE_NARROW__ISO_
  5
13C
 10
37.6906
 20
2.14333
 30
0.000000
  70
    32
  0
VERTEX
  8
VISIBLE_NARROW__ISO_
  5
13D
 10
37.6947
 20
2.14360
 30
0.000000
  70
    32
  0
VERTEX
  8
VISIBLE_NARROW__ISO_
  5
13E
 10
37.6988
 20
2.14388
 30
0.000000
  70
    32
  0
VERTEX
  8
VISIBLE_NARROW__ISO_
  5
13F
 10
37.7028
 20
2.14417
 30
0.000000
  70
    32
  0
VERTEX
  8
VISIBLE_NARROW__ISO_
  5
140
 10
37.7069
 20
2.14448
 30
0.000000
  70
    32
  0
VERTEX
  8
VISIBLE_NARROW__ISO_
  5
141
 10
37.7110
 20
2.14480
 30
0.000000
  70
    32
  0
VERTEX
  8
VISIBLE_NARROW__ISO_
  5
142
 10
37.7151
 20
2.14513
 30
0.000000
  70
    32
  0
VERTEX
  8
VISIBLE_NARROW__ISO_
  5
143
 10
37.7192
 20
2.14548
 30
0.000000
  70
    32
  0
VERTEX
  8
VISIBLE_NARROW__ISO_
  5
144
 10
37.7233
 20
2.14583
 30
0.000000
  70
    32
  0
VERTEX
  8
VISIBLE_NARROW__ISO_
  5
145
 10
37.7274
 20
2.14620
 30
0.000000
  70
    32
  0
VERTEX
  8
VISIBLE_NARROW__ISO_
  5
146
 10
37.7314
 20
2.14659
 30
0.000000
  70
    32
  0
VERTEX
  8
VISIBLE_NARROW__ISO_
  5
147
 10
37.7355
 20
2.14698
 30
0.000000
  70
    32
  0
VERTEX
  8
VISIBLE_NARROW__ISO_
  5
148
 10
37.7396
 20
2.14739
 30
0.000000
  70
    32
  0
VERTEX
  8
VISIBLE_NARROW__ISO_
  5
149
 10
37.7437
 20
2.14781
 30
0.000000
  70
    32
  0
VERTEX
  8
VISIBLE_NARROW__ISO_
  5
14A
 10
37.7478
 20
2.14824
 30
0.000000
  70
    32
  0
VERTEX
  8
VISIBLE_NARROW__ISO_
  5
14B
 10
37.7518
 20
2.14868
 30
0.000000
  70
    32
  0
VERTEX
  8
VISIBLE_NARROW__ISO_
  5
14C
 10
37.7559
 20
2.14914
 30
0.000000
  70
    32
  0
VERTEX
  8
VISIBLE_NARROW__ISO_
  5
14D
 10
37.7600
 20
2.14961
 30
0.000000
  70
    32
  0
VERTEX
  8
VISIBLE_NARROW__ISO_
  5
14E
 10
37.7640
 20
2.15009
 30
0.000000
  70
    32
  0
VERTEX
  8
VISIBLE_NARROW__ISO_
  5
14F
 10
37.7681
 20
2.15059
 30
0.000000
  70
    32
  0
VERTEX
  8
VISIBLE_NARROW__ISO_
  5
150
 10
37.7722
 20
2.15109
 30
0.000000
  70
    32
  0
VERTEX
  8
VISIBLE_NARROW__ISO_
  5
151
 10
37.7763
 20
2.15161
 30
0.000000
  70
    32
  0
VERTEX
  8
VISIBLE_NARROW__ISO_
  5
152
 10
37.7803
 20
2.15214
 30
0.000000
  70
    32
  0
VERTEX
  8
VISIBLE_NARROW__ISO_
  5
153
 10
37.7844
 20
2.15269
 30
0.000000
  70
    32
  0
VERTEX
  8
VISIBLE_NARROW__ISO_
  5
154
 10
37.7884
 20
2.15325
 30
0.000000
  70
    32
  0
VERTEX
  8
VISIBLE_NARROW__ISO_
  5
155
 10
37.7925
 20
2.15382
 30
0.000000
  70
    32
  0
VERTEX
  8
VISIBLE_NARROW__ISO_
  5
156
 10
37.7966
 20
2.15440
 30
0.000000
  70
    32
  0
VERTEX
  8
VISIBLE_NARROW__ISO_
  5
157
 10
37.8006
 20
2.15499
 30
0.000000
  70
    32
  0
VERTEX
  8
VISIBLE_NARROW__ISO_
  5
158
 10
37.8047
 20
2.15560
 30
0.000000
  70
    32
  0
VERTEX
  8
VISIBLE_NARROW__ISO_
  5
159
 10
37.8087
 20
2.15622
 30
0.000000
  70
    32
  0
VERTEX
  8
VISIBLE_NARROW__ISO_
  5
15A
 10
37.8128
 20
2.15685
 30
0.000000
  70
    32
  0
VERTEX
  8
VISIBLE_NARROW__ISO_
  5
15B
 10
37.8168
 20
2.15749
 30
0.000000
  70
    32
  0
VERTEX
  8
VISIBLE_NARROW__ISO_
  5
15C
 10
37.8209
 20
2.15815
 30
0.000000
  70
    32
  0
VERTEX
  8
VISIBLE_NARROW__ISO_
  5
15D
 10
37.8249
 20
2.15882
 30
0.000000
  70
    32
  0
VERTEX
  8
VISIBLE_NARROW__ISO_
  5
15E
 10
37.8290
 20
2.15950
 30
0.000000
  70
    32
  0
VERTEX
  8
VISIBLE_NARROW__ISO_
  5
15F
 10
37.8330
 20
2.16020
 30
0.000000
  70
    32
  0
VERTEX
  8
VISIBLE_NARROW__ISO_
  5
160
 10
37.8370
 20
2.16090
 30
0.000000
  70
    32
  0
VERTEX
  8
VISIBLE_NARROW__ISO_
  5
161
 10
37.8411
 20
2.16162
 30
0.000000
  70
    32
  0
VERTEX
  8
VISIBLE_NARROW__ISO_
  5
162
 10
37.8451
 20
2.16235
 30
0.000000
  70
    32
  0
VERTEX
  8
VISIBLE_NARROW__ISO_
  5
163
 10
37.8491
 20
2.16310
 30
0.000000
  70
    32
  0
VERTEX
  8
VISIBLE_NARROW__ISO_
  5
164
 10
37.8532
 20
2.16386
 30
0.000000
  70
    32
  0
VERTEX
  8
VISIBLE_NARROW__ISO_
  5
165
 10
37.8572
 20
2.16462
 30
0.000000
  70
    32
  0
VERTEX
  8
VISIBLE_NARROW__ISO_
  5
166
 10
37.8612
 20
2.16541
 30
0.000000
  70
    32
  0
VERTEX
  8
VISIBLE_NARROW__ISO_
  5
167
 10
37.8652
 20
2.16620
 30
0.000000
  70
    32
  0
VERTEX
  8
VISIBLE_NARROW__ISO_
  5
168
 10
37.8693
 20
2.16701
 30
0.000000
  70
    32
  0
VERTEX
  8
VISIBLE_NARROW__ISO_
  5
169
 10
37.8733
 20
2.16782
 30
0.000000
  70
    32
  0
VERTEX
  8
VISIBLE_NARROW__ISO_
  5
16A
 10
37.8773
 20
2.16865
 30
0.000000
  70
    32
  0
VERTEX
  8
VISIBLE_NARROW__ISO_
  5
16B
 10
37.8813
 20
2.16950
 30
0.000000
  70
    32
  0
VERTEX
  8
VISIBLE_NARROW__ISO_
  5
16C
 10
37.8853
 20
2.17035
 30
0.000000
  70
    32
  0
VERTEX
  8
VISIBLE_NARROW__ISO_
  5
16D
 10
37.8893
 20
2.17122
 30
0.000000
  70
    32
  0
VERTEX
  8
VISIBLE_NARROW__ISO_
  5
16E
 10
37.8933
 20
2.17210
 30
0.000000
  70
    32
  0
VERTEX
  8
VISIBLE_NARROW__ISO_
  5
16F
 10
37.8973
 20
2.17299
 30
0.000000
  70
    32
  0
VERTEX
  8
VISIBLE_NARROW__ISO_
  5
170
 10
37.9013
 20
2.17390
 30
0.000000
  70
    32
  0
VERTEX
  8
VISIBLE_NARROW__ISO_
  5
171
 10
37.9053
 20
2.17482
 30
0.000000
  70
    32
  0
VERTEX
  8
VISIBLE_NARROW__ISO_
  5
172
 10
37.9093
 20
2.17575
 30
0.000000
  70
    32
  0
VERTEX
  8
VISIBLE_NARROW__ISO_
  5
173
 10
37.9133
 20
2.17669
 30
0.000000
  70
    32
  0
VERTEX
  8
VISIBLE_NARROW__ISO_
  5
174
 10
37.9173
 20
2.17764
 30
0.000000
  70
    32
  0
VERTEX
  8
VISIBLE_NARROW__ISO_
  5
175
 10
37.9213
 20
2.17861
 30
0.000000
  70
    32
  0
VERTEX
  8
VISIBLE_NARROW__ISO_
  5
176
 10
37.9253
 20
2.17958
 30
0.000000
  70
    32
  0
VERTEX
  8
VISIBLE_NARROW__ISO_
  5
177
 10
37.9293
 20
2.18058
 30
0.000000
  70
    32
  0
VERTEX
  8
VISIBLE_NARROW__ISO_
  5
178
 10
37.9332
 20
2.18158
 30
0.000000
  70
    32
  0
VERTEX
  8
VISIBLE_NARROW__ISO_
  5
179
 10
37.9372
 20
2.18259
 30
0.000000
  70
    32
  0
VERTEX
  8
VISIBLE_NARROW__ISO_
  5
17A
 10
37.9412
 20
2.18362
 30
0.000000
  70
    32
  0
VERTEX
  8
VISIBLE_NARROW__ISO_
  5
17B
 10
37.9451
 20
2.18466
 30
0.000000
  70
    32
  0
VERTEX
  8
VISIBLE_NARROW__ISO_
  5
17C
 10
37.9491
 20
2.18571
 30
0.000000
  70
    32
  0
VERTEX
  8
VISIBLE_NARROW__ISO_
  5
17D
 10
37.9531
 20
2.18677
 30
0.000000
  70
    32
  0
VERTEX
  8
VISIBLE_NARROW__ISO_
  5
17E
 10
37.9570
 20
2.18785
 30
0.000000
  70
    32
  0
VERTEX
  8
VISIBLE_NARROW__ISO_
  5
17F
 10
37.9610
 20
2.18894
 30
0.000000
  70
    32
  0
VERTEX
  8
VISIBLE_NARROW__ISO_
  5
180
 10
37.9649
 20
2.19004
 30
0.000000
  70
    32
  0
VERTEX
  8
VISIBLE_NARROW__ISO_
  5
181
 10
37.9689
 20
2.19115
 30
0.000000
  70
    32
  0
VERTEX
  8
VISIBLE_NARROW__ISO_
  5
182
 10
37.9728
 20
2.19227
 30
0.000000
  70
    32
  0
VERTEX
  8
VISIBLE_NARROW__ISO_
  5
183
 10
37.9767
 20
2.19341
 30
0.000000
  70
    32
  0
VERTEX
  8
VISIBLE_NARROW__ISO_
  5
184
 10
37.9807
 20
2.19456
 30
0.000000
  70
    32
  0
VERTEX
  8
VISIBLE_NARROW__ISO_
  5
185
 10
37.9846
 20
2.19572
 30
0.000000
  70
    32
  0
VERTEX
  8
VISIBLE_NARROW__ISO_
  5
186
 10
37.9885
 20
2.19689
 30
0.000000
  70
    32
  0
VERTEX
  8
VISIBLE_NARROW__ISO_
  5
187
 10
37.9925
 20
2.19808
 30
0.000000
  70
    32
  0
VERTEX
  8
VISIBLE_NARROW__ISO_
  5
188
 10
37.9964
 20
2.19927
 30
0.000000
  70
    32
  0
VERTEX
  8
VISIBLE_NARROW__ISO_
  5
189
 10
38.0003
 20
2.20048
 30
0.000000
  70
    32
  0
VERTEX
  8
VISIBLE_NARROW__ISO_
  5
18A
 10
38.0042
 20
2.20170
 30
0.000000
  70
    32
  0
VERTEX
  8
VISIBLE_NARROW__ISO_
  5
18B
 10
38.0081
 20
2.20293
 30
0.000000
  70
    32
  0
VERTEX
  8
VISIBLE_NARROW__ISO_
  5
18C
 10
38.0120
 20
2.20418
 30
0.000000
  70
    32
  0
VERTEX
  8
VISIBLE_NARROW__ISO_
  5
18D
 10
38.0159
 20
2.20544
 30
0.000000
  70
    32
  0
VERTEX
  8
VISIBLE_NARROW__ISO_
  5
18E
 10
38.0198
 20
2.20670
 30
0.000000
  70
    32
  0
VERTEX
  8
VISIBLE_NARROW__ISO_
  5
18F
 10
38.0237
 20
2.20798
 30
0.000000
  70
    32
  0
VERTEX
  8
VISIBLE_NARROW__ISO_
  5
190
 10
38.0276
 20
2.20928
 30
0.000000
  70
    32
  0
VERTEX
  8
VISIBLE_NARROW__ISO_
  5
191
 10
38.0315
 20
2.21058
 30
0.000000
  70
    32
  0
VERTEX
  8
VISIBLE_NARROW__ISO_
  5
192
 10
38.0354
 20
2.21190
 30
0.000000
  70
    32
  0
VERTEX
  8
VISIBLE_NARROW__ISO_
  5
193
 10
38.0393
 20
2.21323
 30
0.000000
  70
    32
  0
VERTEX
  8
VISIBLE_NARROW__ISO_
  5
194
 10
38.0432
 20
2.21457
 30
0.000000
  70
    32
  0
VERTEX
  8
VISIBLE_NARROW__ISO_
  5
195
 10
38.0470
 20
2.21592
 30
0.000000
  70
    32
  0
VERTEX
  8
VISIBLE_NARROW__ISO_
  5
196
 10
38.0509
 20
2.21728
 30
0.000000
  70
    32
  0
VERTEX
  8
VISIBLE_NARROW__ISO_
  5
197
 10
38.0548
 20
2.21866
 30
0.000000
  70
    32
  0
VERTEX
  8
VISIBLE_NARROW__ISO_
  5
198
 10
38.0586
 20
2.22004
 30
0.000000
  70
    32
  0
VERTEX
  8
VISIBLE_NARROW__ISO_
  5
199
 10
38.0625
 20
2.22144
 30
0.000000
  70
    32
  0
VERTEX
  8
VISIBLE_NARROW__ISO_
  5
19A
 10
38.0663
 20
2.22285
 30
0.000000
  70
    32
  0
VERTEX
  8
VISIBLE_NARROW__ISO_
  5
19B
 10
38.0702
 20
2.22428
 30
0.000000
  70
    32
  0
VERTEX
  8
VISIBLE_NARROW__ISO_
  5
19C
 10
38.0740
 20
2.22571
 30
0.000000
  70
    32
  0
VERTEX
  8
VISIBLE_NARROW__ISO_
  5
19D
 10
38.0778
 20
2.22716
 30
0.000000
  70
    32
  0
VERTEX
  8
VISIBLE_NARROW__ISO_
  5
19E
 10
38.0817
 20
2.22862
 30
0.000000
  70
    32
  0
VERTEX
  8
VISIBLE_NARROW__ISO_
  5
19F
 10
38.0855
 20
2.23009
 30
0.000000
  70
    32
  0
VERTEX
  8
VISIBLE_NARROW__ISO_
  5
1A0
 10
38.0893
 20
2.23157
 30
0.000000
  70
    32
  0
VERTEX
  8
VISIBLE_NARROW__ISO_
  5
1A1
 10
38.0932
 20
2.23306
 30
0.000000
  70
    32
  0
VERTEX
  8
VISIBLE_NARROW__ISO_
  5
1A2
 10
38.0970
 20
2.23457
 30
0.000000
  70
    32
  0
VERTEX
  8
VISIBLE_NARROW__ISO_
  5
1A3
 10
38.1008
 20
2.23609
 30
0.000000
  70
    32
  0
VERTEX
  8
VISIBLE_NARROW__ISO_
  5
1A4
 10
38.1046
 20
2.23761
 30
0.000000
  70
    32
  0
VERTEX
  8
VISIBLE_NARROW__ISO_
  5
1A5
 10
38.1084
 20
2.23915
 30
0.000000
  70
    32
  0
VERTEX
  8
VISIBLE_NARROW__ISO_
  5
1A6
 10
38.1122
 20
2.24071
 30
0.000000
  70
    32
  0
VERTEX
  8
VISIBLE_NARROW__ISO_
  5
1A7
 10
38.1160
 20
2.24227
 30
0.000000
  70
    32
  0
VERTEX
  8
VISIBLE_NARROW__ISO_
  5
1A8
 10
38.1198
 20
2.24385
 30
0.000000
  70
    32
  0
VERTEX
  8
VISIBLE_NARROW__ISO_
  5
1A9
 10
38.1235
 20
2.24543
 30
0.000000
  70
    32
  0
VERTEX
  8
VISIBLE_NARROW__ISO_
  5
1AA
 10
38.1273
 20
2.24703
 30
0.000000
  70
    32
  0
VERTEX
  8
VISIBLE_NARROW__ISO_
  5
1AB
 10
38.1311
 20
2.24864
 30
0.000000
  70
    32
  0
VERTEX
  8
VISIBLE_NARROW__ISO_
  5
1AC
 10
38.1348
 20
2.25026
 30
0.000000
  70
    32
  0
VERTEX
  8
VISIBLE_NARROW__ISO_
  5
1AD
 10
38.1386
 20
2.25190
 30
0.000000
  70
    32
  0
VERTEX
  8
VISIBLE_NARROW__ISO_
  5
1AE
 10
38.1424
 20
2.25354
 30
0.000000
  70
    32
  0
VERTEX
  8
VISIBLE_NARROW__ISO_
  5
1AF
 10
38.1461
 20
2.25520
 30
0.000000
  70
    32
  0
VERTEX
  8
VISIBLE_NARROW__ISO_
  5
1B0
 10
38.1499
 20
2.25687
 30
0.000000
  70
    32
  0
VERTEX
  8
VISIBLE_NARROW__ISO_
  5
1B1
 10
38.1536
 20
2.25855
 30
0.000000
  70
    32
  0
VERTEX
  8
VISIBLE_NARROW__ISO_
  5
1B2
 10
38.1573
 20
2.26024
 30
0.000000
  70
    32
  0
VERTEX
  8
VISIBLE_NARROW__ISO_
  5
1B3
 10
38.1611
 20
2.26194
 30
0.000000
  70
    32
  0
VERTEX
  8
VISIBLE_NARROW__ISO_
  5
1B4
 10
38.1648
 20
2.26366
 30
0.000000
  70
    32
  0
VERTEX
  8
VISIBLE_NARROW__ISO_
  5
1B5
 10
38.1685
 20
2.26538
 30
0.000000
  70
    32
  0
VERTEX
  8
VISIBLE_NARROW__ISO_
  5
1B6
 10
38.1722
 20
2.26712
 30
0.000000
  70
    32
  0
VERTEX
  8
VISIBLE_NARROW__ISO_
  5
1B7
 10
38.1759
 20
2.26887
 30
0.000000
  70
    32
  0
VERTEX
  8
VISIBLE_NARROW__ISO_
  5
1B8
 10
38.1796
 20
2.27063
 30
0.000000
  70
    32
  0
VERTEX
  8
VISIBLE_NARROW__ISO_
  5
1B9
 10
38.1833
 20
2.27240
 30
0.000000
  70
    32
  0
VERTEX
  8
VISIBLE_NARROW__ISO_
  5
1BA
 10
38.1870
 20
2.27419
 30
0.000000
  70
    32
  0
VERTEX
  8
VISIBLE_NARROW__ISO_
  5
1BB
 10
38.1907
 20
2.27598
 30
0.000000
  70
    32
  0
VERTEX
  8
VISIBLE_NARROW__ISO_
  5
1BC
 10
38.1944
 20
2.27779
 30
0.000000
  70
    32
  0
VERTEX
  8
VISIBLE_NARROW__ISO_
  5
1BD
 10
38.1981
 20
2.27961
 30
0.000000
  70
    32
  0
VERTEX
  8
VISIBLE_NARROW__ISO_
  5
1BE
 10
38.2017
 20
2.28144
 30
0.000000
  70
    32
  0
VERTEX
  8
VISIBLE_NARROW__ISO_
  5
1BF
 10
38.2054
 20
2.28328
 30
0.000000
  70
    32
  0
VERTEX
  8
VISIBLE_NARROW__ISO_
  5
1C0
 10
38.2091
 20
2.28513
 30
0.000000
  70
    32
  0
VERTEX
  8
VISIBLE_NARROW__ISO_
  5
1C1
 10
38.2127
 20
2.28699
 30
0.000000
  70
    32
  0
VERTEX
  8
VISIBLE_NARROW__ISO_
  5
1C2
 10
38.2164
 20
2.28886
 30
0.000000
  70
    32
  0
VERTEX
  8
VISIBLE_NARROW__ISO_
  5
1C3
 10
38.2200
 20
2.29075
 30
0.000000
  70
    32
  0
VERTEX
  8
VISIBLE_NARROW__ISO_
  5
1C4
 10
38.2236
 20
2.29265
 30
0.000000
  70
    32
  0
VERTEX
  8
VISIBLE_NARROW__ISO_
  5
1C5
 10
38.2273
 20
2.29455
 30
0.000000
  70
    32
  0
VERTEX
  8
VISIBLE_NARROW__ISO_
  5
1C6
 10
38.2309
 20
2.29647
 30
0.000000
  70
    32
  0
VERTEX
  8
VISIBLE_NARROW__ISO_
  5
1C7
 10
38.2345
 20
2.29840
 30
0.000000
  70
    32
  0
VERTEX
  8
VISIBLE_NARROW__ISO_
  5
1C8
 10
38.2381
 20
2.30034
 30
0.000000
  70
    32
  0
VERTEX
  8
VISIBLE_NARROW__ISO_
  5
1C9
 10
38.2417
 20
2.30230
 30
0.000000
  70
    32
  0
VERTEX
  8
VISIBLE_NARROW__ISO_
  5
1CA
 10
38.2453
 20
2.30426
 30
0.000000
  70
    32
  0
VERTEX
  8
VISIBLE_NARROW__ISO_
  5
1CB
 10
38.2489
 20
2.30623
 30
0.000000
  70
    32
  0
VERTEX
  8
VISIBLE_NARROW__ISO_
  5
1CC
 10
38.2525
 20
2.30822
 30
0.000000
  70
    32
  0
VERTEX
  8
VISIBLE_NARROW__ISO_
  5
1CD
 10
38.2561
 20
2.31022
 30
0.000000
  70
    32
  0
VERTEX
  8
VISIBLE_NARROW__ISO_
  5
1CE
 10
38.2597
 20
2.31222
 30
0.000000
  70
    32
  0
VERTEX
  8
VISIBLE_NARROW__ISO_
  5
1CF
 10
38.2632
 20
2.31424
 30
0.000000
  70
    32
  0
VERTEX
  8
VISIBLE_NARROW__ISO_
  5
1D0
 10
38.2668
 20
2.31627
 30
0.000000
  70
    32
  0
VERTEX
  8
VISIBLE_NARROW__ISO_
  5
1D1
 10
38.2704
 20
2.31831
 30
0.000000
  70
    32
  0
VERTEX
  8
VISIBLE_NARROW__ISO_
  5
1D2
 10
38.2739
 20
2.32036
 30
0.000000
  70
    32
  0
VERTEX
  8
VISIBLE_NARROW__ISO_
  5
1D3
 10
38.2775
 20
2.32243
 30
0.000000
  70
    32
  0
VERTEX
  8
VISIBLE_NARROW__ISO_
  5
1D4
 10
38.2810
 20
2.32450
 30
0.000000
  70
    32
  0
VERTEX
  8
VISIBLE_NARROW__ISO_
  5
1D5
 10
38.2845
 20
2.32658
 30
0.000000
  70
    32
  0
VERTEX
  8
VISIBLE_NARROW__ISO_
  5
1D6
 10
38.2881
 20
2.32868
 30
0.000000
  70
    32
  0
VERTEX
  8
VISIBLE_NARROW__ISO_
  5
1D7
 10
38.2916
 20
2.33078
 30
0.000000
  70
    32
  0
VERTEX
  8
VISIBLE_NARROW__ISO_
  5
1D8
 10
38.2951
 20
2.33290
 30
0.000000
  70
    32
  0
VERTEX
  8
VISIBLE_NARROW__ISO_
  5
1D9
 10
38.2986
 20
2.33503
 30
0.000000
  70
    32
  0
VERTEX
  8
VISIBLE_NARROW__ISO_
  5
1DA
 10
38.3021
 20
2.33717
 30
0.000000
  70
    32
  0
VERTEX
  8
VISIBLE_NARROW__ISO_
  5
1DB
 10
38.3056
 20
2.33932
 30
0.000000
  70
    32
  0
VERTEX
  8
VISIBLE_NARROW__ISO_
  5
1DC
 10
38.3091
 20
2.34147
 30
0.000000
  70
    32
  0
VERTEX
  8
VISIBLE_NARROW__ISO_
  5
1DD
 10
38.3126
 20
2.34364
 30
0.000000
  70
    32
  0
VERTEX
  8
VISIBLE_NARROW__ISO_
  5
1DE
 10
38.3160
 20
2.34583
 30
0.000000
  70
    32
  0
VERTEX
  8
VISIBLE_NARROW__ISO_
  5
1DF
 10
38.3195
 20
2.34802
 30
0.000000
  70
    32
  0
VERTEX
  8
VISIBLE_NARROW__ISO_
  5
1E0
 10
38.3230
 20
2.35022
 30
0.000000
  70
    32
  0
VERTEX
  8
VISIBLE_NARROW__ISO_
  5
1E1
 10
38.3264
 20
2.35243
 30
0.000000
  70
    32
  0
VERTEX
  8
VISIBLE_NARROW__ISO_
  5
1E2
 10
38.3299
 20
2.35466
 30
0.000000
  70
    32
  0
VERTEX
  8
VISIBLE_NARROW__ISO_
  5
1E3
 10
38.3333
 20
2.35689
 30
0.000000
  70
    32
  0
VERTEX
  8
VISIBLE_NARROW__ISO_
  5
1E4
 10
38.3367
 20
2.35913
 30
0.000000
  70
    32
  0
VERTEX
  8
VISIBLE_NARROW__ISO_
  5
1E5
 10
38.3401
 20
2.36139
 30
0.000000
  70
    32
  0
VERTEX
  8
VISIBLE_NARROW__ISO_
  5
1E6
 10
38.3436
 20
2.36365
 30
0.000000
  70
    32
  0
VERTEX
  8
VISIBLE_NARROW__ISO_
  5
1E7
 10
38.3470
 20
2.36593
 30
0.000000
  70
    32
  0
VERTEX
  8
VISIBLE_NARROW__ISO_
  5
1E8
 10
38.3504
 20
2.36822
 30
0.000000
  70
    32
  0
VERTEX
  8
VISIBLE_NARROW__ISO_
  5
1E9
 10
38.3538
 20
2.37051
 30
0.000000
  70
    32
  0
VERTEX
  8
VISIBLE_NARROW__ISO_
  5
1EA
 10
38.3572
 20
2.37282
 30
0.000000
  70
    32
  0
VERTEX
  8
VISIBLE_NARROW__ISO_
  5
1EB
 10
38.3606
 20
2.37514
 30
0.000000
  70
    32
  0
VERTEX
  8
VISIBLE_NARROW__ISO_
  5
1EC
 10
38.3639
 20
2.37747
 30
0.000000
  70
    32
  0
VERTEX
  8
VISIBLE_NARROW__ISO_
  5
1ED
 10
38.3673
 20
2.37980
 30
0.000000
  70
    32
  0
VERTEX
  8
VISIBLE_NARROW__ISO_
  5
1EE
 10
38.3707
 20
2.38215
 30
0.000000
  70
    32
  0
VERTEX
  8
VISIBLE_NARROW__ISO_
  5
1EF
 10
38.3740
 20
2.38451
 30
0.000000
  70
    32
  0
VERTEX
  8
VISIBLE_NARROW__ISO_
  5
1F0
 10
38.3774
 20
2.38688
 30
0.000000
  70
    32
  0
VERTEX
  8
VISIBLE_NARROW__ISO_
  5
1F1
 10
38.3807
 20
2.38926
 30
0.000000
  70
    32
  0
VERTEX
  8
VISIBLE_NARROW__ISO_
  5
1F2
 10
38.3840
 20
2.39165
 30
0.000000
  70
    32
  0
VERTEX
  8
VISIBLE_NARROW__ISO_
  5
1F3
 10
38.3874
 20
2.39405
 30
0.000000
  70
    32
  0
VERTEX
  8
VISIBLE_NARROW__ISO_
  5
1F4
 10
38.3907
 20
2.39646
 30
0.000000
  70
    32
  0
VERTEX
  8
VISIBLE_NARROW__ISO_
  5
1F5
 10
38.3940
 20
2.39888
 30
0.000000
  70
    32
  0
VERTEX
  8
VISIBLE_NARROW__ISO_
  5
1F6
 10
38.3973
 20
2.40131
 30
0.000000
  70
    32
  0
VERTEX
  8
VISIBLE_NARROW__ISO_
  5
1F7
 10
38.4006
 20
2.40375
 30
0.000000
  70
    32
  0
VERTEX
  8
VISIBLE_NARROW__ISO_
  5
1F8
 10
38.4039
 20
2.40620
 30
0.000000
  70
    32
  0
VERTEX
  8
VISIBLE_NARROW__ISO_
  5
1F9
 10
38.4072
 20
2.40866
 30
0.000000
  70
    32
  0
VERTEX
  8
VISIBLE_NARROW__ISO_
  5
1FA
 10
38.4104
 20
2.41114
 30
0.000000
  70
    32
  0
VERTEX
  8
VISIBLE_NARROW__ISO_
  5
1FB
 10
38.4137
 20
2.41362
 30
0.000000
  70
    32
  0
VERTEX
  8
VISIBLE_NARROW__ISO_
  5
1FC
 10
38.4170
 20
2.41611
 30
0.000000
  70
    32
  0
VERTEX
  8
VISIBLE_NARROW__ISO_
  5
1FD
 10
38.4202
 20
2.41861
 30
0.000000
  70
    32
  0
VERTEX
  8
VISIBLE_NARROW__ISO_
  5
1FE
 10
38.4234
 20
2.42112
 30
0.000000
  70
    32
  0
VERTEX
  8
VISIBLE_NARROW__ISO_
  5
1FF
 10
38.4267
 20
2.42364
 30
0.000000
  70
    32
  0
VERTEX
  8
VISIBLE_NARROW__ISO_
  5
200
 10
38.4299
 20
2.42617
 30
0.000000
  70
    32
  0
VERTEX
  8
VISIBLE_NARROW__ISO_
  5
201
 10
38.4331
 20
2.42871
 30
0.000000
  70
    32
  0
VERTEX
  8
VISIBLE_NARROW__ISO_
  5
202
 10
38.4363
 20
2.43126
 30
0.000000
  70
    32
  0
VERTEX
  8
VISIBLE_NARROW__ISO_
  5
203
 10
38.4395
 20
2.43382
 30
0.000000
  70
    32
  0
VERTEX
  8
VISIBLE_NARROW__ISO_
  5
204
 10
38.4427
 20
2.43640
 30
0.000000
  70
    32
  0
VERTEX
  8
VISIBLE_NARROW__ISO_
  5
205
 10
38.4459
 20
2.43898
 30
0.000000
  70
    32
  0
VERTEX
  8
VISIBLE_NARROW__ISO_
  5
206
 10
38.4491
 20
2.44157
 30
0.000000
  70
    32
  0
VERTEX
  8
VISIBLE_NARROW__ISO_
  5
207
 10
38.4523
 20
2.44417
 30
0.000000
  70
    32
  0
VERTEX
  8
VISIBLE_NARROW__ISO_
  5
208
 10
38.4554
 20
2.44678
 30
0.000000
  70
    32
  0
VERTEX
  8
VISIBLE_NARROW__ISO_
  5
209
 10
38.4586
 20
2.44940
 30
0.000000
  70
    32
  0
VERTEX
  8
VISIBLE_NARROW__ISO_
  5
20A
 10
38.4617
 20
2.45203
 30
0.000000
  70
    32
  0
VERTEX
  8
VISIBLE_NARROW__ISO_
  5
20B
 10
38.4649
 20
2.45467
 30
0.000000
  70
    32
  0
VERTEX
  8
VISIBLE_NARROW__ISO_
  5
20C
 10
38.4680
 20
2.45731
 30
0.000000
  70
    32
  0
VERTEX
  8
VISIBLE_NARROW__ISO_
  5
20D
 10
38.4711
 20
2.45997
 30
0.000000
  70
    32
  0
VERTEX
  8
VISIBLE_NARROW__ISO_
  5
20E
 10
38.4742
 20
2.46264
 30
0.000000
  70
    32
  0
VERTEX
  8
VISIBLE_NARROW__ISO_
  5
20F
 10
38.4774
 20
2.46532
 30
0.000000
  70
    32
  0
VERTEX
  8
VISIBLE_NARROW__ISO_
  5
210
 10
38.4804
 20
2.46801
 30
0.000000
  70
    32
  0
VERTEX
  8
VISIBLE_NARROW__ISO_
  5
211
 10
38.4835
 20
2.47070
 30
0.000000
  70
    32
  0
VERTEX
  8
VISIBLE_NARROW__ISO_
  5
212
 10
38.4866
 20
2.47341
 30
0.000000
  70
    32
  0
VERTEX
  8
VISIBLE_NARROW__ISO_
  5
213
 10
38.4897
 20
2.47613
 30
0.000000
  70
    32
  0
VERTEX
  8
VISIBLE_NARROW__ISO_
  5
214
 10
38.4928
 20
2.47885
 30
0.000000
  70
    32
  0
VERTEX
  8
VISIBLE_NARROW__ISO_
  5
215
 10
38.4958
 20
2.48159
 30
0.000000
  70
    32
  0
VERTEX
  8
VISIBLE_NARROW__ISO_
  5
216
 10
38.4989
 20
2.48433
 30
0.000000
  70
    32
  0
VERTEX
  8
VISIBLE_NARROW__ISO_
  5
217
 10
38.5019
 20
2.48709
 30
0.000000
  70
    32
  0
VERTEX
  8
VISIBLE_NARROW__ISO_
  5
218
 10
38.5049
 20
2.48985
 30
0.000000
  70
    32
  0
VERTEX
  8
VISIBLE_NARROW__ISO_
  5
219
 10
38.5080
 20
2.49262
 30
0.000000
  70
    32
  0
VERTEX
  8
VISIBLE_NARROW__ISO_
  5
21A
 10
38.5110
 20
2.49540
 30
0.000000
  70
    32
  0
VERTEX
  8
VISIBLE_NARROW__ISO_
  5
21B
 10
38.5140
 20
2.49819
 30
0.000000
  70
    32
  0
VERTEX
  8
VISIBLE_NARROW__ISO_
  5
21C
 10
38.5170
 20
2.50100
 30
0.000000
  70
    32
  0
VERTEX
  8
VISIBLE_NARROW__ISO_
  5
21D
 10
38.5200
 20
2.50381
 30
0.000000
  70
    32
  0
VERTEX
  8
VISIBLE_NARROW__ISO_
  5
21E
 10
38.5229
 20
2.50662
 30
0.000000
  70
    32
  0
VERTEX
  8
VISIBLE_NARROW__ISO_
  5
21F
 10
38.5259
 20
2.50945
 30
0.000000
  70
    32
  0
VERTEX
  8
VISIBLE_NARROW__ISO_
  5
220
 10
38.5289
 20
2.51229
 30
0.000000
  70
    32
  0
VERTEX
  8
VISIBLE_NARROW__ISO_
  5
221
 10
38.5318
 20
2.51514
 30
0.000000
  70
    32
  0
VERTEX
  8
VISIBLE_NARROW__ISO_
  5
222
 10
38.5348
 20
2.51799
 30
0.000000
  70
    32
  0
VERTEX
  8
VISIBLE_NARROW__ISO_
  5
223
 10
38.5377
 20
2.52086
 30
0.000000
  70
    32
  0
VERTEX
  8
VISIBLE_NARROW__ISO_
  5
224
 10
38.5406
 20
2.52373
 30
0.000000
  70
    32
  0
VERTEX
  8
VISIBLE_NARROW__ISO_
  5
225
 10
38.5435
 20
2.52661
 30
0.000000
  70
    32
  0
VERTEX
  8
VISIBLE_NARROW__ISO_
  5
226
 10
38.5464
 20
2.52950
 30
0.000000
  70
    32
  0
VERTEX
  8
VISIBLE_NARROW__ISO_
  5
227
 10
38.5493
 20
2.53240
 30
0.000000
  70
    32
  0
VERTEX
  8
VISIBLE_NARROW__ISO_
  5
228
 10
38.5522
 20
2.53531
 30
0.000000
  70
    32
  0
VERTEX
  8
VISIBLE_NARROW__ISO_
  5
229
 10
38.5551
 20
2.53823
 30
0.000000
  70
    32
  0
VERTEX
  8
VISIBLE_NARROW__ISO_
  5
22A
 10
38.5580
 20
2.54116
 30
0.000000
  70
    32
  0
VERTEX
  8
VISIBLE_NARROW__ISO_
  5
22B
 10
38.5609
 20
2.54409
 30
0.000000
  70
    32
  0
VERTEX
  8
VISIBLE_NARROW__ISO_
  5
22C
 10
38.5637
 20
2.54704
 30
0.000000
  70
    32
  0
VERTEX
  8
VISIBLE_NARROW__ISO_
  5
22D
 10
38.5666
 20
2.54999
 30
0.000000
  70
    32
  0
VERTEX
  8
VISIBLE_NARROW__ISO_
  5
22E
 10
38.5694
 20
2.55295
 30
0.000000
  70
    32
  0
VERTEX
  8
VISIBLE_NARROW__ISO_
  5
22F
 10
38.5722
 20
2.55592
 30
0.000000
  70
    32
  0
VERTEX
  8
VISIBLE_NARROW__ISO_
  5
230
 10
38.5750
 20
2.55890
 30
0.000000
  70
    32
  0
VERTEX
  8
VISIBLE_NARROW__ISO_
  5
231
 10
38.5778
 20
2.56189
 30
0.000000
  70
    32
  0
VERTEX
  8
VISIBLE_NARROW__ISO_
  5
232
 10
38.5806
 20
2.56489
 30
0.000000
  70
    32
  0
VERTEX
  8
VISIBLE_NARROW__ISO_
  5
233
 10
38.5834
 20
2.56789
 30
0.000000
  70
    32
  0
VERTEX
  8
VISIBLE_NARROW__ISO_
  5
234
 10
38.5862
 20
2.57091
 30
0.000000
  70
    32
  0
VERTEX
  8
VISIBLE_NARROW__ISO_
  5
235
 10
38.5890
 20
2.57393
 30
0.000000
  70
    32
  0
VERTEX
  8
VISIBLE_NARROW__ISO_
  5
236
 10
38.5917
 20
2.57696
 30
0.000000
  70
    32
  0
VERTEX
  8
VISIBLE_NARROW__ISO_
  5
237
 10
38.5945
 20
2.58000
 30
0.000000
  70
    32
  0
VERTEX
  8
VISIBLE_NARROW__ISO_
  5
238
 10
38.5972
 20
2.58305
 30
0.000000
  70
    32
  0
VERTEX
  8
VISIBLE_NARROW__ISO_
  5
239
 10
38.6000
 20
2.58610
 30
0.000000
  70
    32
  0
VERTEX
  8
VISIBLE_NARROW__ISO_
  5
23A
 10
38.6027
 20
2.58917
 30
0.000000
  70
    32
  0
VERTEX
  8
VISIBLE_NARROW__ISO_
  5
23B
 10
38.6054
 20
2.59224
 30
0.000000
  70
    32
  0
VERTEX
  8
VISIBLE_NARROW__ISO_
  5
23C
 10
38.6081
 20
2.59532
 30
0.000000
  70
    32
  0
VERTEX
  8
VISIBLE_NARROW__ISO_
  5
23D
 10
38.6108
 20
2.59841
 30
0.000000
  70
    32
  0
VERTEX
  8
VISIBLE_NARROW__ISO_
  5
23E
 10
38.6135
 20
2.60151
 30
0.000000
  70
    32
  0
VERTEX
  8
VISIBLE_NARROW__ISO_
  5
23F
 10
38.6162
 20
2.60462
 30
0.000000
  70
    32
  0
VERTEX
  8
VISIBLE_NARROW__ISO_
  5
240
 10
38.6189
 20
2.60773
 30
0.000000
  70
    32
  0
VERTEX
  8
VISIBLE_NARROW__ISO_
  5
241
 10
38.6215
 20
2.61085
 30
0.000000
  70
    32
  0
VERTEX
  8
VISIBLE_NARROW__ISO_
  5
242
 10
38.6242
 20
2.61398
 30
0.000000
  70
    32
  0
VERTEX
  8
VISIBLE_NARROW__ISO_
  5
243
 10
38.6268
 20
2.61712
 30
0.000000
  70
    32
  0
VERTEX
  8
VISIBLE_NARROW__ISO_
  5
244
 10
38.6294
 20
2.62027
 30
0.000000
  70
    32
  0
VERTEX
  8
VISIBLE_NARROW__ISO_
  5
245
 10
38.6321
 20
2.62342
 30
0.000000
  70
    32
  0
VERTEX
  8
VISIBLE_NARROW__ISO_
  5
246
 10
38.6347
 20
2.62659
 30
0.000000
  70
    32
  0
VERTEX
  8
VISIBLE_NARROW__ISO_
  5
247
 10
38.6373
 20
2.62976
 30
0.000000
  70
    32
  0
VERTEX
  8
VISIBLE_NARROW__ISO_
  5
248
 10
38.6399
 20
2.63293
 30
0.000000
  70
    32
  0
VERTEX
  8
VISIBLE_NARROW__ISO_
  5
249
 10
38.6424
 20
2.63612
 30
0.000000
  70
    32
  0
VERTEX
  8
VISIBLE_NARROW__ISO_
  5
24A
 10
38.6450
 20
2.63932
 30
0.000000
  70
    32
  0
VERTEX
  8
VISIBLE_NARROW__ISO_
  5
24B
 10
38.6476
 20
2.64252
 30
0.000000
  70
    32
  0
VERTEX
  8
VISIBLE_NARROW__ISO_
  5
24C
 10
38.6501
 20
2.64573
 30
0.000000
  70
    32
  0
VERTEX
  8
VISIBLE_NARROW__ISO_
  5
24D
 10
38.6527
 20
2.64895
 30
0.000000
  70
    32
  0
VERTEX
  8
VISIBLE_NARROW__ISO_
  5
24E
 10
38.6552
 20
2.65217
 30
0.000000
  70
    32
  0
VERTEX
  8
VISIBLE_NARROW__ISO_
  5
24F
 10
38.6577
 20
2.65541
 30
0.000000
  70
    32
  0
VERTEX
  8
VISIBLE_NARROW__ISO_
  5
250
 10
38.6602
 20
2.65865
 30
0.000000
  70
    32
  0
VERTEX
  8
VISIBLE_NARROW__ISO_
  5
251
 10
38.6627
 20
2.66190
 30
0.000000
  70
    32
  0
VERTEX
  8
VISIBLE_NARROW__ISO_
  5
252
 10
38.6652
 20
2.66515
 30
0.000000
  70
    32
  0
VERTEX
  8
VISIBLE_NARROW__ISO_
  5
253
 10
38.6677
 20
2.66842
 30
0.000000
  70
    32
  0
VERTEX
  8
VISIBLE_NARROW__ISO_
  5
254
 10
38.6702
 20
2.67169
 30
0.000000
  70
    32
  0
VERTEX
  8
VISIBLE_NARROW__ISO_
  5
255
 10
38.6726
 20
2.67497
 30
0.000000
  70
    32
  0
VERTEX
  8
VISIBLE_NARROW__ISO_
  5
256
 10
38.6751
 20
2.67826
 30
0.000000
  70
    32
  0
VERTEX
  8
VISIBLE_NARROW__ISO_
  5
257
 10
38.6775
 20
2.68155
 30
0.000000
  70
    32
  0
VERTEX
  8
VISIBLE_NARROW__ISO_
  5
258
 10
38.6800
 20
2.68486
 30
0.000000
  70
    32
  0
VERTEX
  8
VISIBLE_NARROW__ISO_
  5
259
 10
38.6824
 20
2.68817
 30
0.000000
  70
    32
  0
VERTEX
  8
VISIBLE_NARROW__ISO_
  5
25A
 10
38.6848
 20
2.69148
 30
0.000000
  70
    32
  0
VERTEX
  8
VISIBLE_NARROW__ISO_
  5
25B
 10
38.6872
 20
2.69481
 30
0.000000
  70
    32
  0
VERTEX
  8
VISIBLE_NARROW__ISO_
  5
25C
 10
38.6896
 20
2.69814
 30
0.000000
  70
    32
  0
VERTEX
  8
VISIBLE_NARROW__ISO_
  5
25D
 10
38.6920
 20
2.70148
 30
0.000000
  70
    32
  0
VERTEX
  8
VISIBLE_NARROW__ISO_
  5
25E
 10
38.6943
 20
2.70483
 30
0.000000
  70
    32
  0
VERTEX
  8
VISIBLE_NARROW__ISO_
  5
25F
 10
38.6967
 20
2.70818
 30
0.000000
  70
    32
  0
VERTEX
  8
VISIBLE_NARROW__ISO_
  5
260
 10
38.6991
 20
2.71154
 30
0.000000
  70
    32
  0
VERTEX
  8
VISIBLE_NARROW__ISO_
  5
261
 10
38.7014
 20
2.71491
 30
0.000000
  70
    32
  0
VERTEX
  8
VISIBLE_NARROW__ISO_
  5
262
 10
38.7037
 20
2.71828
 30
0.000000
  70
    32
  0
VERTEX
  8
VISIBLE_NARROW__ISO_
  5
263
 10
38.7060
 20
2.72167
 30
0.000000
  70
    32
  0
VERTEX
  8
VISIBLE_NARROW__ISO_
  5
264
 10
38.7084
 20
2.72506
 30
0.000000
  70
    32
  0
VERTEX
  8
VISIBLE_NARROW__ISO_
  5
265
 10
38.7106
 20
2.72845
 30
0.000000
  70
    32
  0
VERTEX
  8
VISIBLE_NARROW__ISO_
  5
266
 10
38.7129
 20
2.73186
 30
0.000000
  70
    32
  0
VERTEX
  8
VISIBLE_NARROW__ISO_
  5
267
 10
38.7152
 20
2.73527
 30
0.000000
  70
    32
  0
VERTEX
  8
VISIBLE_NARROW__ISO_
  5
268
 10
38.7175
 20
2.73869
 30
0.000000
  70
    32
  0
VERTEX
  8
VISIBLE_NARROW__ISO_
  5
269
 10
38.7197
 20
2.74211
 30
0.000000
  70
    32
  0
VERTEX
  8
VISIBLE_NARROW__ISO_
  5
26A
 10
38.7220
 20
2.74555
 30
0.000000
  70
    32
  0
VERTEX
  8
VISIBLE_NARROW__ISO_
  5
26B
 10
38.7242
 20
2.74899
 30
0.000000
  70
    32
  0
VERTEX
  8
VISIBLE_NARROW__ISO_
  5
26C
 10
38.7264
 20
2.75243
 30
0.000000
  70
    32
  0
VERTEX
  8
VISIBLE_NARROW__ISO_
  5
26D
 10
38.7286
 20
2.75589
 30
0.000000
  70
    32
  0
VERTEX
  8
VISIBLE_NARROW__ISO_
  5
26E
 10
38.7308
 20
2.75934
 30
0.000000
  70
    32
  0
VERTEX
  8
VISIBLE_NARROW__ISO_
  5
26F
 10
38.7330
 20
2.76281
 30
0.000000
  70
    32
  0
VERTEX
  8
VISIBLE_NARROW__ISO_
  5
270
 10
38.7352
 20
2.76628
 30
0.000000
  70
    32
  0
VERTEX
  8
VISIBLE_NARROW__ISO_
  5
271
 10
38.7374
 20
2.76976
 30
0.000000
  70
    32
  0
VERTEX
  8
VISIBLE_NARROW__ISO_
  5
272
 10
38.7395
 20
2.77325
 30
0.000000
  70
    32
  0
VERTEX
  8
VISIBLE_NARROW__ISO_
  5
273
 10
38.7417
 20
2.77674
 30
0.000000
  70
    32
  0
VERTEX
  8
VISIBLE_NARROW__ISO_
  5
274
 10
38.7438
 20
2.78024
 30
0.000000
  70
    32
  0
VERTEX
  8
VISIBLE_NARROW__ISO_
  5
275
 10
38.7460
 20
2.78375
 30
0.000000
  70
    32
  0
VERTEX
  8
VISIBLE_NARROW__ISO_
  5
276
 10
38.7481
 20
2.78726
 30
0.000000
  70
    32
  0
VERTEX
  8
VISIBLE_NARROW__ISO_
  5
277
 10
38.7502
 20
2.79078
 30
0.000000
  70
    32
  0
VERTEX
  8
VISIBLE_NARROW__ISO_
  5
278
 10
38.7523
 20
2.79431
 30
0.000000
  70
    32
  0
VERTEX
  8
VISIBLE_NARROW__ISO_
  5
279
 10
38.7544
 20
2.79784
 30
0.000000
  70
    32
  0
VERTEX
  8
VISIBLE_NARROW__ISO_
  5
27A
 10
38.7564
 20
2.80138
 30
0.000000
  70
    32
  0
VERTEX
  8
VISIBLE_NARROW__ISO_
  5
27B
 10
38.7585
 20
2.80493
 30
0.000000
  70
    32
  0
VERTEX
  8
VISIBLE_NARROW__ISO_
  5
27C
 10
38.7605
 20
2.80848
 30
0.000000
  70
    32
  0
VERTEX
  8
VISIBLE_NARROW__ISO_
  5
27D
 10
38.7626
 20
2.81204
 30
0.000000
  70
    32
  0
VERTEX
  8
VISIBLE_NARROW__ISO_
  5
27E
 10
38.7646
 20
2.81560
 30
0.000000
  70
    32
  0
VERTEX
  8
VISIBLE_NARROW__ISO_
  5
27F
 10
38.7666
 20
2.81917
 30
0.000000
  70
    32
  0
VERTEX
  8
VISIBLE_NARROW__ISO_
  5
280
 10
38.7686
 20
2.82275
 30
0.000000
  70
    32
  0
VERTEX
  8
VISIBLE_NARROW__ISO_
  5
281
 10
38.7706
 20
2.82633
 30
0.000000
  70
    32
  0
VERTEX
  8
VISIBLE_NARROW__ISO_
  5
282
 10
38.7726
 20
2.82992
 30
0.000000
  70
    32
  0
VERTEX
  8
VISIBLE_NARROW__ISO_
  5
283
 10
38.7746
 20
2.83351
 30
0.000000
  70
    32
  0
VERTEX
  8
VISIBLE_NARROW__ISO_
  5
284
 10
38.7765
 20
2.83711
 30
0.000000
  70
    32
  0
VERTEX
  8
VISIBLE_NARROW__ISO_
  5
285
 10
38.7785
 20
2.84072
 30
0.000000
  70
    32
  0
VERTEX
  8
VISIBLE_NARROW__ISO_
  5
286
 10
38.7804
 20
2.84433
 30
0.000000
  70
    32
  0
VERTEX
  8
VISIBLE_NARROW__ISO_
  5
287
 10
38.7824
 20
2.84795
 30
0.000000
  70
    32
  0
VERTEX
  8
VISIBLE_NARROW__ISO_
  5
288
 10
38.7843
 20
2.85158
 30
0.000000
  70
    32
  0
VERTEX
  8
VISIBLE_NARROW__ISO_
  5
289
 10
38.7862
 20
2.85521
 30
0.000000
  70
    32
  0
VERTEX
  8
VISIBLE_NARROW__ISO_
  5
28A
 10
38.7881
 20
2.85884
 30
0.000000
  70
    32
  0
VERTEX
  8
VISIBLE_NARROW__ISO_
  5
28B
 10
38.7900
 20
2.86249
 30
0.000000
  70
    32
  0
VERTEX
  8
VISIBLE_NARROW__ISO_
  5
28C
 10
38.7918
 20
2.86613
 30
0.000000
  70
    32
  0
VERTEX
  8
VISIBLE_NARROW__ISO_
  5
28D
 10
38.7937
 20
2.86979
 30
0.000000
  70
    32
  0
VERTEX
  8
VISIBLE_NARROW__ISO_
  5
28E
 10
38.7956
 20
2.87345
 30
0.000000
  70
    32
  0
VERTEX
  8
VISIBLE_NARROW__ISO_
  5
28F
 10
38.7974
 20
2.87711
 30
0.000000
  70
    32
  0
VERTEX
  8
VISIBLE_NARROW__ISO_
  5
290
 10
38.7992
 20
2.88078
 30
0.000000
  70
    32
  0
VERTEX
  8
VISIBLE_NARROW__ISO_
  5
291
 10
38.8010
 20
2.88446
 30
0.000000
  70
    32
  0
VERTEX
  8
VISIBLE_NARROW__ISO_
  5
292
 10
38.8028
 20
2.88814
 30
0.000000
  70
    32
  0
VERTEX
  8
VISIBLE_NARROW__ISO_
  5
293
 10
38.8046
 20
2.89183
 30
0.000000
  70
    32
  0
VERTEX
  8
VISIBLE_NARROW__ISO_
  5
294
 10
38.8064
 20
2.89552
 30
0.000000
  70
    32
  0
VERTEX
  8
VISIBLE_NARROW__ISO_
  5
295
 10
38.8082
 20
2.89922
 30
0.000000
  70
    32
  0
VERTEX
  8
VISIBLE_NARROW__ISO_
  5
296
 10
38.8100
 20
2.90292
 30
0.000000
  70
    32
  0
VERTEX
  8
VISIBLE_NARROW__ISO_
  5
297
 10
38.8117
 20
2.90663
 30
0.000000
  70
    32
  0
VERTEX
  8
VISIBLE_NARROW__ISO_
  5
298
 10
38.8134
 20
2.91034
 30
0.000000
  70
    32
  0
VERTEX
  8
VISIBLE_NARROW__ISO_
  5
299
 10
38.8152
 20
2.91406
 30
0.000000
  70
    32
  0
VERTEX
  8
VISIBLE_NARROW__ISO_
  5
29A
 10
38.8169
 20
2.91779
 30
0.000000
  70
    32
  0
VERTEX
  8
VISIBLE_NARROW__ISO_
  5
29B
 10
38.8186
 20
2.92152
 30
0.000000
  70
    32
  0
VERTEX
  8
VISIBLE_NARROW__ISO_
  5
29C
 10
38.8203
 20
2.92525
 30
0.000000
  70
    32
  0
VERTEX
  8
VISIBLE_NARROW__ISO_
  5
29D
 10
38.8220
 20
2.92899
 30
0.000000
  70
    32
  0
VERTEX
  8
VISIBLE_NARROW__ISO_
  5
29E
 10
38.8236
 20
2.93274
 30
0.000000
  70
    32
  0
VERTEX
  8
VISIBLE_NARROW__ISO_
  5
29F
 10
38.8253
 20
2.93649
 30
0.000000
  70
    32
  0
VERTEX
  8
VISIBLE_NARROW__ISO_
  5
2A0
 10
38.8269
 20
2.94025
 30
0.000000
  70
    32
  0
VERTEX
  8
VISIBLE_NARROW__ISO_
  5
2A1
 10
38.8286
 20
2.94401
 30
0.000000
  70
    32
  0
VERTEX
  8
VISIBLE_NARROW__ISO_
  5
2A2
 10
38.8302
 20
2.94777
 30
0.000000
  70
    32
  0
VERTEX
  8
VISIBLE_NARROW__ISO_
  5
2A3
 10
38.8318
 20
2.95154
 30
0.000000
  70
    32
  0
VERTEX
  8
VISIBLE_NARROW__ISO_
  5
2A4
 10
38.8334
 20
2.95532
 30
0.000000
  70
    32
  0
VERTEX
  8
VISIBLE_NARROW__ISO_
  5
2A5
 10
38.8350
 20
2.95910
 30
0.000000
  70
    32
  0
VERTEX
  8
VISIBLE_NARROW__ISO_
  5
2A6
 10
38.8366
 20
2.96289
 30
0.000000
  70
    32
  0
VERTEX
  8
VISIBLE_NARROW__ISO_
  5
2A7
 10
38.8381
 20
2.96668
 30
0.000000
  70
    32
  0
VERTEX
  8
VISIBLE_NARROW__ISO_
  5
2A8
 10
38.8397
 20
2.97047
 30
0.000000
  70
    32
  0
VERTEX
  8
VISIBLE_NARROW__ISO_
  5
2A9
 10
38.8412
 20
2.97427
 30
0.000000
  70
    32
  0
VERTEX
  8
VISIBLE_NARROW__ISO_
  5
2AA
 10
38.8428
 20
2.97808
 30
0.000000
  70
    32
  0
VERTEX
  8
VISIBLE_NARROW__ISO_
  5
2AB
 10
38.8443
 20
2.98188
 30
0.000000
  70
    32
  0
VERTEX
  8
VISIBLE_NARROW__ISO_
  5
2AC
 10
38.8458
 20
2.98570
 30
0.000000
  70
    32
  0
VERTEX
  8
VISIBLE_NARROW__ISO_
  5
2AD
 10
38.8473
 20
2.98952
 30
0.000000
  70
    32
  0
VERTEX
  8
VISIBLE_NARROW__ISO_
  5
2AE
 10
38.8488
 20
2.99334
 30
0.000000
  70
    32
  0
VERTEX
  8
VISIBLE_NARROW__ISO_
  5
2AF
 10
38.8502
 20
2.99717
 30
0.000000
  70
    32
  0
VERTEX
  8
VISIBLE_NARROW__ISO_
  5
2B0
 10
38.8517
 20
3.00100
 30
0.000000
  70
    32
  0
VERTEX
  8
VISIBLE_NARROW__ISO_
  5
2B1
 10
38.8531
 20
3.00484
 30
0.000000
  70
    32
  0
VERTEX
  8
VISIBLE_NARROW__ISO_
  5
2B2
 10
38.8546
 20
3.00868
 30
0.000000
  70
    32
  0
VERTEX
  8
VISIBLE_NARROW__ISO_
  5
2B3
 10
38.8560
 20
3.01252
 30
0.000000
  70
    32
  0
VERTEX
  8
VISIBLE_NARROW__ISO_
  5
2B4
 10
38.8574
 20
3.01637
 30
0.000000
  70
    32
  0
VERTEX
  8
VISIBLE_NARROW__ISO_
  5
2B5
 10
38.8588
 20
3.02023
 30
0.000000
  70
    32
  0
VERTEX
  8
VISIBLE_NARROW__ISO_
  5
2B6
 10
38.8602
 20
3.02408
 30
0.000000
  70
    32
  0
VERTEX
  8
VISIBLE_NARROW__ISO_
  5
2B7
 10
38.8616
 20
3.02795
 30
0.000000
  70
    32
  0
VERTEX
  8
VISIBLE_NARROW__ISO_
  5
2B8
 10
38.8629
 20
3.03181
 30
0.000000
  70
    32
  0
VERTEX
  8
VISIBLE_NARROW__ISO_
  5
2B9
 10
38.8643
 20
3.03568
 30
0.000000
  70
    32
  0
VERTEX
  8
VISIBLE_NARROW__ISO_
  5
2BA
 10
38.8656
 20
3.03956
 30
0.000000
  70
    32
  0
VERTEX
  8
VISIBLE_NARROW__ISO_
  5
2BB
 10
38.8670
 20
3.04344
 30
0.000000
  70
    32
  0
VERTEX
  8
VISIBLE_NARROW__ISO_
  5
2BC
 10
38.8683
 20
3.04732
 30
0.000000
  70
    32
  0
VERTEX
  8
VISIBLE_NARROW__ISO_
  5
2BD
 10
38.8696
 20
3.05121
 30
0.000000
  70
    32
  0
VERTEX
  8
VISIBLE_NARROW__ISO_
  5
2BE
 10
38.8709
 20
3.05510
 30
0.000000
  70
    32
  0
VERTEX
  8
VISIBLE_NARROW__ISO_
  5
2BF
 10
38.8722
 20
3.05900
 30
0.000000
  70
    32
  0
VERTEX
  8
VISIBLE_NARROW__ISO_
  5
2C0
 10
38.8734
 20
3.06289
 30
0.000000
  70
    32
  0
VERTEX
  8
VISIBLE_NARROW__ISO_
  5
2C1
 10
38.8747
 20
3.06680
 30
0.000000
  70
    32
  0
VERTEX
  8
VISIBLE_NARROW__ISO_
  5
2C2
 10
38.8759
 20
3.07071
 30
0.000000
  70
    32
  0
VERTEX
  8
VISIBLE_NARROW__ISO_
  5
2C3
 10
38.8772
 20
3.07462
 30
0.000000
  70
    32
  0
VERTEX
  8
VISIBLE_NARROW__ISO_
  5
2C4
 10
38.8784
 20
3.07853
 30
0.000000
  70
    32
  0
VERTEX
  8
VISIBLE_NARROW__ISO_
  5
2C5
 10
38.8796
 20
3.08245
 30
0.000000
  70
    32
  0
VERTEX
  8
VISIBLE_NARROW__ISO_
  5
2C6
 10
38.8808
 20
3.08637
 30
0.000000
  70
    32
  0
VERTEX
  8
VISIBLE_NARROW__ISO_
  5
2C7
 10
38.8820
 20
3.09030
 30
0.000000
  70
    32
  0
VERTEX
  8
VISIBLE_NARROW__ISO_
  5
2C8
 10
38.8831
 20
3.09423
 30
0.000000
  70
    32
  0
VERTEX
  8
VISIBLE_NARROW__ISO_
  5
2C9
 10
38.8843
 20
3.09816
 30
0.000000
  70
    32
  0
VERTEX
  8
VISIBLE_NARROW__ISO_
  5
2CA
 10
38.8855
 20
3.10210
 30
0.000000
  70
    32
  0
VERTEX
  8
VISIBLE_NARROW__ISO_
  5
2CB
 10
38.8866
 20
3.10604
 30
0.000000
  70
    32
  0
VERTEX
  8
VISIBLE_NARROW__ISO_
  5
2CC
 10
38.8877
 20
3.10998
 30
0.000000
  70
    32
  0
VERTEX
  8
VISIBLE_NARROW__ISO_
  5
2CD
 10
38.8888
 20
3.11393
 30
0.000000
  70
    32
  0
VERTEX
  8
VISIBLE_NARROW__ISO_
  5
2CE
 10
38.8899
 20
3.11788
 30
0.000000
  70
    32
  0
VERTEX
  8
VISIBLE_NARROW__ISO_
  5
2CF
 10
38.8910
 20
3.12183
 30
0.000000
  70
    32
  0
VERTEX
  8
VISIBLE_NARROW__ISO_
  5
2D0
 10
38.8921
 20
3.12579
 30
0.000000
  70
    32
  0
VERTEX
  8
VISIBLE_NARROW__ISO_
  5
2D1
 10
38.8931
 20
3.12975
 30
0.000000
  70
    32
  0
VERTEX
  8
VISIBLE_NARROW__ISO_
  5
2D2
 10
38.8942
 20
3.13371
 30
0.000000
  70
    32
  0
VERTEX
  8
VISIBLE_NARROW__ISO_
  5
2D3
 10
38.8952
 20
3.13768
 30
0.000000
  70
    32
  0
VERTEX
  8
VISIBLE_NARROW__ISO_
  5
2D4
 10
38.8963
 20
3.14165
 30
0.000000
  70
    32
  0
VERTEX
  8
VISIBLE_NARROW__ISO_
  5
2D5
 10
38.8973
 20
3.14562
 30
0.000000
  70
    32
  0
VERTEX
  8
VISIBLE_NARROW__ISO_
  5
2D6
 10
38.8983
 20
3.14960
 30
0.000000
  70
    32
  0
VERTEX
  8
VISIBLE_NARROW__ISO_
  5
2D7
 10
38.8993
 20
3.15357
 30
0.000000
  70
    32
  0
VERTEX
  8
VISIBLE_NARROW__ISO_
  5
2D8
 10
38.9002
 20
3.15756
 30
0.000000
  70
    32
  0
VERTEX
  8
VISIBLE_NARROW__ISO_
  5
2D9
 10
38.9012
 20
3.16154
 30
0.000000
  70
    32
  0
VERTEX
  8
VISIBLE_NARROW__ISO_
  5
2DA
 10
38.9022
 20
3.16553
 30
0.000000
  70
    32
  0
VERTEX
  8
VISIBLE_NARROW__ISO_
  5
2DB
 10
38.9031
 20
3.16952
 30
0.000000
  70
    32
  0
VERTEX
  8
VISIBLE_NARROW__ISO_
  5
2DC
 10
38.9040
 20
3.17351
 30
0.000000
  70
    32
  0
VERTEX
  8
VISIBLE_NARROW__ISO_
  5
2DD
 10
38.9049
 20
3.17751
 30
0.000000
  70
    32
  0
VERTEX
  8
VISIBLE_NARROW__ISO_
  5
2DE
 10
38.9058
 20
3.18151
 30
0.000000
  70
    32
  0
VERTEX
  8
VISIBLE_NARROW__ISO_
  5
2DF
 10
38.9067
 20
3.18551
 30
0.000000
  70
    32
  0
VERTEX
  8
VISIBLE_NARROW__ISO_
  5
2E0
 10
38.9076
 20
3.18952
 30
0.000000
  70
    32
  0
VERTEX
  8
VISIBLE_NARROW__ISO_
  5
2E1
 10
38.9085
 20
3.19352
 30
0.000000
  70
    32
  0
VERTEX
  8
VISIBLE_NARROW__ISO_
  5
2E2
 10
38.9093
 20
3.19753
 30
0.000000
  70
    32
  0
VERTEX
  8
VISIBLE_NARROW__ISO_
  5
2E3
 10
38.9102
 20
3.20155
 30
0.000000
  70
    32
  0
VERTEX
  8
VISIBLE_NARROW__ISO_
  5
2E4
 10
38.9110
 20
3.20556
 30
0.000000
  70
    32
  0
VERTEX
  8
VISIBLE_NARROW__ISO_
  5
2E5
 10
38.9118
 20
3.20958
 30
0.000000
  70
    32
  0
VERTEX
  8
VISIBLE_NARROW__ISO_
  5
2E6
 10
38.9126
 20
3.21360
 30
0.000000
  70
    32
  0
VERTEX
  8
VISIBLE_NARROW__ISO_
  5
2E7
 10
38.9134
 20
3.21762
 30
0.000000
  70
    32
  0
VERTEX
  8
VISIBLE_NARROW__ISO_
  5
2E8
 10
38.9142
 20
3.22165
 30
0.000000
  70
    32
  0
VERTEX
  8
VISIBLE_NARROW__ISO_
  5
2E9
 10
38.9150
 20
3.22568
 30
0.000000
  70
    32
  0
VERTEX
  8
VISIBLE_NARROW__ISO_
  5
2EA
 10
38.9157
 20
3.22971
 30
0.000000
  70
    32
  0
VERTEX
  8
VISIBLE_NARROW__ISO_
  5
2EB
 10
38.9165
 20
3.23374
 30
0.000000
  70
    32
  0
VERTEX
  8
VISIBLE_NARROW__ISO_
  5
2EC
 10
38.9172
 20
3.23777
 30
0.000000
  70
    32
  0
VERTEX
  8
VISIBLE_NARROW__ISO_
  5
2ED
 10
38.9179
 20
3.24181
 30
0.000000
  70
    32
  0
VERTEX
  8
VISIBLE_NARROW__ISO_
  5
2EE
 10
38.9186
 20
3.24585
 30
0.000000
  70
    32
  0
VERTEX
  8
VISIBLE_NARROW__ISO_
  5
2EF
 10
38.9193
 20
3.24989
 30
0.000000
  70
    32
  0
VERTEX
  8
VISIBLE_NARROW__ISO_
  5
2F0
 10
38.9200
 20
3.25393
 30
0.000000
  70
    32
  0
VERTEX
  8
VISIBLE_NARROW__ISO_
  5
2F1
 10
38.9207
 20
3.25798
 30
0.000000
  70
    32
  0
VERTEX
  8
VISIBLE_NARROW__ISO_
  5
2F2
 10
38.9213
 20
3.26202
 30
0.000000
  70
    32
  0
VERTEX
  8
VISIBLE_NARROW__ISO_
  5
2F3
 10
38.9220
 20
3.26607
 30
0.000000
  70
    32
  0
VERTEX
  8
VISIBLE_NARROW__ISO_
  5
2F4
 10
38.9226
 20
3.27012
 30
0.000000
  70
    32
  0
VERTEX
  8
VISIBLE_NARROW__ISO_
  5
2F5
 10
38.9232
 20
3.27418
 30
0.000000
  70
    32
  0
VERTEX
  8
VISIBLE_NARROW__ISO_
  5
2F6
 10
38.9238
 20
3.27823
 30
0.000000
  70
    32
  0
VERTEX
  8
VISIBLE_NARROW__ISO_
  5
2F7
 10
38.9244
 20
3.28229
 30
0.000000
  70
    32
  0
VERTEX
  8
VISIBLE_NARROW__ISO_
  5
2F8
 10
38.9250
 20
3.28635
 30
0.000000
  70
    32
  0
VERTEX
  8
VISIBLE_NARROW__ISO_
  5
2F9
 10
38.9256
 20
3.29041
 30
0.000000
  70
    32
  0
VERTEX
  8
VISIBLE_NARROW__ISO_
  5
2FA
 10
38.9261
 20
3.29447
 30
0.000000
  70
    32
  0
VERTEX
  8
VISIBLE_NARROW__ISO_
  5
2FB
 10
38.9267
 20
3.29853
 30
0.000000
  70
    32
  0
VERTEX
  8
VISIBLE_NARROW__ISO_
  5
2FC
 10
38.9272
 20
3.30260
 30
0.000000
  70
    32
  0
VERTEX
  8
VISIBLE_NARROW__ISO_
  5
2FD
 10
38.9277
 20
3.30666
 30
0.000000
  70
    32
  0
VERTEX
  8
VISIBLE_NARROW__ISO_
  5
2FE
 10
38.9282
 20
3.31073
 30
0.000000
  70
    32
  0
VERTEX
  8
VISIBLE_NARROW__ISO_
  5
2FF
 10
38.9287
 20
3.31480
 30
0.000000
  70
    32
  0
VERTEX
  8
VISIBLE_NARROW__ISO_
  5
300
 10
38.9292
 20
3.31887
 30
0.000000
  70
    32
  0
VERTEX
  8
VISIBLE_NARROW__ISO_
  5
301
 10
38.9297
 20
3.32295
 30
0.000000
  70
    32
  0
VERTEX
  8
VISIBLE_NARROW__ISO_
  5
302
 10
38.9302
 20
3.32702
 30
0.000000
  70
    32
  0
VERTEX
  8
VISIBLE_NARROW__ISO_
  5
303
 10
38.9306
 20
3.33110
 30
0.000000
  70
    32
  0
VERTEX
  8
VISIBLE_NARROW__ISO_
  5
304
 10
38.9310
 20
3.33517
 30
0.000000
  70
    32
  0
VERTEX
  8
VISIBLE_NARROW__ISO_
  5
305
 10
38.9315
 20
3.33925
 30
0.000000
  70
    32
  0
VERTEX
  8
VISIBLE_NARROW__ISO_
  5
306
 10
38.9319
 20
3.34333
 30
0.000000
  70
    32
  0
VERTEX
  8
VISIBLE_NARROW__ISO_
  5
307
 10
38.9323
 20
3.34741
 30
0.000000
  70
    32
  0
VERTEX
  8
VISIBLE_NARROW__ISO_
  5
308
 10
38.9326
 20
3.35149
 30
0.000000
  70
    32
  0
VERTEX
  8
VISIBLE_NARROW__ISO_
  5
309
 10
38.9330
 20
3.35558
 30
0.000000
  70
    32
  0
VERTEX
  8
VISIBLE_NARROW__ISO_
  5
30A
 10
38.9334
 20
3.35966
 30
0.000000
  70
    32
  0
VERTEX
  8
VISIBLE_NARROW__ISO_
  5
30B
 10
38.9337
 20
3.36375
 30
0.000000
  70
    32
  0
VERTEX
  8
VISIBLE_NARROW__ISO_
  5
30C
 10
38.9340
 20
3.36783
 30
0.000000
  70
    32
  0
VERTEX
  8
VISIBLE_NARROW__ISO_
  5
30D
 10
38.9344
 20
3.37192
 30
0.000000
  70
    32
  0
VERTEX
  8
VISIBLE_NARROW__ISO_
  5
30E
 10
38.9347
 20
3.37601
 30
0.000000
  70
    32
  0
VERTEX
  8
VISIBLE_NARROW__ISO_
  5
30F
 10
38.9350
 20
3.38010
 30
0.000000
  70
    32
  0
VERTEX
  8
VISIBLE_NARROW__ISO_
  5
310
 10
38.9352
 20
3.38419
 30
0.000000
  70
    32
  0
VERTEX
  8
VISIBLE_NARROW__ISO_
  5
311
 10
38.9355
 20
3.38828
 30
0.000000
  70
    32
  0
VERTEX
  8
VISIBLE_NARROW__ISO_
  5
312
 10
38.9358
 20
3.39237
 30
0.000000
  70
    32
  0
VERTEX
  8
VISIBLE_NARROW__ISO_
  5
313
 10
38.9360
 20
3.39646
 30
0.000000
  70
    32
  0
VERTEX
  8
VISIBLE_NARROW__ISO_
  5
314
 10
38.9363
 20
3.40055
 30
0.000000
  70
    32
  0
VERTEX
  8
VISIBLE_NARROW__ISO_
  5
315
 10
38.9365
 20
3.40465
 30
0.000000
  70
    32
  0
VERTEX
  8
VISIBLE_NARROW__ISO_
  5
316
 10
38.9367
 20
3.40874
 30
0.000000
  70
    32
  0
VERTEX
  8
VISIBLE_NARROW__ISO_
  5
317
 10
38.9369
 20
3.41284
 30
0.000000
  70
    32
  0
VERTEX
  8
VISIBLE_NARROW__ISO_
  5
318
 10
38.9371
 20
3.41693
 30
0.000000
  70
    32
  0
VERTEX
  8
VISIBLE_NARROW__ISO_
  5
319
 10
38.9372
 20
3.42103
 30
0.000000
  70
    32
  0
VERTEX
  8
VISIBLE_NARROW__ISO_
  5
31A
 10
38.9374
 20
3.42513
 30
0.000000
  70
    32
  0
VERTEX
  8
VISIBLE_NARROW__ISO_
  5
31B
 10
38.9375
 20
3.42922
 30
0.000000
  70
    32
  0
VERTEX
  8
VISIBLE_NARROW__ISO_
  5
31C
 10
38.9377
 20
3.43332
 30
0.000000
  70
    32
  0
VERTEX
  8
VISIBLE_NARROW__ISO_
  5
31D
 10
38.9378
 20
3.43742
 30
0.000000
  70
    32
  0
VERTEX
  8
VISIBLE_NARROW__ISO_
  5
31E
 10
38.9379
 20
3.44152
 30
0.000000
  70
    32
  0
VERTEX
  8
VISIBLE_NARROW__ISO_
  5
31F
 10
38.9380
 20
3.44562
 30
0.000000
  70
    32
  0
VERTEX
  8
VISIBLE_NARROW__ISO_
  5
320
 10
38.9380
 20
3.44971
 30
0.000000
  70
    32
  0
VERTEX
  8
VISIBLE_NARROW__ISO_
  5
321
 10
38.9381
 20
3.45381
 30
0.000000
  70
    32
  0
VERTEX
  8
VISIBLE_NARROW__ISO_
  5
322
 10
38.9382
 20
3.45791
 30
0.000000
  70
    32
  0
VERTEX
  8
VISIBLE_NARROW__ISO_
  5
323
 10
38.9382
 20
3.46201
 30
0.000000
  70
    32
  0
VERTEX
  8
VISIBLE_NARROW__ISO_
  5
324
 10
38.9382
 20
3.46611
 30
0.000000
  70
    32
  0
VERTEX
  8
VISIBLE_NARROW__ISO_
  5
325
 10
38.9383
 20
3.47021
 30
0.000000
  70
    32
  0
VERTEX
  8
VISIBLE_NARROW__ISO_
  5
326
 10
38.9383
 20
3.47431
 30
0.000000
  70
    32
  0
SEQEND
  8
VISIBLE_NARROW__ISO_
  5
327
  0
LINE
  5
96
  8
VISIBLE_NARROW__ISO_
 10
38.9382680860870494
 20
21.2442193747079386
 30
0.0
 11
38.9382680860870494
 21
3.4741458893292392
 31
0.0
  0
ARC
  5
97
  8
0
 10
36.9697641490791682
 20
21.2442193747079386
 30
0.0
 40
1.9685039370078741
 50
0.0
 51
90.0
  0
ARC
  5
98
  8
SKETCH_GEOMETRY__ISO_
 10
8.2804141814038701
 20
3.473392677014604
 30
0.0
 40
1.332813711578245
 50
179.9450642026421008
 51
270.0549357973707743
  0
LINE
  5
99
  8
VISIBLE__ISO_
 10
8.9161047679275214
 20
23.2127233117158305
 30
0.0
 11
36.9697641490791682
 21
23.2127233117158305
 31
0.0
  0
ARC
  5
9A
  8
0
 10
8.9161047679275214
 20
21.2442193747079386
 30
0.0
 40
1.9685039370078741
 50
90.0
 51
180.0
  0
VIEWPORT
  5
A4
 67
     1
  8
0
 10
5.6058870105306147
 20
2.9714854506044448
 30
0.0
 40
54.6642978993398714
 41
23.0220793076065995
 68
     1
 69
     1
1001
ACAD
1000
MVIEW
1002
{
1070
    16
1010
0.0
1020
0.0
1030
0.0
1010
0.0
1020
0.0
1030
1.0
1040
0.0
1040
23.0220793076065995
1040
5.6058870105306147
1040
2.9714854506044448
1040
50.0
1040
0.0
1040
0.0
1070
     0
1070
  1000
1070
     1
1070
     1
1070
     0
1070
     0
1070
     0
1070
     0
1040
0.0
1040
0.0
1040
0.0
1040
0.5
1040
0.5
1040
0.5
1040
0.5
1070
     0
1002
{
1002
}
1002
}
  0
LINE
  5
B7
 67
     1
  8
VISIBLE_NARROW__ISO_
 10
-7.4210953373102484
 20
-5.5790455592822923
 30
0.0
 11
-7.4210953373102484
 21
12.1910279260965204
 31
0.0
  0
LINE
  5
B8
 67
     1
  8
VISIBLE_NARROW__ISO_
 10
23.2358409725235404
 20
-6.9126120973922411
 30
0.0
 11
-6.0875287745114974
 21
-6.9126121220811561
 31
0.0
  0
POLYLINE
  67
1
  8
VISIBLE_NARROW__ISO_
  5
328
  66
     1
 10
0.000000
 20
0.000000
 30
0.000000
  70
     8
  0
VERTEX
  8
VISIBLE_NARROW__ISO_
  5
329
 10
23.2358
 20
-6.91261
 30
0.000000
  70
    32
  0
VERTEX
  8
VISIBLE_NARROW__ISO_
  5
32A
 10
23.2399
 20
-6.91261
 30
0.000000
  70
    32
  0
VERTEX
  8
VISIBLE_NARROW__ISO_
  5
32B
 10
23.2440
 20
-6.91259
 30
0.000000
  70
    32
  0
VERTEX
  8
VISIBLE_NARROW__ISO_
  5
32C
 10
23.2481
 20
-6.91256
 30
0.000000
  70
    32
  0
VERTEX
  8
VISIBLE_NARROW__ISO_
  5
32D
 10
23.2522
 20
-6.91252
 30
0.000000
  70
    32
  0
VERTEX
  8
VISIBLE_NARROW__ISO_
  5
32E
 10
23.2563
 20
-6.91246
 30
0.000000
  70
    32
  0
VERTEX
  8
VISIBLE_NARROW__ISO_
  5
32F
 10
23.2604
 20
-6.91239
 30
0.000000
  70
    32
  0
VERTEX
  8
VISIBLE_NARROW__ISO_
  5
330
 10
23.2645
 20
-6.91231
 30
0.000000
  70
    32
  0
VERTEX
  8
VISIBLE_NARROW__ISO_
  5
331
 10
23.2686
 20
-6.91222
 30
0.000000
  70
    32
  0
VERTEX
  8
VISIBLE_NARROW__ISO_
  5
332
 10
23.2727
 20
-6.91211
 30
0.000000
  70
    32
  0
VERTEX
  8
VISIBLE_NARROW__ISO_
  5
333
 10
23.2768
 20
-6.91199
 30
0.000000
  70
    32
  0
VERTEX
  8
VISIBLE_NARROW__ISO_
  5
334
 10
23.2809
 20
-6.91186
 30
0.000000
  70
    32
  0
VERTEX
  8
VISIBLE_NARROW__ISO_
  5
335
 10
23.2850
 20
-6.91172
 30
0.000000
  70
    32
  0
VERTEX
  8
VISIBLE_NARROW__ISO_
  5
336
 10
23.2891
 20
-6.91156
 30
0.000000
  70
    32
  0
VERTEX
  8
VISIBLE_NARROW__ISO_
  5
337
 10
23.2932
 20
-6.91140
 30
0.000000
  70
    32
  0
VERTEX
  8
VISIBLE_NARROW__ISO_
  5
338
 10
23.2973
 20
-6.91121
 30
0.000000
  70
    32
  0
VERTEX
  8
VISIBLE_NARROW__ISO_
  5
339
 10
23.3014
 20
-6.91102
 30
0.000000
  70
    32
  0
VERTEX
  8
VISIBLE_NARROW__ISO_
  5
33A
 10
23.3055
 20
-6.91081
 30
0.000000
  70
    32
  0
VERTEX
  8
VISIBLE_NARROW__ISO_
  5
33B
 10
23.3096
 20
-6.91059
 30
0.000000
  70
    32
  0
VERTEX
  8
VISIBLE_NARROW__ISO_
  5
33C
 10
23.3137
 20
-6.91036
 30
0.000000
  70
    32
  0
VERTEX
  8
VISIBLE_NARROW__ISO_
  5
33D
 10
23.3178
 20
-6.91012
 30
0.000000
  70
    32
  0
VERTEX
  8
VISIBLE_NARROW__ISO_
  5
33E
 10
23.3219
 20
-6.90986
 30
0.000000
  70
    32
  0
VERTEX
  8
VISIBLE_NARROW__ISO_
  5
33F
 10
23.3260
 20
-6.90959
 30
0.000000
  70
    32
  0
VERTEX
  8
VISIBLE_NARROW__ISO_
  5
340
 10
23.3301
 20
-6.90931
 30
0.000000
  70
    32
  0
VERTEX
  8
VISIBLE_NARROW__ISO_
  5
341
 10
23.3341
 20
-6.90902
 30
0.000000
  70
    32
  0
VERTEX
  8
VISIBLE_NARROW__ISO_
  5
342
 10
23.3382
 20
-6.90871
 30
0.000000
  70
    32
  0
VERTEX
  8
VISIBLE_NARROW__ISO_
  5
343
 10
23.3423
 20
-6.90839
 30
0.000000
  70
    32
  0
VERTEX
  8
VISIBLE_NARROW__ISO_
  5
344
 10
23.3464
 20
-6.90806
 30
0.000000
  70
    32
  0
VERTEX
  8
VISIBLE_NARROW__ISO_
  5
345
 10
23.3505
 20
-6.90771
 30
0.000000
  70
    32
  0
VERTEX
  8
VISIBLE_NARROW__ISO_
  5
346
 10
23.3546
 20
-6.90736
 30
0.000000
  70
    32
  0
VERTEX
  8
VISIBLE_NARROW__ISO_
  5
347
 10
23.3587
 20
-6.90699
 30
0.000000
  70
    32
  0
VERTEX
  8
VISIBLE_NARROW__ISO_
  5
348
 10
23.3627
 20
-6.90661
 30
0.000000
  70
    32
  0
VERTEX
  8
VISIBLE_NARROW__ISO_
  5
349
 10
23.3668
 20
-6.90621
 30
0.000000
  70
    32
  0
VERTEX
  8
VISIBLE_NARROW__ISO_
  5
34A
 10
23.3709
 20
-6.90580
 30
0.000000
  70
    32
  0
VERTEX
  8
VISIBLE_NARROW__ISO_
  5
34B
 10
23.3750
 20
-6.90539
 30
0.000000
  70
    32
  0
VERTEX
  8
VISIBLE_NARROW__ISO_
  5
34C
 10
23.3791
 20
-6.90495
 30
0.000000
  70
    32
  0
VERTEX
  8
VISIBLE_NARROW__ISO_
  5
34D
 10
23.3831
 20
-6.90451
 30
0.000000
  70
    32
  0
VERTEX
  8
VISIBLE_NARROW__ISO_
  5
34E
 10
23.3872
 20
-6.90405
 30
0.000000
  70
    32
  0
VERTEX
  8
VISIBLE_NARROW__ISO_
  5
34F
 10
23.3913
 20
-6.90358
 30
0.000000
  70
    32
  0
VERTEX
  8
VISIBLE_NARROW__ISO_
  5
350
 10
23.3954
 20
-6.90310
 30
0.000000
  70
    32
  0
VERTEX
  8
VISIBLE_NARROW__ISO_
  5
351
 10
23.3994
 20
-6.90261
 30
0.000000
  70
    32
  0
VERTEX
  8
VISIBLE_NARROW__ISO_
  5
352
 10
23.4035
 20
-6.90210
 30
0.000000
  70
    32
  0
VERTEX
  8
VISIBLE_NARROW__ISO_
  5
353
 10
23.4076
 20
-6.90158
 30
0.000000
  70
    32
  0
VERTEX
  8
VISIBLE_NARROW__ISO_
  5
354
 10
23.4116
 20
-6.90105
 30
0.000000
  70
    32
  0
VERTEX
  8
VISIBLE_NARROW__ISO_
  5
355
 10
23.4157
 20
-6.90050
 30
0.000000
  70
    32
  0
VERTEX
  8
VISIBLE_NARROW__ISO_
  5
356
 10
23.4197
 20
-6.89994
 30
0.000000
  70
    32
  0
VERTEX
  8
VISIBLE_NARROW__ISO_
  5
357
 10
23.4238
 20
-6.89938
 30
0.000000
  70
    32
  0
VERTEX
  8
VISIBLE_NARROW__ISO_
  5
358
 10
23.4279
 20
-6.89879
 30
0.000000
  70
    32
  0
VERTEX
  8
VISIBLE_NARROW__ISO_
  5
359
 10
23.4319
 20
-6.89820
 30
0.000000
  70
    32
  0
VERTEX
  8
VISIBLE_NARROW__ISO_
  5
35A
 10
23.4360
 20
-6.89759
 30
0.000000
  70
    32
  0
VERTEX
  8
VISIBLE_NARROW__ISO_
  5
35B
 10
23.4400
 20
-6.89697
 30
0.000000
  70
    32
  0
VERTEX
  8
VISIBLE_NARROW__ISO_
  5
35C
 10
23.4441
 20
-6.89634
 30
0.000000
  70
    32
  0
VERTEX
  8
VISIBLE_NARROW__ISO_
  5
35D
 10
23.4481
 20
-6.89570
 30
0.000000
  70
    32
  0
VERTEX
  8
VISIBLE_NARROW__ISO_
  5
35E
 10
23.4522
 20
-6.89504
 30
0.000000
  70
    32
  0
VERTEX
  8
VISIBLE_NARROW__ISO_
  5
35F
 10
23.4562
 20
-6.89437
 30
0.000000
  70
    32
  0
VERTEX
  8
VISIBLE_NARROW__ISO_
  5
360
 10
23.4603
 20
-6.89369
 30
0.000000
  70
    32
  0
VERTEX
  8
VISIBLE_NARROW__ISO_
  5
361
 10
23.4643
 20
-6.89299
 30
0.000000
  70
    32
  0
VERTEX
  8
VISIBLE_NARROW__ISO_
  5
362
 10
23.4683
 20
-6.89229
 30
0.000000
  70
    32
  0
VERTEX
  8
VISIBLE_NARROW__ISO_
  5
363
 10
23.4724
 20
-6.89157
 30
0.000000
  70
    32
  0
VERTEX
  8
VISIBLE_NARROW__ISO_
  5
364
 10
23.4764
 20
-6.89084
 30
0.000000
  70
    32
  0
VERTEX
  8
VISIBLE_NARROW__ISO_
  5
365
 10
23.4804
 20
-6.89009
 30
0.000000
  70
    32
  0
VERTEX
  8
VISIBLE_NARROW__ISO_
  5
366
 10
23.4845
 20
-6.88934
 30
0.000000
  70
    32
  0
VERTEX
  8
VISIBLE_NARROW__ISO_
  5
367
 10
23.4885
 20
-6.88857
 30
0.000000
  70
    32
  0
VERTEX
  8
VISIBLE_NARROW__ISO_
  5
368
 10
23.4925
 20
-6.88779
 30
0.000000
  70
    32
  0
VERTEX
  8
VISIBLE_NARROW__ISO_
  5
369
 10
23.4966
 20
-6.88699
 30
0.000000
  70
    32
  0
VERTEX
  8
VISIBLE_NARROW__ISO_
  5
36A
 10
23.5006
 20
-6.88619
 30
0.000000
  70
    32
  0
VERTEX
  8
VISIBLE_NARROW__ISO_
  5
36B
 10
23.5046
 20
-6.88537
 30
0.000000
  70
    32
  0
VERTEX
  8
VISIBLE_NARROW__ISO_
  5
36C
 10
23.5086
 20
-6.88454
 30
0.000000
  70
    32
  0
VERTEX
  8
VISIBLE_NARROW__ISO_
  5
36D
 10
23.5126
 20
-6.88369
 30
0.000000
  70
    32
  0
VERTEX
  8
VISIBLE_NARROW__ISO_
  5
36E
 10
23.5166
 20
-6.88284
 30
0.000000
  70
    32
  0
VERTEX
  8
VISIBLE_NARROW__ISO_
  5
36F
 10
23.5206
 20
-6.88197
 30
0.000000
  70
    32
  0
VERTEX
  8
VISIBLE_NARROW__ISO_
  5
370
 10
23.5246
 20
-6.88109
 30
0.000000
  70
    32
  0
VERTEX
  8
VISIBLE_NARROW__ISO_
  5
371
 10
23.5286
 20
-6.88020
 30
0.000000
  70
    32
  0
VERTEX
  8
VISIBLE_NARROW__ISO_
  5
372
 10
23.5326
 20
-6.87929
 30
0.000000
  70
    32
  0
VERTEX
  8
VISIBLE_NARROW__ISO_
  5
373
 10
23.5366
 20
-6.87838
 30
0.000000
  70
    32
  0
VERTEX
  8
VISIBLE_NARROW__ISO_
  5
374
 10
23.5406
 20
-6.87745
 30
0.000000
  70
    32
  0
VERTEX
  8
VISIBLE_NARROW__ISO_
  5
375
 10
23.5446
 20
-6.87650
 30
0.000000
  70
    32
  0
VERTEX
  8
VISIBLE_NARROW__ISO_
  5
376
 10
23.5486
 20
-6.87555
 30
0.000000
  70
    32
  0
VERTEX
  8
VISIBLE_NARROW__ISO_
  5
377
 10
23.5526
 20
-6.87458
 30
0.000000
  70
    32
  0
VERTEX
  8
VISIBLE_NARROW__ISO_
  5
378
 10
23.5566
 20
-6.87361
 30
0.000000
  70
    32
  0
VERTEX
  8
VISIBLE_NARROW__ISO_
  5
379
 10
23.5606
 20
-6.87262
 30
0.000000
  70
    32
  0
VERTEX
  8
VISIBLE_NARROW__ISO_
  5
37A
 10
23.5645
 20
-6.87161
 30
0.000000
  70
    32
  0
VERTEX
  8
VISIBLE_NARROW__ISO_
  5
37B
 10
23.5685
 20
-6.87060
 30
0.000000
  70
    32
  0
VERTEX
  8
VISIBLE_NARROW__ISO_
  5
37C
 10
23.5725
 20
-6.86957
 30
0.000000
  70
    32
  0
VERTEX
  8
VISIBLE_NARROW__ISO_
  5
37D
 10
23.5764
 20
-6.86853
 30
0.000000
  70
    32
  0
VERTEX
  8
VISIBLE_NARROW__ISO_
  5
37E
 10
23.5804
 20
-6.86748
 30
0.000000
  70
    32
  0
VERTEX
  8
VISIBLE_NARROW__ISO_
  5
37F
 10
23.5844
 20
-6.86642
 30
0.000000
  70
    32
  0
VERTEX
  8
VISIBLE_NARROW__ISO_
  5
380
 10
23.5883
 20
-6.86534
 30
0.000000
  70
    32
  0
VERTEX
  8
VISIBLE_NARROW__ISO_
  5
381
 10
23.5923
 20
-6.86425
 30
0.000000
  70
    32
  0
VERTEX
  8
VISIBLE_NARROW__ISO_
  5
382
 10
23.5962
 20
-6.86315
 30
0.000000
  70
    32
  0
VERTEX
  8
VISIBLE_NARROW__ISO_
  5
383
 10
23.6002
 20
-6.86204
 30
0.000000
  70
    32
  0
VERTEX
  8
VISIBLE_NARROW__ISO_
  5
384
 10
23.6041
 20
-6.86092
 30
0.000000
  70
    32
  0
VERTEX
  8
VISIBLE_NARROW__ISO_
  5
385
 10
23.6081
 20
-6.85978
 30
0.000000
  70
    32
  0
VERTEX
  8
VISIBLE_NARROW__ISO_
  5
386
 10
23.6120
 20
-6.85863
 30
0.000000
  70
    32
  0
VERTEX
  8
VISIBLE_NARROW__ISO_
  5
387
 10
23.6159
 20
-6.85747
 30
0.000000
  70
    32
  0
VERTEX
  8
VISIBLE_NARROW__ISO_
  5
388
 10
23.6198
 20
-6.85630
 30
0.000000
  70
    32
  0
VERTEX
  8
VISIBLE_NARROW__ISO_
  5
389
 10
23.6238
 20
-6.85511
 30
0.000000
  70
    32
  0
VERTEX
  8
VISIBLE_NARROW__ISO_
  5
38A
 10
23.6277
 20
-6.85392
 30
0.000000
  70
    32
  0
VERTEX
  8
VISIBLE_NARROW__ISO_
  5
38B
 10
23.6316
 20
-6.85271
 30
0.000000
  70
    32
  0
VERTEX
  8
VISIBLE_NARROW__ISO_
  5
38C
 10
23.6355
 20
-6.85149
 30
0.000000
  70
    32
  0
VERTEX
  8
VISIBLE_NARROW__ISO_
  5
38D
 10
23.6394
 20
-6.85026
 30
0.000000
  70
    32
  0
VERTEX
  8
VISIBLE_NARROW__ISO_
  5
38E
 10
23.6433
 20
-6.84901
 30
0.000000
  70
    32
  0
VERTEX
  8
VISIBLE_NARROW__ISO_
  5
38F
 10
23.6473
 20
-6.84776
 30
0.000000
  70
    32
  0
VERTEX
  8
VISIBLE_NARROW__ISO_
  5
390
 10
23.6512
 20
-6.84649
 30
0.000000
  70
    32
  0
VERTEX
  8
VISIBLE_NARROW__ISO_
  5
391
 10
23.6550
 20
-6.84521
 30
0.000000
  70
    32
  0
VERTEX
  8
VISIBLE_NARROW__ISO_
  5
392
 10
23.6589
 20
-6.84391
 30
0.000000
  70
    32
  0
VERTEX
  8
VISIBLE_NARROW__ISO_
  5
393
 10
23.6628
 20
-6.84261
 30
0.000000
  70
    32
  0
VERTEX
  8
VISIBLE_NARROW__ISO_
  5
394
 10
23.6667
 20
-6.84129
 30
0.000000
  70
    32
  0
VERTEX
  8
VISIBLE_NARROW__ISO_
  5
395
 10
23.6706
 20
-6.83997
 30
0.000000
  70
    32
  0
VERTEX
  8
VISIBLE_NARROW__ISO_
  5
396
 10
23.6745
 20
-6.83863
 30
0.000000
  70
    32
  0
VERTEX
  8
VISIBLE_NARROW__ISO_
  5
397
 10
23.6783
 20
-6.83727
 30
0.000000
  70
    32
  0
VERTEX
  8
VISIBLE_NARROW__ISO_
  5
398
 10
23.6822
 20
-6.83591
 30
0.000000
  70
    32
  0
VERTEX
  8
VISIBLE_NARROW__ISO_
  5
399
 10
23.6861
 20
-6.83453
 30
0.000000
  70
    32
  0
VERTEX
  8
VISIBLE_NARROW__ISO_
  5
39A
 10
23.6899
 20
-6.83315
 30
0.000000
  70
    32
  0
VERTEX
  8
VISIBLE_NARROW__ISO_
  5
39B
 10
23.6938
 20
-6.83175
 30
0.000000
  70
    32
  0
VERTEX
  8
VISIBLE_NARROW__ISO_
  5
39C
 10
23.6976
 20
-6.83034
 30
0.000000
  70
    32
  0
VERTEX
  8
VISIBLE_NARROW__ISO_
  5
39D
 10
23.7015
 20
-6.82891
 30
0.000000
  70
    32
  0
VERTEX
  8
VISIBLE_NARROW__ISO_
  5
39E
 10
23.7053
 20
-6.82748
 30
0.000000
  70
    32
  0
VERTEX
  8
VISIBLE_NARROW__ISO_
  5
39F
 10
23.7092
 20
-6.82603
 30
0.000000
  70
    32
  0
VERTEX
  8
VISIBLE_NARROW__ISO_
  5
3A0
 10
23.7130
 20
-6.82457
 30
0.000000
  70
    32
  0
VERTEX
  8
VISIBLE_NARROW__ISO_
  5
3A1
 10
23.7168
 20
-6.82310
 30
0.000000
  70
    32
  0
VERTEX
  8
VISIBLE_NARROW__ISO_
  5
3A2
 10
23.7206
 20
-6.82162
 30
0.000000
  70
    32
  0
VERTEX
  8
VISIBLE_NARROW__ISO_
  5
3A3
 10
23.7245
 20
-6.82013
 30
0.000000
  70
    32
  0
VERTEX
  8
VISIBLE_NARROW__ISO_
  5
3A4
 10
23.7283
 20
-6.81862
 30
0.000000
  70
    32
  0
VERTEX
  8
VISIBLE_NARROW__ISO_
  5
3A5
 10
23.7321
 20
-6.81711
 30
0.000000
  70
    32
  0
VERTEX
  8
VISIBLE_NARROW__ISO_
  5
3A6
 10
23.7359
 20
-6.81558
 30
0.000000
  70
    32
  0
VERTEX
  8
VISIBLE_NARROW__ISO_
  5
3A7
 10
23.7397
 20
-6.81404
 30
0.000000
  70
    32
  0
VERTEX
  8
VISIBLE_NARROW__ISO_
  5
3A8
 10
23.7435
 20
-6.81248
 30
0.000000
  70
    32
  0
VERTEX
  8
VISIBLE_NARROW__ISO_
  5
3A9
 10
23.7473
 20
-6.81092
 30
0.000000
  70
    32
  0
VERTEX
  8
VISIBLE_NARROW__ISO_
  5
3AA
 10
23.7511
 20
-6.80935
 30
0.000000
  70
    32
  0
VERTEX
  8
VISIBLE_NARROW__ISO_
  5
3AB
 10
23.7548
 20
-6.80776
 30
0.000000
  70
    32
  0
VERTEX
  8
VISIBLE_NARROW__ISO_
  5
3AC
 10
23.7586
 20
-6.80616
 30
0.000000
  70
    32
  0
VERTEX
  8
VISIBLE_NARROW__ISO_
  5
3AD
 10
23.7624
 20
-6.80455
 30
0.000000
  70
    32
  0
VERTEX
  8
VISIBLE_NARROW__ISO_
  5
3AE
 10
23.7661
 20
-6.80293
 30
0.000000
  70
    32
  0
VERTEX
  8
VISIBLE_NARROW__ISO_
  5
3AF
 10
23.7699
 20
-6.80129
 30
0.000000
  70
    32
  0
VERTEX
  8
VISIBLE_NARROW__ISO_
  5
3B0
 10
23.7737
 20
-6.79965
 30
0.000000
  70
    32
  0
VERTEX
  8
VISIBLE_NARROW__ISO_
  5
3B1
 10
23.7774
 20
-6.79799
 30
0.000000
  70
    32
  0
VERTEX
  8
VISIBLE_NARROW__ISO_
  5
3B2
 10
23.7812
 20
-6.79632
 30
0.000000
  70
    32
  0
VERTEX
  8
VISIBLE_NARROW__ISO_
  5
3B3
 10
23.7849
 20
-6.79464
 30
0.000000
  70
    32
  0
VERTEX
  8
VISIBLE_NARROW__ISO_
  5
3B4
 10
23.7886
 20
-6.79295
 30
0.000000
  70
    32
  0
VERTEX
  8
VISIBLE_NARROW__ISO_
  5
3B5
 10
23.7924
 20
-6.79125
 30
0.000000
  70
    32
  0
VERTEX
  8
VISIBLE_NARROW__ISO_
  5
3B6
 10
23.7961
 20
-6.78953
 30
0.000000
  70
    32
  0
VERTEX
  8
VISIBLE_NARROW__ISO_
  5
3B7
 10
23.7998
 20
-6.78781
 30
0.000000
  70
    32
  0
VERTEX
  8
VISIBLE_NARROW__ISO_
  5
3B8
 10
23.8035
 20
-6.78607
 30
0.000000
  70
    32
  0
VERTEX
  8
VISIBLE_NARROW__ISO_
  5
3B9
 10
23.8072
 20
-6.78432
 30
0.000000
  70
    32
  0
VERTEX
  8
VISIBLE_NARROW__ISO_
  5
3BA
 10
23.8109
 20
-6.78256
 30
0.000000
  70
    32
  0
VERTEX
  8
VISIBLE_NARROW__ISO_
  5
3BB
 10
23.8146
 20
-6.78079
 30
0.000000
  70
    32
  0
VERTEX
  8
VISIBLE_NARROW__ISO_
  5
3BC
 10
23.8183
 20
-6.77900
 30
0.000000
  70
    32
  0
VERTEX
  8
VISIBLE_NARROW__ISO_
  5
3BD
 10
23.8220
 20
-6.77721
 30
0.000000
  70
    32
  0
VERTEX
  8
VISIBLE_NARROW__ISO_
  5
3BE
 10
23.8257
 20
-6.77540
 30
0.000000
  70
    32
  0
VERTEX
  8
VISIBLE_NARROW__ISO_
  5
3BF
 10
23.8294
 20
-6.77359
 30
0.000000
  70
    32
  0
VERTEX
  8
VISIBLE_NARROW__ISO_
  5
3C0
 10
23.8330
 20
-6.77176
 30
0.000000
  70
    32
  0
VERTEX
  8
VISIBLE_NARROW__ISO_
  5
3C1
 10
23.8367
 20
-6.76992
 30
0.000000
  70
    32
  0
VERTEX
  8
VISIBLE_NARROW__ISO_
  5
3C2
 10
23.8404
 20
-6.76806
 30
0.000000
  70
    32
  0
VERTEX
  8
VISIBLE_NARROW__ISO_
  5
3C3
 10
23.8440
 20
-6.76620
 30
0.000000
  70
    32
  0
VERTEX
  8
VISIBLE_NARROW__ISO_
  5
3C4
 10
23.8477
 20
-6.76433
 30
0.000000
  70
    32
  0
VERTEX
  8
VISIBLE_NARROW__ISO_
  5
3C5
 10
23.8513
 20
-6.76244
 30
0.000000
  70
    32
  0
VERTEX
  8
VISIBLE_NARROW__ISO_
  5
3C6
 10
23.8549
 20
-6.76055
 30
0.000000
  70
    32
  0
VERTEX
  8
VISIBLE_NARROW__ISO_
  5
3C7
 10
23.8586
 20
-6.75864
 30
0.000000
  70
    32
  0
VERTEX
  8
VISIBLE_NARROW__ISO_
  5
3C8
 10
23.8622
 20
-6.75672
 30
0.000000
  70
    32
  0
VERTEX
  8
VISIBLE_NARROW__ISO_
  5
3C9
 10
23.8658
 20
-6.75479
 30
0.000000
  70
    32
  0
VERTEX
  8
VISIBLE_NARROW__ISO_
  5
3CA
 10
23.8694
 20
-6.75285
 30
0.000000
  70
    32
  0
VERTEX
  8
VISIBLE_NARROW__ISO_
  5
3CB
 10
23.8730
 20
-6.75089
 30
0.000000
  70
    32
  0
VERTEX
  8
VISIBLE_NARROW__ISO_
  5
3CC
 10
23.8766
 20
-6.74893
 30
0.000000
  70
    32
  0
VERTEX
  8
VISIBLE_NARROW__ISO_
  5
3CD
 10
23.8802
 20
-6.74696
 30
0.000000
  70
    32
  0
VERTEX
  8
VISIBLE_NARROW__ISO_
  5
3CE
 10
23.8838
 20
-6.74497
 30
0.000000
  70
    32
  0
VERTEX
  8
VISIBLE_NARROW__ISO_
  5
3CF
 10
23.8874
 20
-6.74297
 30
0.000000
  70
    32
  0
VERTEX
  8
VISIBLE_NARROW__ISO_
  5
3D0
 10
23.8910
 20
-6.74097
 30
0.000000
  70
    32
  0
VERTEX
  8
VISIBLE_NARROW__ISO_
  5
3D1
 10
23.8945
 20
-6.73895
 30
0.000000
  70
    32
  0
VERTEX
  8
VISIBLE_NARROW__ISO_
  5
3D2
 10
23.8981
 20
-6.73692
 30
0.000000
  70
    32
  0
VERTEX
  8
VISIBLE_NARROW__ISO_
  5
3D3
 10
23.9017
 20
-6.73488
 30
0.000000
  70
    32
  0
VERTEX
  8
VISIBLE_NARROW__ISO_
  5
3D4
 10
23.9052
 20
-6.73283
 30
0.000000
  70
    32
  0
VERTEX
  8
VISIBLE_NARROW__ISO_
  5
3D5
 10
23.9088
 20
-6.73076
 30
0.000000
  70
    32
  0
VERTEX
  8
VISIBLE_NARROW__ISO_
  5
3D6
 10
23.9123
 20
-6.72869
 30
0.000000
  70
    32
  0
VERTEX
  8
VISIBLE_NARROW__ISO_
  5
3D7
 10
23.9158
 20
-6.72661
 30
0.000000
  70
    32
  0
VERTEX
  8
VISIBLE_NARROW__ISO_
  5
3D8
 10
23.9194
 20
-6.72451
 30
0.000000
  70
    32
  0
VERTEX
  8
VISIBLE_NARROW__ISO_
  5
3D9
 10
23.9229
 20
-6.72241
 30
0.000000
  70
    32
  0
VERTEX
  8
VISIBLE_NARROW__ISO_
  5
3DA
 10
23.9264
 20
-6.72029
 30
0.000000
  70
    32
  0
VERTEX
  8
VISIBLE_NARROW__ISO_
  5
3DB
 10
23.9299
 20
-6.71816
 30
0.000000
  70
    32
  0
VERTEX
  8
VISIBLE_NARROW__ISO_
  5
3DC
 10
23.9334
 20
-6.71603
 30
0.000000
  70
    32
  0
VERTEX
  8
VISIBLE_NARROW__ISO_
  5
3DD
 10
23.9369
 20
-6.71388
 30
0.000000
  70
    32
  0
VERTEX
  8
VISIBLE_NARROW__ISO_
  5
3DE
 10
23.9404
 20
-6.71172
 30
0.000000
  70
    32
  0
VERTEX
  8
VISIBLE_NARROW__ISO_
  5
3DF
 10
23.9439
 20
-6.70955
 30
0.000000
  70
    32
  0
VERTEX
  8
VISIBLE_NARROW__ISO_
  5
3E0
 10
23.9473
 20
-6.70737
 30
0.000000
  70
    32
  0
VERTEX
  8
VISIBLE_NARROW__ISO_
  5
3E1
 10
23.9508
 20
-6.70517
 30
0.000000
  70
    32
  0
VERTEX
  8
VISIBLE_NARROW__ISO_
  5
3E2
 10
23.9543
 20
-6.70297
 30
0.000000
  70
    32
  0
VERTEX
  8
VISIBLE_NARROW__ISO_
  5
3E3
 10
23.9577
 20
-6.70076
 30
0.000000
  70
    32
  0
VERTEX
  8
VISIBLE_NARROW__ISO_
  5
3E4
 10
23.9612
 20
-6.69854
 30
0.000000
  70
    32
  0
VERTEX
  8
VISIBLE_NARROW__ISO_
  5
3E5
 10
23.9646
 20
-6.69630
 30
0.000000
  70
    32
  0
VERTEX
  8
VISIBLE_NARROW__ISO_
  5
3E6
 10
23.9680
 20
-6.69406
 30
0.000000
  70
    32
  0
VERTEX
  8
VISIBLE_NARROW__ISO_
  5
3E7
 10
23.9715
 20
-6.69180
 30
0.000000
  70
    32
  0
VERTEX
  8
VISIBLE_NARROW__ISO_
  5
3E8
 10
23.9749
 20
-6.68954
 30
0.000000
  70
    32
  0
VERTEX
  8
VISIBLE_NARROW__ISO_
  5
3E9
 10
23.9783
 20
-6.68726
 30
0.000000
  70
    32
  0
VERTEX
  8
VISIBLE_NARROW__ISO_
  5
3EA
 10
23.9817
 20
-6.68498
 30
0.000000
  70
    32
  0
VERTEX
  8
VISIBLE_NARROW__ISO_
  5
3EB
 10
23.9851
 20
-6.68268
 30
0.000000
  70
    32
  0
VERTEX
  8
VISIBLE_NARROW__ISO_
  5
3EC
 10
23.9885
 20
-6.68037
 30
0.000000
  70
    32
  0
VERTEX
  8
VISIBLE_NARROW__ISO_
  5
3ED
 10
23.9919
 20
-6.67805
 30
0.000000
  70
    32
  0
VERTEX
  8
VISIBLE_NARROW__ISO_
  5
3EE
 10
23.9952
 20
-6.67573
 30
0.000000
  70
    32
  0
VERTEX
  8
VISIBLE_NARROW__ISO_
  5
3EF
 10
23.9986
 20
-6.67339
 30
0.000000
  70
    32
  0
VERTEX
  8
VISIBLE_NARROW__ISO_
  5
3F0
 10
24.0020
 20
-6.67104
 30
0.000000
  70
    32
  0
VERTEX
  8
VISIBLE_NARROW__ISO_
  5
3F1
 10
24.0053
 20
-6.66868
 30
0.000000
  70
    32
  0
VERTEX
  8
VISIBLE_NARROW__ISO_
  5
3F2
 10
24.0087
 20
-6.66631
 30
0.000000
  70
    32
  0
VERTEX
  8
VISIBLE_NARROW__ISO_
  5
3F3
 10
24.0120
 20
-6.66393
 30
0.000000
  70
    32
  0
VERTEX
  8
VISIBLE_NARROW__ISO_
  5
3F4
 10
24.0153
 20
-6.66154
 30
0.000000
  70
    32
  0
VERTEX
  8
VISIBLE_NARROW__ISO_
  5
3F5
 10
24.0187
 20
-6.65914
 30
0.000000
  70
    32
  0
VERTEX
  8
VISIBLE_NARROW__ISO_
  5
3F6
 10
24.0220
 20
-6.65673
 30
0.000000
  70
    32
  0
VERTEX
  8
VISIBLE_NARROW__ISO_
  5
3F7
 10
24.0253
 20
-6.65431
 30
0.000000
  70
    32
  0
VERTEX
  8
VISIBLE_NARROW__ISO_
  5
3F8
 10
24.0286
 20
-6.65188
 30
0.000000
  70
    32
  0
VERTEX
  8
VISIBLE_NARROW__ISO_
  5
3F9
 10
24.0319
 20
-6.64944
 30
0.000000
  70
    32
  0
VERTEX
  8
VISIBLE_NARROW__ISO_
  5
3FA
 10
24.0352
 20
-6.64699
 30
0.000000
  70
    32
  0
VERTEX
  8
VISIBLE_NARROW__ISO_
  5
3FB
 10
24.0385
 20
-6.64453
 30
0.000000
  70
    32
  0
VERTEX
  8
VISIBLE_NARROW__ISO_
  5
3FC
 10
24.0417
 20
-6.64206
 30
0.000000
  70
    32
  0
VERTEX
  8
VISIBLE_NARROW__ISO_
  5
3FD
 10
24.0450
 20
-6.63958
 30
0.000000
  70
    32
  0
VERTEX
  8
VISIBLE_NARROW__ISO_
  5
3FE
 10
24.0483
 20
-6.63708
 30
0.000000
  70
    32
  0
VERTEX
  8
VISIBLE_NARROW__ISO_
  5
3FF
 10
24.0515
 20
-6.63458
 30
0.000000
  70
    32
  0
VERTEX
  8
VISIBLE_NARROW__ISO_
  5
400
 10
24.0547
 20
-6.63207
 30
0.000000
  70
    32
  0
VERTEX
  8
VISIBLE_NARROW__ISO_
  5
401
 10
24.0580
 20
-6.62955
 30
0.000000
  70
    32
  0
VERTEX
  8
VISIBLE_NARROW__ISO_
  5
402
 10
24.0612
 20
-6.62702
 30
0.000000
  70
    32
  0
VERTEX
  8
VISIBLE_NARROW__ISO_
  5
403
 10
24.0644
 20
-6.62448
 30
0.000000
  70
    32
  0
VERTEX
  8
VISIBLE_NARROW__ISO_
  5
404
 10
24.0676
 20
-6.62193
 30
0.000000
  70
    32
  0
VERTEX
  8
VISIBLE_NARROW__ISO_
  5
405
 10
24.0708
 20
-6.61937
 30
0.000000
  70
    32
  0
VERTEX
  8
VISIBLE_NARROW__ISO_
  5
406
 10
24.0740
 20
-6.61680
 30
0.000000
  70
    32
  0
VERTEX
  8
VISIBLE_NARROW__ISO_
  5
407
 10
24.0772
 20
-6.61422
 30
0.000000
  70
    32
  0
VERTEX
  8
VISIBLE_NARROW__ISO_
  5
408
 10
24.0804
 20
-6.61162
 30
0.000000
  70
    32
  0
VERTEX
  8
VISIBLE_NARROW__ISO_
  5
409
 10
24.0836
 20
-6.60902
 30
0.000000
  70
    32
  0
VERTEX
  8
VISIBLE_NARROW__ISO_
  5
40A
 10
24.0867
 20
-6.60641
 30
0.000000
  70
    32
  0
VERTEX
  8
VISIBLE_NARROW__ISO_
  5
40B
 10
24.0899
 20
-6.60379
 30
0.000000
  70
    32
  0
VERTEX
  8
VISIBLE_NARROW__ISO_
  5
40C
 10
24.0930
 20
-6.60117
 30
0.000000
  70
    32
  0
VERTEX
  8
VISIBLE_NARROW__ISO_
  5
40D
 10
24.0962
 20
-6.59853
 30
0.000000
  70
    32
  0
VERTEX
  8
VISIBLE_NARROW__ISO_
  5
40E
 10
24.0993
 20
-6.59588
 30
0.000000
  70
    32
  0
VERTEX
  8
VISIBLE_NARROW__ISO_
  5
40F
 10
24.1024
 20
-6.59322
 30
0.000000
  70
    32
  0
VERTEX
  8
VISIBLE_NARROW__ISO_
  5
410
 10
24.1055
 20
-6.59055
 30
0.000000
  70
    32
  0
VERTEX
  8
VISIBLE_NARROW__ISO_
  5
411
 10
24.1087
 20
-6.58787
 30
0.000000
  70
    32
  0
VERTEX
  8
VISIBLE_NARROW__ISO_
  5
412
 10
24.1118
 20
-6.58518
 30
0.000000
  70
    32
  0
VERTEX
  8
VISIBLE_NARROW__ISO_
  5
413
 10
24.1148
 20
-6.58249
 30
0.000000
  70
    32
  0
VERTEX
  8
VISIBLE_NARROW__ISO_
  5
414
 10
24.1179
 20
-6.57978
 30
0.000000
  70
    32
  0
VERTEX
  8
VISIBLE_NARROW__ISO_
  5
415
 10
24.1210
 20
-6.57706
 30
0.000000
  70
    32
  0
VERTEX
  8
VISIBLE_NARROW__ISO_
  5
416
 10
24.1241
 20
-6.57434
 30
0.000000
  70
    32
  0
VERTEX
  8
VISIBLE_NARROW__ISO_
  5
417
 10
24.1271
 20
-6.57160
 30
0.000000
  70
    32
  0
VERTEX
  8
VISIBLE_NARROW__ISO_
  5
418
 10
24.1302
 20
-6.56886
 30
0.000000
  70
    32
  0
VERTEX
  8
VISIBLE_NARROW__ISO_
  5
419
 10
24.1332
 20
-6.56611
 30
0.000000
  70
    32
  0
VERTEX
  8
VISIBLE_NARROW__ISO_
  5
41A
 10
24.1362
 20
-6.56334
 30
0.000000
  70
    32
  0
VERTEX
  8
VISIBLE_NARROW__ISO_
  5
41B
 10
24.1393
 20
-6.56057
 30
0.000000
  70
    32
  0
VERTEX
  8
VISIBLE_NARROW__ISO_
  5
41C
 10
24.1423
 20
-6.55779
 30
0.000000
  70
    32
  0
VERTEX
  8
VISIBLE_NARROW__ISO_
  5
41D
 10
24.1453
 20
-6.55500
 30
0.000000
  70
    32
  0
VERTEX
  8
VISIBLE_NARROW__ISO_
  5
41E
 10
24.1483
 20
-6.55220
 30
0.000000
  70
    32
  0
VERTEX
  8
VISIBLE_NARROW__ISO_
  5
41F
 10
24.1513
 20
-6.54939
 30
0.000000
  70
    32
  0
VERTEX
  8
VISIBLE_NARROW__ISO_
  5
420
 10
24.1542
 20
-6.54657
 30
0.000000
  70
    32
  0
VERTEX
  8
VISIBLE_NARROW__ISO_
  5
421
 10
24.1572
 20
-6.54374
 30
0.000000
  70
    32
  0
VERTEX
  8
VISIBLE_NARROW__ISO_
  5
422
 10
24.1602
 20
-6.54090
 30
0.000000
  70
    32
  0
VERTEX
  8
VISIBLE_NARROW__ISO_
  5
423
 10
24.1631
 20
-6.53806
 30
0.000000
  70
    32
  0
VERTEX
  8
VISIBLE_NARROW__ISO_
  5
424
 10
24.1661
 20
-6.53520
 30
0.000000
  70
    32
  0
VERTEX
  8
VISIBLE_NARROW__ISO_
  5
425
 10
24.1690
 20
-6.53234
 30
0.000000
  70
    32
  0
VERTEX
  8
VISIBLE_NARROW__ISO_
  5
426
 10
24.1719
 20
-6.52946
 30
0.000000
  70
    32
  0
VERTEX
  8
VISIBLE_NARROW__ISO_
  5
427
 10
24.1748
 20
-6.52658
 30
0.000000
  70
    32
  0
VERTEX
  8
VISIBLE_NARROW__ISO_
  5
428
 10
24.1777
 20
-6.52369
 30
0.000000
  70
    32
  0
VERTEX
  8
VISIBLE_NARROW__ISO_
  5
429
 10
24.1806
 20
-6.52079
 30
0.000000
  70
    32
  0
VERTEX
  8
VISIBLE_NARROW__ISO_
  5
42A
 10
24.1835
 20
-6.51788
 30
0.000000
  70
    32
  0
VERTEX
  8
VISIBLE_NARROW__ISO_
  5
42B
 10
24.1864
 20
-6.51496
 30
0.000000
  70
    32
  0
VERTEX
  8
VISIBLE_NARROW__ISO_
  5
42C
 10
24.1893
 20
-6.51203
 30
0.000000
  70
    32
  0
VERTEX
  8
VISIBLE_NARROW__ISO_
  5
42D
 10
24.1922
 20
-6.50910
 30
0.000000
  70
    32
  0
VERTEX
  8
VISIBLE_NARROW__ISO_
  5
42E
 10
24.1950
 20
-6.50615
 30
0.000000
  70
    32
  0
VERTEX
  8
VISIBLE_NARROW__ISO_
  5
42F
 10
24.1979
 20
-6.50320
 30
0.000000
  70
    32
  0
VERTEX
  8
VISIBLE_NARROW__ISO_
  5
430
 10
24.2007
 20
-6.50024
 30
0.000000
  70
    32
  0
VERTEX
  8
VISIBLE_NARROW__ISO_
  5
431
 10
24.2035
 20
-6.49727
 30
0.000000
  70
    32
  0
VERTEX
  8
VISIBLE_NARROW__ISO_
  5
432
 10
24.2063
 20
-6.49429
 30
0.000000
  70
    32
  0
VERTEX
  8
VISIBLE_NARROW__ISO_
  5
433
 10
24.2091
 20
-6.49130
 30
0.000000
  70
    32
  0
VERTEX
  8
VISIBLE_NARROW__ISO_
  5
434
 10
24.2119
 20
-6.48830
 30
0.000000
  70
    32
  0
VERTEX
  8
VISIBLE_NARROW__ISO_
  5
435
 10
24.2147
 20
-6.48530
 30
0.000000
  70
    32
  0
VERTEX
  8
VISIBLE_NARROW__ISO_
  5
436
 10
24.2175
 20
-6.48228
 30
0.000000
  70
    32
  0
VERTEX
  8
VISIBLE_NARROW__ISO_
  5
437
 10
24.2203
 20
-6.47926
 30
0.000000
  70
    32
  0
VERTEX
  8
VISIBLE_NARROW__ISO_
  5
438
 10
24.2231
 20
-6.47623
 30
0.000000
  70
    32
  0
VERTEX
  8
VISIBLE_NARROW__ISO_
  5
439
 10
24.2258
 20
-6.47319
 30
0.000000
  70
    32
  0
VERTEX
  8
VISIBLE_NARROW__ISO_
  5
43A
 10
24.2286
 20
-6.47014
 30
0.000000
  70
    32
  0
VERTEX
  8
VISIBLE_NARROW__ISO_
  5
43B
 10
24.2313
 20
-6.46709
 30
0.000000
  70
    32
  0
VERTEX
  8
VISIBLE_NARROW__ISO_
  5
43C
 10
24.2340
 20
-6.46402
 30
0.000000
  70
    32
  0
VERTEX
  8
VISIBLE_NARROW__ISO_
  5
43D
 10
24.2367
 20
-6.46095
 30
0.000000
  70
    32
  0
VERTEX
  8
VISIBLE_NARROW__ISO_
  5
43E
 10
24.2394
 20
-6.45787
 30
0.000000
  70
    32
  0
VERTEX
  8
VISIBLE_NARROW__ISO_
  5
43F
 10
24.2421
 20
-6.45478
 30
0.000000
  70
    32
  0
VERTEX
  8
VISIBLE_NARROW__ISO_
  5
440
 10
24.2448
 20
-6.45168
 30
0.000000
  70
    32
  0
VERTEX
  8
VISIBLE_NARROW__ISO_
  5
441
 10
24.2475
 20
-6.44858
 30
0.000000
  70
    32
  0
VERTEX
  8
VISIBLE_NARROW__ISO_
  5
442
 10
24.2502
 20
-6.44546
 30
0.000000
  70
    32
  0
VERTEX
  8
VISIBLE_NARROW__ISO_
  5
443
 10
24.2528
 20
-6.44234
 30
0.000000
  70
    32
  0
VERTEX
  8
VISIBLE_NARROW__ISO_
  5
444
 10
24.2555
 20
-6.43921
 30
0.000000
  70
    32
  0
VERTEX
  8
VISIBLE_NARROW__ISO_
  5
445
 10
24.2581
 20
-6.43607
 30
0.000000
  70
    32
  0
VERTEX
  8
VISIBLE_NARROW__ISO_
  5
446
 10
24.2607
 20
-6.43292
 30
0.000000
  70
    32
  0
VERTEX
  8
VISIBLE_NARROW__ISO_
  5
447
 10
24.2634
 20
-6.42977
 30
0.000000
  70
    32
  0
VERTEX
  8
VISIBLE_NARROW__ISO_
  5
448
 10
24.2660
 20
-6.42661
 30
0.000000
  70
    32
  0
VERTEX
  8
VISIBLE_NARROW__ISO_
  5
449
 10
24.2686
 20
-6.42344
 30
0.000000
  70
    32
  0
VERTEX
  8
VISIBLE_NARROW__ISO_
  5
44A
 10
24.2712
 20
-6.42026
 30
0.000000
  70
    32
  0
VERTEX
  8
VISIBLE_NARROW__ISO_
  5
44B
 10
24.2737
 20
-6.41707
 30
0.000000
  70
    32
  0
VERTEX
  8
VISIBLE_NARROW__ISO_
  5
44C
 10
24.2763
 20
-6.41388
 30
0.000000
  70
    32
  0
VERTEX
  8
VISIBLE_NARROW__ISO_
  5
44D
 10
24.2789
 20
-6.41067
 30
0.000000
  70
    32
  0
VERTEX
  8
VISIBLE_NARROW__ISO_
  5
44E
 10
24.2814
 20
-6.40746
 30
0.000000
  70
    32
  0
VERTEX
  8
VISIBLE_NARROW__ISO_
  5
44F
 10
24.2840
 20
-6.40424
 30
0.000000
  70
    32
  0
VERTEX
  8
VISIBLE_NARROW__ISO_
  5
450
 10
24.2865
 20
-6.40102
 30
0.000000
  70
    32
  0
VERTEX
  8
VISIBLE_NARROW__ISO_
  5
451
 10
24.2890
 20
-6.39778
 30
0.000000
  70
    32
  0
VERTEX
  8
VISIBLE_NARROW__ISO_
  5
452
 10
24.2915
 20
-6.39454
 30
0.000000
  70
    32
  0
VERTEX
  8
VISIBLE_NARROW__ISO_
  5
453
 10
24.2940
 20
-6.39129
 30
0.000000
  70
    32
  0
VERTEX
  8
VISIBLE_NARROW__ISO_
  5
454
 10
24.2965
 20
-6.38804
 30
0.000000
  70
    32
  0
VERTEX
  8
VISIBLE_NARROW__ISO_
  5
455
 10
24.2990
 20
-6.38477
 30
0.000000
  70
    32
  0
VERTEX
  8
VISIBLE_NARROW__ISO_
  5
456
 10
24.3015
 20
-6.38150
 30
0.000000
  70
    32
  0
VERTEX
  8
VISIBLE_NARROW__ISO_
  5
457
 10
24.3040
 20
-6.37822
 30
0.000000
  70
    32
  0
VERTEX
  8
VISIBLE_NARROW__ISO_
  5
458
 10
24.3064
 20
-6.37493
 30
0.000000
  70
    32
  0
VERTEX
  8
VISIBLE_NARROW__ISO_
  5
459
 10
24.3088
 20
-6.37164
 30
0.000000
  70
    32
  0
VERTEX
  8
VISIBLE_NARROW__ISO_
  5
45A
 10
24.3113
 20
-6.36834
 30
0.000000
  70
    32
  0
VERTEX
  8
VISIBLE_NARROW__ISO_
  5
45B
 10
24.3137
 20
-6.36503
 30
0.000000
  70
    32
  0
VERTEX
  8
VISIBLE_NARROW__ISO_
  5
45C
 10
24.3161
 20
-6.36171
 30
0.000000
  70
    32
  0
VERTEX
  8
VISIBLE_NARROW__ISO_
  5
45D
 10
24.3185
 20
-6.35838
 30
0.000000
  70
    32
  0
VERTEX
  8
VISIBLE_NARROW__ISO_
  5
45E
 10
24.3209
 20
-6.35505
 30
0.000000
  70
    32
  0
VERTEX
  8
VISIBLE_NARROW__ISO_
  5
45F
 10
24.3233
 20
-6.35171
 30
0.000000
  70
    32
  0
VERTEX
  8
VISIBLE_NARROW__ISO_
  5
460
 10
24.3257
 20
-6.34837
 30
0.000000
  70
    32
  0
VERTEX
  8
VISIBLE_NARROW__ISO_
  5
461
 10
24.3280
 20
-6.34501
 30
0.000000
  70
    32
  0
VERTEX
  8
VISIBLE_NARROW__ISO_
  5
462
 10
24.3304
 20
-6.34165
 30
0.000000
  70
    32
  0
VERTEX
  8
VISIBLE_NARROW__ISO_
  5
463
 10
24.3327
 20
-6.33828
 30
0.000000
  70
    32
  0
VERTEX
  8
VISIBLE_NARROW__ISO_
  5
464
 10
24.3350
 20
-6.33491
 30
0.000000
  70
    32
  0
VERTEX
  8
VISIBLE_NARROW__ISO_
  5
465
 10
24.3373
 20
-6.33152
 30
0.000000
  70
    32
  0
VERTEX
  8
VISIBLE_NARROW__ISO_
  5
466
 10
24.3397
 20
-6.32813
 30
0.000000
  70
    32
  0
VERTEX
  8
VISIBLE_NARROW__ISO_
  5
467
 10
24.3420
 20
-6.32474
 30
0.000000
  70
    32
  0
VERTEX
  8
VISIBLE_NARROW__ISO_
  5
468
 10
24.3442
 20
-6.32133
 30
0.000000
  70
    32
  0
VERTEX
  8
VISIBLE_NARROW__ISO_
  5
469
 10
24.3465
 20
-6.31792
 30
0.000000
  70
    32
  0
VERTEX
  8
VISIBLE_NARROW__ISO_
  5
46A
 10
24.3488
 20
-6.31450
 30
0.000000
  70
    32
  0
VERTEX
  8
VISIBLE_NARROW__ISO_
  5
46B
 10
24.3510
 20
-6.31108
 30
0.000000
  70
    32
  0
VERTEX
  8
VISIBLE_NARROW__ISO_
  5
46C
 10
24.3533
 20
-6.30764
 30
0.000000
  70
    32
  0
VERTEX
  8
VISIBLE_NARROW__ISO_
  5
46D
 10
24.3555
 20
-6.30421
 30
0.000000
  70
    32
  0
VERTEX
  8
VISIBLE_NARROW__ISO_
  5
46E
 10
24.3577
 20
-6.30076
 30
0.000000
  70
    32
  0
VERTEX
  8
VISIBLE_NARROW__ISO_
  5
46F
 10
24.3599
 20
-6.29731
 30
0.000000
  70
    32
  0
VERTEX
  8
VISIBLE_NARROW__ISO_
  5
470
 10
24.3621
 20
-6.29385
 30
0.000000
  70
    32
  0
VERTEX
  8
VISIBLE_NARROW__ISO_
  5
471
 10
24.3643
 20
-6.29038
 30
0.000000
  70
    32
  0
VERTEX
  8
VISIBLE_NARROW__ISO_
  5
472
 10
24.3665
 20
-6.28691
 30
0.000000
  70
    32
  0
VERTEX
  8
VISIBLE_NARROW__ISO_
  5
473
 10
24.3687
 20
-6.28343
 30
0.000000
  70
    32
  0
VERTEX
  8
VISIBLE_NARROW__ISO_
  5
474
 10
24.3708
 20
-6.27994
 30
0.000000
  70
    32
  0
VERTEX
  8
VISIBLE_NARROW__ISO_
  5
475
 10
24.3730
 20
-6.27645
 30
0.000000
  70
    32
  0
VERTEX
  8
VISIBLE_NARROW__ISO_
  5
476
 10
24.3751
 20
-6.27295
 30
0.000000
  70
    32
  0
VERTEX
  8
VISIBLE_NARROW__ISO_
  5
477
 10
24.3773
 20
-6.26944
 30
0.000000
  70
    32
  0
VERTEX
  8
VISIBLE_NARROW__ISO_
  5
478
 10
24.3794
 20
-6.26593
 30
0.000000
  70
    32
  0
VERTEX
  8
VISIBLE_NARROW__ISO_
  5
479
 10
24.3815
 20
-6.26241
 30
0.000000
  70
    32
  0
VERTEX
  8
VISIBLE_NARROW__ISO_
  5
47A
 10
24.3836
 20
-6.25888
 30
0.000000
  70
    32
  0
VERTEX
  8
VISIBLE_NARROW__ISO_
  5
47B
 10
24.3857
 20
-6.25535
 30
0.000000
  70
    32
  0
VERTEX
  8
VISIBLE_NARROW__ISO_
  5
47C
 10
24.3877
 20
-6.25181
 30
0.000000
  70
    32
  0
VERTEX
  8
VISIBLE_NARROW__ISO_
  5
47D
 10
24.3898
 20
-6.24827
 30
0.000000
  70
    32
  0
VERTEX
  8
VISIBLE_NARROW__ISO_
  5
47E
 10
24.3918
 20
-6.24471
 30
0.000000
  70
    32
  0
VERTEX
  8
VISIBLE_NARROW__ISO_
  5
47F
 10
24.3939
 20
-6.24116
 30
0.000000
  70
    32
  0
VERTEX
  8
VISIBLE_NARROW__ISO_
  5
480
 10
24.3959
 20
-6.23759
 30
0.000000
  70
    32
  0
VERTEX
  8
VISIBLE_NARROW__ISO_
  5
481
 10
24.3979
 20
-6.23402
 30
0.000000
  70
    32
  0
VERTEX
  8
VISIBLE_NARROW__ISO_
  5
482
 10
24.3999
 20
-6.23045
 30
0.000000
  70
    32
  0
VERTEX
  8
VISIBLE_NARROW__ISO_
  5
483
 10
24.4019
 20
-6.22686
 30
0.000000
  70
    32
  0
VERTEX
  8
VISIBLE_NARROW__ISO_
  5
484
 10
24.4039
 20
-6.22327
 30
0.000000
  70
    32
  0
VERTEX
  8
VISIBLE_NARROW__ISO_
  5
485
 10
24.4059
 20
-6.21968
 30
0.000000
  70
    32
  0
VERTEX
  8
VISIBLE_NARROW__ISO_
  5
486
 10
24.4078
 20
-6.21608
 30
0.000000
  70
    32
  0
VERTEX
  8
VISIBLE_NARROW__ISO_
  5
487
 10
24.4098
 20
-6.21247
 30
0.000000
  70
    32
  0
VERTEX
  8
VISIBLE_NARROW__ISO_
  5
488
 10
24.4117
 20
-6.20886
 30
0.000000
  70
    32
  0
VERTEX
  8
VISIBLE_NARROW__ISO_
  5
489
 10
24.4137
 20
-6.20524
 30
0.000000
  70
    32
  0
VERTEX
  8
VISIBLE_NARROW__ISO_
  5
48A
 10
24.4156
 20
-6.20162
 30
0.000000
  70
    32
  0
VERTEX
  8
VISIBLE_NARROW__ISO_
  5
48B
 10
24.4175
 20
-6.19798
 30
0.000000
  70
    32
  0
VERTEX
  8
VISIBLE_NARROW__ISO_
  5
48C
 10
24.4194
 20
-6.19435
 30
0.000000
  70
    32
  0
VERTEX
  8
VISIBLE_NARROW__ISO_
  5
48D
 10
24.4213
 20
-6.19071
 30
0.000000
  70
    32
  0
VERTEX
  8
VISIBLE_NARROW__ISO_
  5
48E
 10
24.4231
 20
-6.18706
 30
0.000000
  70
    32
  0
VERTEX
  8
VISIBLE_NARROW__ISO_
  5
48F
 10
24.4250
 20
-6.18340
 30
0.000000
  70
    32
  0
VERTEX
  8
VISIBLE_NARROW__ISO_
  5
490
 10
24.4269
 20
-6.17975
 30
0.000000
  70
    32
  0
VERTEX
  8
VISIBLE_NARROW__ISO_
  5
491
 10
24.4287
 20
-6.17608
 30
0.000000
  70
    32
  0
VERTEX
  8
VISIBLE_NARROW__ISO_
  5
492
 10
24.4305
 20
-6.17241
 30
0.000000
  70
    32
  0
VERTEX
  8
VISIBLE_NARROW__ISO_
  5
493
 10
24.4323
 20
-6.16873
 30
0.000000
  70
    32
  0
VERTEX
  8
VISIBLE_NARROW__ISO_
  5
494
 10
24.4342
 20
-6.16505
 30
0.000000
  70
    32
  0
VERTEX
  8
VISIBLE_NARROW__ISO_
  5
495
 10
24.4359
 20
-6.16136
 30
0.000000
  70
    32
  0
VERTEX
  8
VISIBLE_NARROW__ISO_
  5
496
 10
24.4377
 20
-6.15767
 30
0.000000
  70
    32
  0
VERTEX
  8
VISIBLE_NARROW__ISO_
  5
497
 10
24.4395
 20
-6.15397
 30
0.000000
  70
    32
  0
VERTEX
  8
VISIBLE_NARROW__ISO_
  5
498
 10
24.4413
 20
-6.15027
 30
0.000000
  70
    32
  0
VERTEX
  8
VISIBLE_NARROW__ISO_
  5
499
 10
24.4430
 20
-6.14656
 30
0.000000
  70
    32
  0
VERTEX
  8
VISIBLE_NARROW__ISO_
  5
49A
 10
24.4447
 20
-6.14285
 30
0.000000
  70
    32
  0
VERTEX
  8
VISIBLE_NARROW__ISO_
  5
49B
 10
24.4465
 20
-6.13913
 30
0.000000
  70
    32
  0
VERTEX
  8
VISIBLE_NARROW__ISO_
  5
49C
 10
24.4482
 20
-6.13540
 30
0.000000
  70
    32
  0
VERTEX
  8
VISIBLE_NARROW__ISO_
  5
49D
 10
24.4499
 20
-6.13167
 30
0.000000
  70
    32
  0
VERTEX
  8
VISIBLE_NARROW__ISO_
  5
49E
 10
24.4516
 20
-6.12794
 30
0.000000
  70
    32
  0
VERTEX
  8
VISIBLE_NARROW__ISO_
  5
49F
 10
24.4533
 20
-6.12420
 30
0.000000
  70
    32
  0
VERTEX
  8
VISIBLE_NARROW__ISO_
  5
4A0
 10
24.4549
 20
-6.12045
 30
0.000000
  70
    32
  0
VERTEX
  8
VISIBLE_NARROW__ISO_
  5
4A1
 10
24.4566
 20
-6.11670
 30
0.000000
  70
    32
  0
VERTEX
  8
VISIBLE_NARROW__ISO_
  5
4A2
 10
24.4582
 20
-6.11294
 30
0.000000
  70
    32
  0
VERTEX
  8
VISIBLE_NARROW__ISO_
  5
4A3
 10
24.4599
 20
-6.10918
 30
0.000000
  70
    32
  0
VERTEX
  8
VISIBLE_NARROW__ISO_
  5
4A4
 10
24.4615
 20
-6.10542
 30
0.000000
  70
    32
  0
VERTEX
  8
VISIBLE_NARROW__ISO_
  5
4A5
 10
24.4631
 20
-6.10165
 30
0.000000
  70
    32
  0
VERTEX
  8
VISIBLE_NARROW__ISO_
  5
4A6
 10
24.4647
 20
-6.09787
 30
0.000000
  70
    32
  0
VERTEX
  8
VISIBLE_NARROW__ISO_
  5
4A7
 10
24.4663
 20
-6.09409
 30
0.000000
  70
    32
  0
VERTEX
  8
VISIBLE_NARROW__ISO_
  5
4A8
 10
24.4679
 20
-6.09031
 30
0.000000
  70
    32
  0
VERTEX
  8
VISIBLE_NARROW__ISO_
  5
4A9
 10
24.4694
 20
-6.08652
 30
0.000000
  70
    32
  0
VERTEX
  8
VISIBLE_NARROW__ISO_
  5
4AA
 10
24.4710
 20
-6.08272
 30
0.000000
  70
    32
  0
VERTEX
  8
VISIBLE_NARROW__ISO_
  5
4AB
 10
24.4725
 20
-6.07892
 30
0.000000
  70
    32
  0
VERTEX
  8
VISIBLE_NARROW__ISO_
  5
4AC
 10
24.4741
 20
-6.07512
 30
0.000000
  70
    32
  0
VERTEX
  8
VISIBLE_NARROW__ISO_
  5
4AD
 10
24.4756
 20
-6.07131
 30
0.000000
  70
    32
  0
VERTEX
  8
VISIBLE_NARROW__ISO_
  5
4AE
 10
24.4771
 20
-6.06749
 30
0.000000
  70
    32
  0
VERTEX
  8
VISIBLE_NARROW__ISO_
  5
4AF
 10
24.4786
 20
-6.06367
 30
0.000000
  70
    32
  0
VERTEX
  8
VISIBLE_NARROW__ISO_
  5
4B0
 10
24.4801
 20
-6.05985
 30
0.000000
  70
    32
  0
VERTEX
  8
VISIBLE_NARROW__ISO_
  5
4B1
 10
24.4815
 20
-6.05602
 30
0.000000
  70
    32
  0
VERTEX
  8
VISIBLE_NARROW__ISO_
  5
4B2
 10
24.4830
 20
-6.05219
 30
0.000000
  70
    32
  0
VERTEX
  8
VISIBLE_NARROW__ISO_
  5
4B3
 10
24.4844
 20
-6.04836
 30
0.000000
  70
    32
  0
VERTEX
  8
VISIBLE_NARROW__ISO_
  5
4B4
 10
24.4859
 20
-6.04451
 30
0.000000
  70
    32
  0
VERTEX
  8
VISIBLE_NARROW__ISO_
  5
4B5
 10
24.4873
 20
-6.04067
 30
0.000000
  70
    32
  0
VERTEX
  8
VISIBLE_NARROW__ISO_
  5
4B6
 10
24.4887
 20
-6.03682
 30
0.000000
  70
    32
  0
VERTEX
  8
VISIBLE_NARROW__ISO_
  5
4B7
 10
24.4901
 20
-6.03297
 30
0.000000
  70
    32
  0
VERTEX
  8
VISIBLE_NARROW__ISO_
  5
4B8
 10
24.4915
 20
-6.02911
 30
0.000000
  70
    32
  0
VERTEX
  8
VISIBLE_NARROW__ISO_
  5
4B9
 10
24.4929
 20
-6.02525
 30
0.000000
  70
    32
  0
VERTEX
  8
VISIBLE_NARROW__ISO_
  5
4BA
 10
24.4942
 20
-6.02138
 30
0.000000
  70
    32
  0
VERTEX
  8
VISIBLE_NARROW__ISO_
  5
4BB
 10
24.4956
 20
-6.01751
 30
0.000000
  70
    32
  0
VERTEX
  8
VISIBLE_NARROW__ISO_
  5
4BC
 10
24.4969
 20
-6.01363
 30
0.000000
  70
    32
  0
VERTEX
  8
VISIBLE_NARROW__ISO_
  5
4BD
 10
24.4983
 20
-6.00975
 30
0.000000
  70
    32
  0
VERTEX
  8
VISIBLE_NARROW__ISO_
  5
4BE
 10
24.4996
 20
-6.00587
 30
0.000000
  70
    32
  0
VERTEX
  8
VISIBLE_NARROW__ISO_
  5
4BF
 10
24.5009
 20
-6.00198
 30
0.000000
  70
    32
  0
VERTEX
  8
VISIBLE_NARROW__ISO_
  5
4C0
 10
24.5022
 20
-5.99809
 30
0.000000
  70
    32
  0
VERTEX
  8
VISIBLE_NARROW__ISO_
  5
4C1
 10
24.5035
 20
-5.99420
 30
0.000000
  70
    32
  0
VERTEX
  8
VISIBLE_NARROW__ISO_
  5
4C2
 10
24.5047
 20
-5.99030
 30
0.000000
  70
    32
  0
VERTEX
  8
VISIBLE_NARROW__ISO_
  5
4C3
 10
24.5060
 20
-5.98639
 30
0.000000
  70
    32
  0
VERTEX
  8
VISIBLE_NARROW__ISO_
  5
4C4
 10
24.5072
 20
-5.98249
 30
0.000000
  70
    32
  0
VERTEX
  8
VISIBLE_NARROW__ISO_
  5
4C5
 10
24.5085
 20
-5.97858
 30
0.000000
  70
    32
  0
VERTEX
  8
VISIBLE_NARROW__ISO_
  5
4C6
 10
24.5097
 20
-5.97466
 30
0.000000
  70
    32
  0
VERTEX
  8
VISIBLE_NARROW__ISO_
  5
4C7
 10
24.5109
 20
-5.97074
 30
0.000000
  70
    32
  0
VERTEX
  8
VISIBLE_NARROW__ISO_
  5
4C8
 10
24.5121
 20
-5.96682
 30
0.000000
  70
    32
  0
VERTEX
  8
VISIBLE_NARROW__ISO_
  5
4C9
 10
24.5133
 20
-5.96289
 30
0.000000
  70
    32
  0
VERTEX
  8
VISIBLE_NARROW__ISO_
  5
4CA
 10
24.5144
 20
-5.95897
 30
0.000000
  70
    32
  0
VERTEX
  8
VISIBLE_NARROW__ISO_
  5
4CB
 10
24.5156
 20
-5.95503
 30
0.000000
  70
    32
  0
VERTEX
  8
VISIBLE_NARROW__ISO_
  5
4CC
 10
24.5168
 20
-5.95110
 30
0.000000
  70
    32
  0
VERTEX
  8
VISIBLE_NARROW__ISO_
  5
4CD
 10
24.5179
 20
-5.94716
 30
0.000000
  70
    32
  0
VERTEX
  8
VISIBLE_NARROW__ISO_
  5
4CE
 10
24.5190
 20
-5.94321
 30
0.000000
  70
    32
  0
VERTEX
  8
VISIBLE_NARROW__ISO_
  5
4CF
 10
24.5201
 20
-5.93927
 30
0.000000
  70
    32
  0
VERTEX
  8
VISIBLE_NARROW__ISO_
  5
4D0
 10
24.5212
 20
-5.93532
 30
0.000000
  70
    32
  0
VERTEX
  8
VISIBLE_NARROW__ISO_
  5
4D1
 10
24.5223
 20
-5.93136
 30
0.000000
  70
    32
  0
VERTEX
  8
VISIBLE_NARROW__ISO_
  5
4D2
 10
24.5234
 20
-5.92741
 30
0.000000
  70
    32
  0
VERTEX
  8
VISIBLE_NARROW__ISO_
  5
4D3
 10
24.5244
 20
-5.92345
 30
0.000000
  70
    32
  0
VERTEX
  8
VISIBLE_NARROW__ISO_
  5
4D4
 10
24.5255
 20
-5.91948
 30
0.000000
  70
    32
  0
VERTEX
  8
VISIBLE_NARROW__ISO_
  5
4D5
 10
24.5265
 20
-5.91552
 30
0.000000
  70
    32
  0
VERTEX
  8
VISIBLE_NARROW__ISO_
  5
4D6
 10
24.5276
 20
-5.91155
 30
0.000000
  70
    32
  0
VERTEX
  8
VISIBLE_NARROW__ISO_
  5
4D7
 10
24.5286
 20
-5.90757
 30
0.000000
  70
    32
  0
VERTEX
  8
VISIBLE_NARROW__ISO_
  5
4D8
 10
24.5296
 20
-5.90360
 30
0.000000
  70
    32
  0
VERTEX
  8
VISIBLE_NARROW__ISO_
  5
4D9
 10
24.5306
 20
-5.89962
 30
0.000000
  70
    32
  0
VERTEX
  8
VISIBLE_NARROW__ISO_
  5
4DA
 10
24.5315
 20
-5.89564
 30
0.000000
  70
    32
  0
VERTEX
  8
VISIBLE_NARROW__ISO_
  5
4DB
 10
24.5325
 20
-5.89165
 30
0.000000
  70
    32
  0
VERTEX
  8
VISIBLE_NARROW__ISO_
  5
4DC
 10
24.5335
 20
-5.88766
 30
0.000000
  70
    32
  0
VERTEX
  8
VISIBLE_NARROW__ISO_
  5
4DD
 10
24.5344
 20
-5.88367
 30
0.000000
  70
    32
  0
VERTEX
  8
VISIBLE_NARROW__ISO_
  5
4DE
 10
24.5353
 20
-5.87968
 30
0.000000
  70
    32
  0
VERTEX
  8
VISIBLE_NARROW__ISO_
  5
4DF
 10
24.5362
 20
-5.87568
 30
0.000000
  70
    32
  0
VERTEX
  8
VISIBLE_NARROW__ISO_
  5
4E0
 10
24.5372
 20
-5.87168
 30
0.000000
  70
    32
  0
VERTEX
  8
VISIBLE_NARROW__ISO_
  5
4E1
 10
24.5380
 20
-5.86768
 30
0.000000
  70
    32
  0
VERTEX
  8
VISIBLE_NARROW__ISO_
  5
4E2
 10
24.5389
 20
-5.86367
 30
0.000000
  70
    32
  0
VERTEX
  8
VISIBLE_NARROW__ISO_
  5
4E3
 10
24.5398
 20
-5.85967
 30
0.000000
  70
    32
  0
VERTEX
  8
VISIBLE_NARROW__ISO_
  5
4E4
 10
24.5406
 20
-5.85566
 30
0.000000
  70
    32
  0
VERTEX
  8
VISIBLE_NARROW__ISO_
  5
4E5
 10
24.5415
 20
-5.85164
 30
0.000000
  70
    32
  0
VERTEX
  8
VISIBLE_NARROW__ISO_
  5
4E6
 10
24.5423
 20
-5.84763
 30
0.000000
  70
    32
  0
VERTEX
  8
VISIBLE_NARROW__ISO_
  5
4E7
 10
24.5431
 20
-5.84361
 30
0.000000
  70
    32
  0
VERTEX
  8
VISIBLE_NARROW__ISO_
  5
4E8
 10
24.5439
 20
-5.83959
 30
0.000000
  70
    32
  0
VERTEX
  8
VISIBLE_NARROW__ISO_
  5
4E9
 10
24.5447
 20
-5.83557
 30
0.000000
  70
    32
  0
VERTEX
  8
VISIBLE_NARROW__ISO_
  5
4EA
 10
24.5455
 20
-5.83154
 30
0.000000
  70
    32
  0
VERTEX
  8
VISIBLE_NARROW__ISO_
  5
4EB
 10
24.5463
 20
-5.82752
 30
0.000000
  70
    32
  0
VERTEX
  8
VISIBLE_NARROW__ISO_
  5
4EC
 10
24.5470
 20
-5.82349
 30
0.000000
  70
    32
  0
VERTEX
  8
VISIBLE_NARROW__ISO_
  5
4ED
 10
24.5478
 20
-5.81945
 30
0.000000
  70
    32
  0
VERTEX
  8
VISIBLE_NARROW__ISO_
  5
4EE
 10
24.5485
 20
-5.81542
 30
0.000000
  70
    32
  0
VERTEX
  8
VISIBLE_NARROW__ISO_
  5
4EF
 10
24.5492
 20
-5.81138
 30
0.000000
  70
    32
  0
VERTEX
  8
VISIBLE_NARROW__ISO_
  5
4F0
 10
24.5499
 20
-5.80734
 30
0.000000
  70
    32
  0
VERTEX
  8
VISIBLE_NARROW__ISO_
  5
4F1
 10
24.5506
 20
-5.80330
 30
0.000000
  70
    32
  0
VERTEX
  8
VISIBLE_NARROW__ISO_
  5
4F2
 10
24.5513
 20
-5.79926
 30
0.000000
  70
    32
  0
VERTEX
  8
VISIBLE_NARROW__ISO_
  5
4F3
 10
24.5520
 20
-5.79522
 30
0.000000
  70
    32
  0
VERTEX
  8
VISIBLE_NARROW__ISO_
  5
4F4
 10
24.5526
 20
-5.79117
 30
0.000000
  70
    32
  0
VERTEX
  8
VISIBLE_NARROW__ISO_
  5
4F5
 10
24.5533
 20
-5.78712
 30
0.000000
  70
    32
  0
VERTEX
  8
VISIBLE_NARROW__ISO_
  5
4F6
 10
24.5539
 20
-5.78307
 30
0.000000
  70
    32
  0
VERTEX
  8
VISIBLE_NARROW__ISO_
  5
4F7
 10
24.5545
 20
-5.77902
 30
0.000000
  70
    32
  0
VERTEX
  8
VISIBLE_NARROW__ISO_
  5
4F8
 10
24.5551
 20
-5.77496
 30
0.000000
  70
    32
  0
VERTEX
  8
VISIBLE_NARROW__ISO_
  5
4F9
 10
24.5557
 20
-5.77090
 30
0.000000
  70
    32
  0
VERTEX
  8
VISIBLE_NARROW__ISO_
  5
4FA
 10
24.5563
 20
-5.76685
 30
0.000000
  70
    32
  0
VERTEX
  8
VISIBLE_NARROW__ISO_
  5
4FB
 10
24.5569
 20
-5.76279
 30
0.000000
  70
    32
  0
VERTEX
  8
VISIBLE_NARROW__ISO_
  5
4FC
 10
24.5574
 20
-5.75872
 30
0.000000
  70
    32
  0
VERTEX
  8
VISIBLE_NARROW__ISO_
  5
4FD
 10
24.5580
 20
-5.75466
 30
0.000000
  70
    32
  0
VERTEX
  8
VISIBLE_NARROW__ISO_
  5
4FE
 10
24.5585
 20
-5.75059
 30
0.000000
  70
    32
  0
VERTEX
  8
VISIBLE_NARROW__ISO_
  5
4FF
 10
24.5590
 20
-5.74653
 30
0.000000
  70
    32
  0
VERTEX
  8
VISIBLE_NARROW__ISO_
  5
500
 10
24.5596
 20
-5.74246
 30
0.000000
  70
    32
  0
VERTEX
  8
VISIBLE_NARROW__ISO_
  5
501
 10
24.5600
 20
-5.73839
 30
0.000000
  70
    32
  0
VERTEX
  8
VISIBLE_NARROW__ISO_
  5
502
 10
24.5605
 20
-5.73432
 30
0.000000
  70
    32
  0
VERTEX
  8
VISIBLE_NARROW__ISO_
  5
503
 10
24.5610
 20
-5.73025
 30
0.000000
  70
    32
  0
VERTEX
  8
VISIBLE_NARROW__ISO_
  5
504
 10
24.5615
 20
-5.72617
 30
0.000000
  70
    32
  0
VERTEX
  8
VISIBLE_NARROW__ISO_
  5
505
 10
24.5619
 20
-5.72210
 30
0.000000
  70
    32
  0
VERTEX
  8
VISIBLE_NARROW__ISO_
  5
506
 10
24.5623
 20
-5.71802
 30
0.000000
  70
    32
  0
VERTEX
  8
VISIBLE_NARROW__ISO_
  5
507
 10
24.5628
 20
-5.71394
 30
0.000000
  70
    32
  0
VERTEX
  8
VISIBLE_NARROW__ISO_
  5
508
 10
24.5632
 20
-5.70986
 30
0.000000
  70
    32
  0
VERTEX
  8
VISIBLE_NARROW__ISO_
  5
509
 10
24.5636
 20
-5.70578
 30
0.000000
  70
    32
  0
VERTEX
  8
VISIBLE_NARROW__ISO_
  5
50A
 10
24.5639
 20
-5.70170
 30
0.000000
  70
    32
  0
VERTEX
  8
VISIBLE_NARROW__ISO_
  5
50B
 10
24.5643
 20
-5.69762
 30
0.000000
  70
    32
  0
VERTEX
  8
VISIBLE_NARROW__ISO_
  5
50C
 10
24.5647
 20
-5.69353
 30
0.000000
  70
    32
  0
VERTEX
  8
VISIBLE_NARROW__ISO_
  5
50D
 10
24.5650
 20
-5.68945
 30
0.000000
  70
    32
  0
VERTEX
  8
VISIBLE_NARROW__ISO_
  5
50E
 10
24.5653
 20
-5.68536
 30
0.000000
  70
    32
  0
VERTEX
  8
VISIBLE_NARROW__ISO_
  5
50F
 10
24.5657
 20
-5.68127
 30
0.000000
  70
    32
  0
VERTEX
  8
VISIBLE_NARROW__ISO_
  5
510
 10
24.5660
 20
-5.67718
 30
0.000000
  70
    32
  0
VERTEX
  8
VISIBLE_NARROW__ISO_
  5
511
 10
24.5663
 20
-5.67310
 30
0.000000
  70
    32
  0
VERTEX
  8
VISIBLE_NARROW__ISO_
  5
512
 10
24.5666
 20
-5.66901
 30
0.000000
  70
    32
  0
VERTEX
  8
VISIBLE_NARROW__ISO_
  5
513
 10
24.5668
 20
-5.66491
 30
0.000000
  70
    32
  0
VERTEX
  8
VISIBLE_NARROW__ISO_
  5
514
 10
24.5671
 20
-5.66082
 30
0.000000
  70
    32
  0
VERTEX
  8
VISIBLE_NARROW__ISO_
  5
515
 10
24.5673
 20
-5.65673
 30
0.000000
  70
    32
  0
VERTEX
  8
VISIBLE_NARROW__ISO_
  5
516
 10
24.5676
 20
-5.65264
 30
0.000000
  70
    32
  0
VERTEX
  8
VISIBLE_NARROW__ISO_
  5
517
 10
24.5678
 20
-5.64854
 30
0.000000
  70
    32
  0
VERTEX
  8
VISIBLE_NARROW__ISO_
  5
518
 10
24.5680
 20
-5.64445
 30
0.000000
  70
    32
  0
VERTEX
  8
VISIBLE_NARROW__ISO_
  5
519
 10
24.5682
 20
-5.64035
 30
0.000000
  70
    32
  0
VERTEX
  8
VISIBLE_NARROW__ISO_
  5
51A
 10
24.5684
 20
-5.63626
 30
0.000000
  70
    32
  0
VERTEX
  8
VISIBLE_NARROW__ISO_
  5
51B
 10
24.5685
 20
-5.63216
 30
0.000000
  70
    32
  0
VERTEX
  8
VISIBLE_NARROW__ISO_
  5
51C
 10
24.5687
 20
-5.62807
 30
0.000000
  70
    32
  0
VERTEX
  8
VISIBLE_NARROW__ISO_
  5
51D
 10
24.5688
 20
-5.62397
 30
0.000000
  70
    32
  0
VERTEX
  8
VISIBLE_NARROW__ISO_
  5
51E
 10
24.5690
 20
-5.61987
 30
0.000000
  70
    32
  0
VERTEX
  8
VISIBLE_NARROW__ISO_
  5
51F
 10
24.5691
 20
-5.61577
 30
0.000000
  70
    32
  0
VERTEX
  8
VISIBLE_NARROW__ISO_
  5
520
 10
24.5692
 20
-5.61167
 30
0.000000
  70
    32
  0
VERTEX
  8
VISIBLE_NARROW__ISO_
  5
521
 10
24.5693
 20
-5.60758
 30
0.000000
  70
    32
  0
VERTEX
  8
VISIBLE_NARROW__ISO_
  5
522
 10
24.5694
 20
-5.60348
 30
0.000000
  70
    32
  0
VERTEX
  8
VISIBLE_NARROW__ISO_
  5
523
 10
24.5694
 20
-5.59938
 30
0.000000
  70
    32
  0
VERTEX
  8
VISIBLE_NARROW__ISO_
  5
524
 10
24.5695
 20
-5.59528
 30
0.000000
  70
    32
  0
VERTEX
  8
VISIBLE_NARROW__ISO_
  5
525
 10
24.5695
 20
-5.59118
 30
0.000000
  70
    32
  0
VERTEX
  8
VISIBLE_NARROW__ISO_
  5
526
 10
24.5695
 20
-5.58708
 30
0.000000
  70
    32
  0
VERTEX
  8
VISIBLE_NARROW__ISO_
  5
527
 10
24.5696
 20
-5.58298
 30
0.000000
  70
    32
  0
VERTEX
  8
VISIBLE_NARROW__ISO_
  5
528
 10
24.5696
 20
-5.57888
 30
0.000000
  70
    32
  0
SEQEND
  8
VISIBLE_NARROW__ISO_
  5
529
  0
LINE
  5
BA
 67
     1
  8
VISIBLE_NARROW__ISO_
 10
24.5695719178571608
 20
12.1910279260965204
 30
0.0
 11
24.5695719178571608
 21
-5.5790455592821777
 31
0.0
  0
ARC
  5
BB
 67
     1
  8
0
 10
22.6010679808492796
 20
12.1910279260965204
 30
0.0
 40
1.9685039370078741
 50
0.0
 51
90.0
  0
ARC
  5
BC
 67
     1
  8
SKETCH_GEOMETRY__ISO_
 10
-6.0882819868260176
 20
-5.5797987715968134
 30
0.0
 40
1.332813711578245
 50
179.9450642026421008
 51
270.0549357973707743
  0
LINE
  5
BD
 67
     1
  8
VISIBLE__ISO_
 10
-5.4525914003023672
 20
14.1595318631043998
 30
0.0
 11
22.6010679808492796
 21
14.1595318631043998
 31
0.0
  0
ARC
  5
BE
 67
     1
  8
0
 10
-5.4525914003023672
 20
12.1910279260965204
 30
0.0
 40
1.9685039370078741
 50
90.0
 51
180.0
  0
ENDSEC
  0
EOF
