  0
SECTION
  2
HEADER
  9
$ACADVER
  1
AC1009
  9
$INSBASE
 10
0.0
 20
0.0
 30
0.0
  9
$EXTMIN
 10
7.4668099999999997
 20
-137.2250860740321059
 30
0.0
  9
$EXTMAX
 10
847.6239999999997963
 20
428.9284834061865013
 30
0.0
  9
$LIMMIN
 10
0.0
 20
0.0
  9
$LIMMAX
 10
12.0
 20
9.0
  9
$ORTHOMODE
 70
     0
  9
$REGENMODE
 70
     1
  9
$FILLMODE
 70
     1
  9
$QTEXTMODE
 70
     0
  9
$MIRRTEXT
 70
     0
  9
$DRAGMODE
 70
     2
  9
$LTSCALE
 40
1.0
  9
$OSMODE
 70
   695
  9
$ATTMODE
 70
     1
  9
$TEXTSIZE
 40
0.2
  9
$TRACEWID
 40
0.05
  9
$TEXTSTYLE
  7
STANDARD
  9
$CLAYER
  8
0
  9
$CELTYPE
  6
BYLAYER
  9
$CECOLOR
 62
   256
  9
$DIMSCALE
 40
1.0
  9
$DIMASZ
 40
0.18
  9
$DIMEXO
 40
0.0625
  9
$DIMDLI
 40
0.38
  9
$DIMRND
 40
0.0
  9
$DIMDLE
 40
0.0
  9
$DIMEXE
 40
0.18
  9
$DIMTP
 40
0.0
  9
$DIMTM
 40
0.0
  9
$DIMTXT
 40
0.18
  9
$DIMCEN
 40
0.09
  9
$DIMTSZ
 40
0.0
  9
$DIMTOL
 70
     0
  9
$DIMLIM
 70
     0
  9
$DIMTIH
 70
     1
  9
$DIMTOH
 70
     1
  9
$DIMSE1
 70
     0
  9
$DIMSE2
 70
     0
  9
$DIMTAD
 70
     0
  9
$DIMZIN
 70
     0
  9
$DIMBLK
  1

  9
$DIMASO
 70
     1
  9
$DIMSHO
 70
     1
  9
$DIMPOST
  1

  9
$DIMAPOST
  1

  9
$DIMALT
 70
     0
  9
$DIMALTD
 70
     2
  9
$DIMALTF
 40
25.3999999999999986
  9
$DIMLFAC
 40
1.0
  9
$DIMTOFL
 70
     0
  9
$DIMTVP
 40
0.0
  9
$DIMTIX
 70
     0
  9
$DIMSOXD
 70
     0
  9
$DIMSAH
 70
     0
  9
$DIMBLK1
  1

  9
$DIMBLK2
  1

  9
$DIMSTYLE
  2
STANDARD
  9
$DIMCLRD
 70
     0
  9
$DIMCLRE
 70
     0
  9
$DIMCLRT
 70
     0
  9
$DIMTFAC
 40
1.0
  9
$DIMGAP
 40
0.09
  9
$LUNITS
 70
     2
  9
$LUPREC
 70
     4
  9
$SKETCHINC
 40
0.1
  9
$FILLETRAD
 40
0.0
  9
$AUNITS
 70
     0
  9
$AUPREC
 70
     0
  9
$MENU
  1
.
  9
$ELEVATION
 40
0.0
  9
$PELEVATION
 40
0.0
  9
$THICKNESS
 40
0.0
  9
$LIMCHECK
 70
     0
  9
$BLIPMODE
 70
     0
  9
$CHAMFERA
 40
0.0
  9
$CHAMFERB
 40
0.0
  9
$SKPOLY
 70
     0
  9
$TDCREATE
 40
2459084.5415277779102325
  9
$TDUPDATE
 40
2459084.5648611108772457
  9
$TDINDWG
 40
0.0067939815
  9
$TDUSRTIMER
 40
0.0067939815
  9
$USRTIMER
 70
     1
  9
$ANGBASE
 50
0.0
  9
$ANGDIR
 70
     0
  9
$PDMODE
 70
     0
  9
$PDSIZE
 40
0.0
  9
$PLINEWID
 40
0.0
  9
$COORDS
 70
     1
  9
$SPLFRAME
 70
     0
  9
$SPLINETYPE
 70
     6
  9
$SPLINESEGS
 70
     8
  9
$ATTDIA
 70
     1
  9
$ATTREQ
 70
     1
  9
$HANDLING
 70
     1
  9
$HANDSEED
  5
B34
  9
$SURFTAB1
 70
     6
  9
$SURFTAB2
 70
     6
  9
$SURFTYPE
 70
     6
  9
$SURFU
 70
     6
  9
$SURFV
 70
     6
  9
$UCSNAME
  2

  9
$UCSORG
 10
0.0
 20
0.0
 30
0.0
  9
$UCSXDIR
 10
1.0
 20
0.0
 30
0.0
  9
$UCSYDIR
 10
0.0
 20
1.0
 30
0.0
  9
$PUCSNAME
  2

  9
$PUCSORG
 10
0.0
 20
0.0
 30
0.0
  9
$PUCSXDIR
 10
1.0
 20
0.0
 30
0.0
  9
$PUCSYDIR
 10
0.0
 20
1.0
 30
0.0
  9
$USERI1
 70
     0
  9
$USERI2
 70
     0
  9
$USERI3
 70
     0
  9
$USERI4
 70
     0
  9
$USERI5
 70
     0
  9
$USERR1
 40
0.0
  9
$USERR2
 40
0.0
  9
$USERR3
 40
0.0
  9
$USERR4
 40
0.0
  9
$USERR5
 40
0.0
  9
$WORLDVIEW
 70
     1
  9
$SHADEDGE
 70
     3
  9
$SHADEDIF
 70
    70
  9
$TILEMODE
 70
     0
  9
$MAXACTVP
 70
    64
  9
$PLIMCHECK
 70
     0
  9
$PEXTMIN
 10
-1678.3659450534919415
 20
446.8710849039604796
 30
0.0
  9
$PEXTMAX
 10
-1645.2888903290829603
 20
463.5709055375647836
 30
0.0
  9
$PLIMMIN
 10
0.0
 20
0.0
  9
$PLIMMAX
 10
12.0
 20
9.0
  9
$UNITMODE
 70
     0
  9
$VISRETAIN
 70
     1
  9
$PLINEGEN
 70
     0
  9
$PSLTSCALE
 70
     1
  0
ENDSEC
  0
SECTION
  2
TABLES
  0
TABLE
  2
VPORT
 70
     1
  0
VPORT
  2
*ACTIVE
 70
     0
 10
0.0
 20
0.0
 11
1.0
 21
1.0
 12
387.2323810203989751
 22
-132.0830527465685122
 13
0.0
 23
0.0
 14
0.5
 24
0.5
 15
0.5
 25
0.5
 16
0.0
 26
0.0
 36
1.0
 17
0.0
 27
0.0
 37
0.0
 40
37.9036173674160182
 41
1.960426179604261
 42
50.0
 43
0.0
 44
0.0
 50
0.0
 51
0.0
 71
     0
 72
  1000
 73
     1
 74
     3
 75
     0
 76
     0
 77
     0
 78
     0
  0
ENDTAB
  0
TABLE
  2
LTYPE
 70
     1
  0
LTYPE
  2
CONTINUOUS
 70
     0
  3
Solid line
 72
    65
 73
     0
 40
0.0
  0
ENDTAB
  0
TABLE
  2
LAYER
 70
     3
  0
LAYER
  2
0
 70
     0
 62
     7
  6
CONTINUOUS
  0
LAYER
  2
VISIBLE_NARROW__ISO_
 70
     0
 62
     7
  6
CONTINUOUS
  0
LAYER
  2
DEFPOINTS
 70
     0
 62
     7
  6
CONTINUOUS
  0
ENDTAB
  0
TABLE
  2
STYLE
 70
     4
  0
STYLE
  2
STANDARD
 70
     0
 40
0.0
 41
1.0
 50
0.0
 71
     0
 42
0.2
  3
txt
  4

  0
STYLE
  2
ANNOTATIVE
 70
     0
 40
0.0
 41
1.0
 50
0.0
 71
     0
 42
0.2
  3
txt
  4

  0
STYLE
  2
NOTE_TEXT__ISO_
 70
     0
 40
0.0
 41
1.0
 50
0.0
 71
     0
 42
0.2
  3
txt
  4

  0
STYLE
  2
TEXT_3_5MM
 70
     0
 40
0.0
 41
0.899999976158142
 50
0.0
 71
     0
 42
0.2
  3
txt
  4

  0
ENDTAB
  0
TABLE
  2
VIEW
 70
     3
  0
ENDTAB
  0
TABLE
  2
UCS
 70
     0
  0
ENDTAB
  0
TABLE
  2
APPID
 70
     5
  0
APPID
  2
ACAD
 70
     0
  0
APPID
  2
ACADANNOTATIVE
 70
     0
  0
APPID
  2
ACAD_NAV_VCDISPLAY
 70
     0
  0
APPID
  2
ACAD_PSEXT
 70
     0
  0
APPID
  2
ACAD_MLEADERVER
 70
     0
  0
ENDTAB
  0
TABLE
  2
DIMSTYLE
 70
     4
  0
DIMSTYLE
  2
STANDARD
 70
     0
  3

  4

  5

  6

  7

 40
1.0
 41
0.18
 42
0.0625
 43
0.38
 44
0.18
 45
0.0
 46
0.0
 47
0.0
 48
0.0
140
0.18
141
0.09
142
0.0
143
25.3999999999999986
144
1.0
145
0.0
146
1.0
147
0.09
 71
     0
 72
     0
 73
     1
 74
     1
 75
     0
 76
     0
 77
     0
 78
     0
170
     0
171
     2
172
     0
173
     0
174
     0
175
     0
176
     0
177
     0
178
     0
  0
DIMSTYLE
  2
ANNOTATIVE
 70
     0
  3

  4

  5

  6

  7

 40
1.0
 41
0.18
 42
0.0625
 43
0.38
 44
0.18
 45
0.0
 46
0.0
 47
0.0
 48
0.0
140
0.18
141
0.09
142
0.0
143
25.3999999999999986
144
1.0
145
0.0
146
1.0
147
0.09
 71
     0
 72
     0
 73
     1
 74
     1
 75
     0
 76
     0
 77
     0
 78
     0
170
     0
171
     2
172
     0
173
     0
174
     0
175
     0
176
     0
177
     0
178
     0
  0
DIMSTYLE
  2
DEFAULT_-_MM__IN___ISO_
 70
     0
  3

  4
 in
  5

  6

  7

 40
6.0
 41
2.5
 42
0.0
 43
5.9999999999999991
 44
3.174999999999998
 45
0.00000001
 46
10.0
 47
0.0
 48
0.0
140
3.5
141
0.09
142
0.0
143
0.03937
144
1.0
145
0.0
146
1.0
147
0.762
 71
     0
 72
     0
 73
     0
 74
     0
 75
     0
 76
     0
 77
     1
 78
     8
170
     1
171
     3
172
     1
173
     0
174
     0
175
     0
176
   256
177
   256
178
     7
  0
DIMSTYLE
  2
KS-STANDARD
 70
     0
  3

  4

  5

  6

  7

 40
6.0
 41
2.5
 42
1.0
 43
12.0
 44
2.0
 45
0.00000001
 46
10.0
 47
0.0
 48
0.0
140
2.5
141
0.09
142
0.0
143
0.03937
144
1.0
145
0.0
146
1.0
147
0.8
 71
     0
 72
     0
 73
     0
 74
     0
 75
     0
 76
     0
 77
     1
 78
     8
170
     0
171
     3
172
     1
173
     0
174
     0
175
     0
176
     7
177
     7
178
     7
  0
ENDTAB
  0
ENDSEC
  0
SECTION
  2
BLOCKS
  0
BLOCK
  8
0
  2
$MODEL_SPACE
 70
     0
 10
0.0
 20
0.0
 30
0.0
  3
$MODEL_SPACE
  1

  0
ENDBLK
  5
614
  8
0
  0
BLOCK
 67
     1
  8
0
  2
$PAPER_SPACE
 70
     0
 10
0.0
 20
0.0
 30
0.0
  3
$PAPER_SPACE
  1

  0
ENDBLK
  5
610
 67
     1
  8
0
  0
BLOCK
  8
0
  2
*D2
 70
     1
 10
0.0
 20
0.0
 30
0.0
  3
*D2
  1

  0
LINE
  5
7E
  8
0
 10
2790.470443753094969
 20
805.4015099511849485
 30
0.0
 11
2790.470443753094969
 21
735.8074411286436316
 31
0.0
  0
LINE
  5
7F
  8
0
 10
3630.6273619872649761
 20
804.1051291176681843
 30
0.0
 11
3630.6273619872649761
 21
735.8074411286436316
 31
0.0
  0
LINE
  5
80
  8
0
 10
2805.4704437530940595
 20
754.8574411286435861
 30
0.0
 11
3615.627361987266795
 21
754.8574411286435861
 31
0.0
  0
SOLID
  5
81
  8
0
 10
2805.4704437530940595
 20
757.3574411286433588
 30
0.0
 11
2805.4704437530940595
 21
752.3574411286435861
 31
0.0
 12
2790.470443753094969
 22
754.8574411286435861
 32
0.0
 13
2790.470443753094969
 23
754.8574411286435861
 33
0.0
  0
SOLID
  5
82
  8
0
 10
3615.627361987266795
 20
757.3574411286433588
 30
0.0
 11
3615.627361987266795
 21
752.3574411286435861
 31
0.0
 12
3630.6273619872649761
 22
754.8574411286435861
 32
0.0
 13
3630.6273619872649761
 23
754.8574411286435861
 33
0.0
  0
INSERT
  5
83
  8
0
  2
*U3
 10
0.0
 20
0.0
 30
0.0
  0
POINT
  5
84
  8
DEFPOINTS
 62
     0
 10
2790.470443753094969
 20
805.4015099511849485
 30
0.0
  0
POINT
  5
85
  8
DEFPOINTS
 62
     0
 10
3630.6273619872649761
 20
804.1051291176681843
 30
0.0
  0
POINT
  5
86
  8
DEFPOINTS
 62
     0
 10
3630.6273619872649761
 20
754.8574411286435861
 30
0.0
  0
ENDBLK
  5
87
  8
0
  0
BLOCK
  8
0
  2
*U3
 70
     1
 10
0.0
 20
0.0
 30
0.0
  3
*U3
  1

  0
TEXT
  5
17E
  8
0
 62
     7
 10
3124.9778773881321285
 20
765.3025652759835111
 30
0.0
 40
21.0
  1
840,2MM [33 in]
  7
NOTE_TEXT__ISO_
  0
ENDBLK
  5
180
  8
0
  0
BLOCK
  8
0
  2
*D4
 70
     1
 10
0.0
 20
0.0
 30
0.0
  3
*D4
  1

  0
LINE
  5
B5
  8
0
 10
7.4668107228625527
 20
103.9538213772985955
 30
0.0
 11
7.4668107228625491
 21
34.3597525547568807
 31
0.0
  0
LINE
  5
B6
  8
0
 10
847.6237289570340181
 20
102.657440543781405
 30
0.0
 11
847.6237289570340181
 21
34.3597525547568807
 31
0.0
  0
LINE
  5
B7
  8
0
 10
22.4668107228625509
 20
53.4097525547568708
 30
0.0
 11
832.6237289570340181
 21
53.4097525547568708
 31
0.0
  0
SOLID
  5
B8
  8
0
 10
22.4668107228625509
 20
55.9097525547568708
 30
0.0
 11
22.4668107228625509
 21
50.9097525547568708
 31
0.0
 12
7.4668107228625509
 22
53.4097525547568708
 32
0.0
 13
7.4668107228625509
 23
53.4097525547568708
 33
0.0
  0
SOLID
  5
B9
  8
0
 10
832.6237289570340181
 20
55.9097525547568708
 30
0.0
 11
832.6237289570340181
 21
50.9097525547568708
 31
0.0
 12
847.6237289570340181
 22
53.4097525547568708
 32
0.0
 13
847.6237289570340181
 23
53.4097525547568708
 33
0.0
  0
INSERT
  5
BA
  8
0
  2
*U5
 10
0.0
 20
0.0
 30
0.0
  0
POINT
  5
BB
  8
DEFPOINTS
 62
     0
 10
7.4668107228625527
 20
103.9538213772985955
 30
0.0
  0
POINT
  5
BC
  8
DEFPOINTS
 62
     0
 10
847.6237289570340181
 20
102.657440543781405
 30
0.0
  0
POINT
  5
BD
  8
DEFPOINTS
 62
     0
 10
847.6237289570340181
 20
53.4097525547568708
 30
0.0
  0
ENDBLK
  5
AB
  8
0
  0
BLOCK
  8
0
  2
*U5
 70
     1
 10
0.0
 20
0.0
 30
0.0
  3
*U5
  1

  0
TEXT
  5
186
  8
0
 62
     7
 10
341.9742443578991811
 20
63.8548767020965613
 30
0.0
 40
21.0
  1
840,2MM [33 in]
  7
NOTE_TEXT__ISO_
  0
ENDBLK
  5
188
  8
0
  0
BLOCK
  8
0
  2
*D6
 70
     1
 10
0.0
 20
0.0
 30
0.0
  3
*D6
  1

  0
LINE
  5
D2
  8
0
 10
2790.470443753094969
 20
805.4015099511849485
 30
0.0
 11
2790.470443753094969
 21
735.8074411286436316
 31
0.0
  0
LINE
  5
D3
  8
0
 10
3630.6273619872649761
 20
804.1051291176681843
 30
0.0
 11
3630.6273619872649761
 21
735.8074411286436316
 31
0.0
  0
LINE
  5
D4
  8
0
 10
2805.4704437530940595
 20
754.8574411286435861
 30
0.0
 11
3615.627361987266795
 21
754.8574411286435861
 31
0.0
  0
SOLID
  5
D5
  8
0
 10
2805.4704437530940595
 20
757.3574411286433588
 30
0.0
 11
2805.4704437530940595
 21
752.3574411286435861
 31
0.0
 12
2790.470443753094969
 22
754.8574411286435861
 32
0.0
 13
2790.470443753094969
 23
754.8574411286435861
 33
0.0
  0
SOLID
  5
D6
  8
0
 10
3615.627361987266795
 20
757.3574411286433588
 30
0.0
 11
3615.627361987266795
 21
752.3574411286435861
 31
0.0
 12
3630.6273619872649761
 22
754.8574411286435861
 32
0.0
 13
3630.6273619872649761
 23
754.8574411286435861
 33
0.0
  0
INSERT
  5
D7
  8
0
  2
*U7
 10
0.0
 20
0.0
 30
0.0
  0
POINT
  5
D8
  8
DEFPOINTS
 62
     0
 10
2790.470443753094969
 20
805.4015099511849485
 30
0.0
  0
POINT
  5
D9
  8
DEFPOINTS
 62
     0
 10
3630.6273619872649761
 20
804.1051291176681843
 30
0.0
  0
POINT
  5
DA
  8
DEFPOINTS
 62
     0
 10
3630.6273619872649761
 20
754.8574411286435861
 30
0.0
  0
ENDBLK
  5
DB
  8
0
  0
BLOCK
  8
0
  2
*U7
 70
     1
 10
0.0
 20
0.0
 30
0.0
  3
*U7
  1

  0
TEXT
  5
18B
  8
0
 62
     7
 10
3124.9778773881321285
 20
765.3025652759835111
 30
0.0
 40
21.0
  1
840,2MM [33 in]
  7
NOTE_TEXT__ISO_
  0
ENDBLK
  5
18D
  8
0
  0
BLOCK
  8
0
  2
*D8
 70
     1
 10
0.0
 20
0.0
 30
0.0
  3
*D8
  1

  0
LINE
  5
FE
  8
0
 10
-370.1742940322923801
 20
71.4282396142369862
 30
0.0
 11
-370.1742940322923801
 21
1.8341707916952841
 31
0.0
  0
LINE
  5
FF
  8
0
 10
469.9826242018788776
 20
70.131858780719881
 30
0.0
 11
469.9826242018788776
 21
1.8341707916952841
 31
0.0
  0
LINE
  5
100
  8
0
 10
-355.1742940322923801
 20
20.8841707916952792
 30
0.0
 11
454.9826242018789912
 21
20.8841707916952792
 31
0.0
  0
SOLID
  5
101
  8
0
 10
-355.1742940322923801
 20
23.3841707916952792
 30
0.0
 11
-355.1742940322923801
 21
18.3841707916952792
 31
0.0
 12
-370.1742940322923801
 22
20.8841707916952792
 32
0.0
 13
-370.1742940322923801
 23
20.8841707916952792
 33
0.0
  0
SOLID
  5
102
  8
0
 10
454.9826242018789912
 20
23.3841707916952792
 30
0.0
 11
454.9826242018789912
 21
18.3841707916952792
 31
0.0
 12
469.9826242018788776
 22
20.8841707916952792
 32
0.0
 13
469.9826242018788776
 23
20.8841707916952792
 33
0.0
  0
INSERT
  5
103
  8
0
  2
*U9
 10
0.0
 20
0.0
 30
0.0
  0
POINT
  5
104
  8
DEFPOINTS
 62
     0
 10
-370.1742940322923801
 20
71.4282396142369862
 30
0.0
  0
POINT
  5
105
  8
DEFPOINTS
 62
     0
 10
469.9826242018788776
 20
70.131858780719881
 30
0.0
  0
POINT
  5
106
  8
DEFPOINTS
 62
     0
 10
469.9826242018788776
 20
20.8841707916952792
 30
0.0
  0
ENDBLK
  5
F4
  8
0
  0
BLOCK
  8
0
  2
*U9
 70
     1
 10
0.0
 20
0.0
 30
0.0
  3
*U9
  1

  0
TEXT
  5
18F
  8
0
 62
     7
 10
-35.6668603972555971
 20
31.3292949390349804
 30
0.0
 40
21.0
  1
840,2MM [33 in]
  7
NOTE_TEXT__ISO_
  0
ENDBLK
  5
191
  8
0
  0
BLOCK
  8
0
  2
*D10
 70
     1
 10
0.0
 20
0.0
 30
0.0
  3
*D10
  1

  0
LINE
  5
63D
  8
0
 62
     0
 10
7.4668107228625527
 20
216.7782613594129941
 30
0.0
 11
7.4668107228625509
 21
191.3766212467639889
 31
0.0
  0
LINE
  5
63E
  8
0
 62
     0
 10
847.6237289570334497
 20
216.7782613594129941
 30
0.0
 11
847.6237289570334497
 21
191.3766212467639889
 31
0.0
  0
LINE
  5
63F
  8
0
 62
     0
 10
7.6468107228625506
 20
191.5566212467639957
 30
0.0
 11
426.87026983994798
 21
191.5566212467639957
 31
0.0
  0
LINE
  5
640
  8
0
 62
     0
 10
847.4437289570334997
 20
191.5566212467639957
 30
0.0
 11
428.2202698399480028
 21
191.5566212467639957
 31
0.0
  0
SOLID
  5
641
  8
0
 62
     0
 10
7.6468107228625506
 20
191.5866212467639969
 30
0.0
 11
7.6468107228625506
 21
191.5266212467639946
 31
0.0
 12
7.4668107228625509
 22
191.5566212467639957
 32
0.0
 13
7.4668107228625509
 23
191.5566212467639957
 33
0.0
  0
SOLID
  5
642
  8
0
 62
     0
 10
847.4437289570334997
 20
191.5866212467639969
 30
0.0
 11
847.4437289570334997
 21
191.5266212467639946
 31
0.0
 12
847.6237289570334497
 22
191.5566212467639957
 32
0.0
 13
847.6237289570334497
 23
191.5566212467639957
 33
0.0
  0
INSERT
  5
643
  8
0
  2
*U12
 10
0.0
 20
0.0
 30
0.0
  0
POINT
  5
644
  8
DEFPOINTS
 62
     0
 10
7.4668107228625527
 20
216.8407613594129941
 30
0.0
  0
POINT
  5
645
  8
DEFPOINTS
 62
     0
 10
847.6237289570334497
 20
216.8407613594129941
 30
0.0
  0
POINT
  5
646
  8
DEFPOINTS
 62
     0
 10
847.6237289570334497
 20
191.5566212467639957
 30
0.0
  0
ENDBLK
  5
63C
  8
0
  0
BLOCK
  8
0
  2
*U12
 70
     1
 10
0.0
 20
0.0
 30
0.0
  3
*U12
  1

  0
TEXT
  5
B31
  8
0
 62
     0
 10
426.9602698399480118
 20
191.4666212467639923
 30
0.0
 40
0.18
  1
840.1569
  0
ENDBLK
  5
B33
  8
0
  0
ENDSEC
  0
SECTION
  2
ENTITIES
  0
LINE
  5
A1
  8
VISIBLE_NARROW__ISO_
 10
402.7637503218609254
 20
-120.5252654404279014
 30
0.0
 11
371.4323421765432158
 21
-120.5252654404278019
 31
0.0
  0
POLYLINE
  5
A2
  8
VISIBLE_NARROW__ISO_
 66
     1
 10
0.0
 20
0.0
 30
0.0
 70
     8
  0
VERTEX
  5
194
  8
VISIBLE_NARROW__ISO_
 10
371.4323427121962027
 20
-120.525284472167499
 30
0.0
 70
    32
  0
VERTEX
  5
195
  8
VISIBLE_NARROW__ISO_
 10
371.4216222397553224
 20
-120.5253238422461948
 30
0.0
 70
    32
  0
VERTEX
  5
196
  8
VISIBLE_NARROW__ISO_
 10
371.4109017673142716
 20
-120.5255206926399012
 30
0.0
 70
    32
  0
VERTEX
  5
197
  8
VISIBLE_NARROW__ISO_
 10
371.4001852318812098
 20
-120.525875023348604
 30
0.0
 70
    32
  0
VERTEX
  5
198
  8
VISIBLE_NARROW__ISO_
 10
371.3894765704638985
 20
-120.5263080942146985
 30
0.0
 70
    32
  0
VERTEX
  5
199
  8
VISIBLE_NARROW__ISO_
 10
371.3787718460545193
 20
-120.5268986453958036
 30
0.0
 70
    32
  0
VERTEX
  5
19A
  8
VISIBLE_NARROW__ISO_
 10
371.3680749956607769
 20
-120.527646676891905
 30
0.0
 70
    32
  0
VERTEX
  5
19B
  8
VISIBLE_NARROW__ISO_
 10
371.3573899562907172
 20
-120.5284734485453981
 30
0.0
 70
    32
  0
VERTEX
  5
19C
  8
VISIBLE_NARROW__ISO_
 10
371.3467167279442833
 20
-120.5294577005139018
 30
0.0
 70
    32
  0
VERTEX
  5
19D
  8
VISIBLE_NARROW__ISO_
 10
371.3360553106214184
 20
-120.5305600627186067
 30
0.0
 70
    32
  0
VERTEX
  5
19E
  8
VISIBLE_NARROW__ISO_
 10
371.3254096413301113
 20
-120.5318199052382937
 30
0.0
 70
    32
  0
VERTEX
  5
19F
  8
VISIBLE_NARROW__ISO_
 10
371.3147797200701916
 20
-120.5331978579942955
 30
0.0
 70
    32
  0
VERTEX
  5
1A0
  8
VISIBLE_NARROW__ISO_
 10
371.3041694838498188
 20
-120.534693920986399
 30
0.0
 70
    32
  0
VERTEX
  5
1A1
  8
VISIBLE_NARROW__ISO_
 10
371.2935789326687086
 20
-120.5363474642934989
 30
0.0
 70
    32
  0
VERTEX
  5
1A2
  8
VISIBLE_NARROW__ISO_
 10
371.2830080665269747
 20
-120.5381191178367999
 30
0.0
 70
    32
  0
VERTEX
  5
1A3
  8
VISIBLE_NARROW__ISO_
 10
371.2724608224323788
 20
-120.540008881616302
 30
0.0
 70
    32
  0
VERTEX
  5
1A4
  8
VISIBLE_NARROW__ISO_
 10
371.261937200385205
 20
-120.5420167556320052
 30
0.0
 70
    32
  0
VERTEX
  5
1A5
  8
VISIBLE_NARROW__ISO_
 10
371.2514372003852259
 20
-120.5441821099628044
 30
0.0
 70
    32
  0
VERTEX
  5
1A6
  8
VISIBLE_NARROW__ISO_
 10
371.2409686964481921
 20
-120.5464655745297051
 30
0.0
 70
    32
  0
VERTEX
  5
1A7
  8
VISIBLE_NARROW__ISO_
 10
371.2305277515662851
 20
-120.548867149332807
 30
0.0
 70
    32
  0
VERTEX
  5
1A8
  8
VISIBLE_NARROW__ISO_
 10
371.2201183027473803
 20
-120.5513868343721953
 30
0.0
 70
    32
  0
VERTEX
  5
1A9
  8
VISIBLE_NARROW__ISO_
 10
371.2097403499914776
 20
-120.5540639997264947
 30
0.0
 70
    32
  0
VERTEX
  5
1AA
  8
VISIBLE_NARROW__ISO_
 10
371.199393893298577
 20
-120.5568592753170947
 30
0.0
 70
    32
  0
VERTEX
  5
1AB
  8
VISIBLE_NARROW__ISO_
 10
371.1890868066843723
 20
-120.5597726611438958
 30
0.0
 70
    32
  0
VERTEX
  5
1AC
  8
VISIBLE_NARROW__ISO_
 10
371.1788151531411017
 20
-120.562804157206898
 30
0.0
 70
    32
  0
VERTEX
  5
1AD
  8
VISIBLE_NARROW__ISO_
 10
371.1685828696765839
 20
-120.5659931335847972
 30
0.0
 70
    32
  0
VERTEX
  5
1AE
  8
VISIBLE_NARROW__ISO_
 10
371.1583860192827728
 20
-120.569300220198997
 30
0.0
 70
    32
  0
VERTEX
  5
1AF
  8
VISIBLE_NARROW__ISO_
 10
371.1482364129835787
 20
-120.5727254170492984
 30
0.0
 70
    32
  0
VERTEX
  5
1B0
  8
VISIBLE_NARROW__ISO_
 10
371.1381261767631941
 20
-120.5762687241359998
 30
0.0
 70
    32
  0
VERTEX
  5
1B1
  8
VISIBLE_NARROW__ISO_
 10
371.1280592476293236
 20
-120.579930141458803
 30
0.0
 70
    32
  0
VERTEX
  5
1B2
  8
VISIBLE_NARROW__ISO_
 10
371.1180434995977748
 20
-120.5837096690179067
 30
0.0
 70
    32
  0
VERTEX
  5
1B3
  8
VISIBLE_NARROW__ISO_
 10
371.1080710586529108
 20
-120.5876073068130978
 30
0.0
 70
    32
  0
VERTEX
  5
1B4
  8
VISIBLE_NARROW__ISO_
 10
371.0981497988104252
 20
-120.591662424923399
 30
0.0
 70
    32
  0
VERTEX
  5
1B5
  8
VISIBLE_NARROW__ISO_
 10
371.0882757830623859
 20
-120.5957962831911061
 30
0.0
 70
    32
  0
VERTEX
  5
1B6
  8
VISIBLE_NARROW__ISO_
 10
371.0784568854246004
 20
-120.6000876217737954
 30
0.0
 70
    32
  0
VERTEX
  5
1B7
  8
VISIBLE_NARROW__ISO_
 10
371.0686891688890796
 20
-120.6044970705927
 30
0.0
 70
    32
  0
VERTEX
  5
1B8
  8
VISIBLE_NARROW__ISO_
 10
371.0589805074719152
 20
-120.6090246296478057
 30
0.0
 70
    32
  0
VERTEX
  5
1B9
  8
VISIBLE_NARROW__ISO_
 10
371.0493230271567882
 20
-120.6136309288604025
 30
0.0
 70
    32
  0
VERTEX
  5
1BA
  8
VISIBLE_NARROW__ISO_
 10
371.0397285389678927
 20
-120.6183947083878962
 30
0.0
 70
    32
  0
VERTEX
  5
1BB
  8
VISIBLE_NARROW__ISO_
 10
371.0301891688890805
 20
-120.6232765981517048
 30
0.0
 70
    32
  0
VERTEX
  5
1BC
  8
VISIBLE_NARROW__ISO_
 10
371.0207127909363862
 20
-120.6282372280730044
 30
0.0
 70
    32
  0
VERTEX
  5
1BD
  8
VISIBLE_NARROW__ISO_
 10
371.0112994051096962
 20
-120.633355338309201
 30
0.0
 70
    32
  0
VERTEX
  5
1BE
  8
VISIBLE_NARROW__ISO_
 10
371.0019450744010214
 20
-120.6385915587815987
 30
0.0
 70
    32
  0
VERTEX
  5
1BF
  8
VISIBLE_NARROW__ISO_
 10
370.9926616098341015
 20
-120.6439065194116012
 30
0.0
 70
    32
  0
VERTEX
  5
1C0
  8
VISIBLE_NARROW__ISO_
 10
370.983441137393072
 20
-120.6493789603565006
 30
0.0
 70
    32
  0
VERTEX
  5
1C1
  8
VISIBLE_NARROW__ISO_
 10
370.974287594085979
 20
-120.6549301414588058
 30
0.0
 70
    32
  0
VERTEX
  5
1C2
  8
VISIBLE_NARROW__ISO_
 10
370.9652049169206975
 20
-120.6605994327973974
 30
0.0
 70
    32
  0
VERTEX
  5
1C3
  8
VISIBLE_NARROW__ISO_
 10
370.9561931058970004
 20
-120.6663868343722044
 30
0.0
 70
    32
  0
VERTEX
  5
1C4
  8
VISIBLE_NARROW__ISO_
 10
370.9472521610151148
 20
-120.6722529761045024
 30
0.0
 70
    32
  0
VERTEX
  5
1C5
  8
VISIBLE_NARROW__ISO_
 10
370.938382082274984
 20
-120.6782765981516974
 30
0.0
 70
    32
  0
VERTEX
  5
1C6
  8
VISIBLE_NARROW__ISO_
 10
370.9295907436923017
 20
-120.6843789603563977
 30
0.0
 70
    32
  0
VERTEX
  5
1C7
  8
VISIBLE_NARROW__ISO_
 10
370.9208702712513741
 20
-120.6905994327973985
 30
0.0
 70
    32
  0
VERTEX
  5
1C8
  8
VISIBLE_NARROW__ISO_
 10
370.9122324759758271
 20
-120.6969380154746005
 30
0.0
 70
    32
  0
VERTEX
  5
1C9
  8
VISIBLE_NARROW__ISO_
 10
370.9036694838497965
 20
-120.7033553383091942
 30
0.0
 70
    32
  0
VERTEX
  5
1CA
  8
VISIBLE_NARROW__ISO_
 10
370.8951891688890896
 20
-120.7098907713801026
 30
0.0
 70
    32
  0
VERTEX
  5
1CB
  8
VISIBLE_NARROW__ISO_
 10
370.8867875940860017
 20
-120.7165049446084026
 30
0.0
 70
    32
  0
VERTEX
  5
1CC
  8
VISIBLE_NARROW__ISO_
 10
370.8784686964481807
 20
-120.7232765981516991
 30
0.0
 70
    32
  0
VERTEX
  5
1CD
  8
VISIBLE_NARROW__ISO_
 10
370.8702324759756834
 20
-120.7301269918525009
 30
0.0
 70
    32
  0
VERTEX
  5
1CE
  8
VISIBLE_NARROW__ISO_
 10
370.8620789326686804
 20
-120.7370561257107937
 30
0.0
 70
    32
  0
VERTEX
  5
1CF
  8
VISIBLE_NARROW__ISO_
 10
370.8540159405426948
 20
-120.7441033698053019
 30
0.0
 70
    32
  0
VERTEX
  5
1D0
  8
VISIBLE_NARROW__ISO_
 10
370.8460395625900219
 20
-120.7512293540572017
 30
0.0
 70
    32
  0
VERTEX
  5
1D1
  8
VISIBLE_NARROW__ISO_
 10
370.8381497988103774
 20
-120.7584734485454021
 30
0.0
 70
    32
  0
VERTEX
  5
1D2
  8
VISIBLE_NARROW__ISO_
 10
370.8303466492041025
 20
-120.7657962831910936
 30
0.0
 70
    32
  0
VERTEX
  5
1D3
  8
VISIBLE_NARROW__ISO_
 10
370.8226379877867771
 20
-120.7732372280730004
 30
0.0
 70
    32
  0
VERTEX
  5
1D4
  8
VISIBLE_NARROW__ISO_
 10
370.8150238145585149
 20
-120.7807569131123984
 30
0.0
 70
    32
  0
VERTEX
  5
1D5
  8
VISIBLE_NARROW__ISO_
 10
370.8074962555032812
 20
-120.7883947083879974
 30
0.0
 70
    32
  0
VERTEX
  5
1D6
  8
VISIBLE_NARROW__ISO_
 10
370.8000671216450996
 20
-120.7960718737423065
 30
0.0
 70
    32
  0
VERTEX
  5
1D7
  8
VISIBLE_NARROW__ISO_
 10
370.7927324759756971
 20
-120.8039065194115977
 30
0.0
 70
    32
  0
VERTEX
  5
1D8
  8
VISIBLE_NARROW__ISO_
 10
370.7854923184955283
 20
-120.811780535159599
 30
0.0
 70
    32
  0
VERTEX
  5
1D9
  8
VISIBLE_NARROW__ISO_
 10
370.7783505862120137
 20
-120.8197726611438014
 30
0.0
 70
    32
  0
VERTEX
  5
1DA
  8
VISIBLE_NARROW__ISO_
 10
370.7713112161333129
 20
-120.8278041572067991
 30
0.0
 70
    32
  0
VERTEX
  5
1DB
  8
VISIBLE_NARROW__ISO_
 10
370.7643663342435048
 20
-120.8359537635060974
 30
0.0
 70
    32
  0
VERTEX
  5
1DC
  8
VISIBLE_NARROW__ISO_
 10
370.7575238145583967
 20
-120.8442214800414973
 30
0.0
 70
    32
  0
VERTEX
  5
1DD
  8
VISIBLE_NARROW__ISO_
 10
370.7507836570781024
 20
-120.8525285666555931
 30
0.0
 70
    32
  0
VERTEX
  5
1DE
  8
VISIBLE_NARROW__ISO_
 10
370.7441458618025081
 20
-120.8609143934272936
 30
0.0
 70
    32
  0
VERTEX
  5
1DF
  8
VISIBLE_NARROW__ISO_
 10
370.7376104287317276
 20
-120.8694183304351952
 30
0.0
 70
    32
  0
VERTEX
  5
1E0
  8
VISIBLE_NARROW__ISO_
 10
370.7311812948734087
 20
-120.8779616375218069
 30
0.0
 70
    32
  0
VERTEX
  5
1E1
  8
VISIBLE_NARROW__ISO_
 10
370.7248545232197898
 20
-120.8866230548446055
 30
0.0
 70
    32
  0
VERTEX
  5
1E2
  8
VISIBLE_NARROW__ISO_
 10
370.7186379877867921
 20
-120.8953238422461993
 30
0.0
 70
    32
  0
VERTEX
  5
1E3
  8
VISIBLE_NARROW__ISO_
 10
370.7125277515663129
 20
-120.9041427398839943
 30
0.0
 70
    32
  0
VERTEX
  5
1E4
  8
VISIBLE_NARROW__ISO_
 10
370.7065238145585226
 20
-120.9130010076004993
 30
0.0
 70
    32
  0
VERTEX
  5
1E5
  8
VISIBLE_NARROW__ISO_
 10
370.7006340507788877
 20
-120.9219380154744954
 30
0.0
 70
    32
  0
VERTEX
  5
1E6
  8
VISIBLE_NARROW__ISO_
 10
370.6948505862119987
 20
-120.9309537635060963
 30
0.0
 70
    32
  0
VERTEX
  5
1E7
  8
VISIBLE_NARROW__ISO_
 10
370.6891773578655034
 20
-120.9400482516950035
 30
0.0
 70
    32
  0
VERTEX
  5
1E8
  8
VISIBLE_NARROW__ISO_
 10
370.6836183027473908
 20
-120.949182109962706
 30
0.0
 70
    32
  0
VERTEX
  5
1E9
  8
VISIBLE_NARROW__ISO_
 10
370.678173420857604
 20
-120.9583947083879991
 30
0.0
 70
    32
  0
VERTEX
  5
1EA
  8
VISIBLE_NARROW__ISO_
 10
370.6728387751883815
 20
-120.9676860469705986
 30
0.0
 70
    32
  0
VERTEX
  5
1EB
  8
VISIBLE_NARROW__ISO_
 10
370.6676183027474281
 20
-120.9770561257108028
 30
0.0
 70
    32
  0
VERTEX
  5
1EC
  8
VISIBLE_NARROW__ISO_
 10
370.6625159405426757
 20
-120.9864655745297028
 30
0.0
 70
    32
  0
VERTEX
  5
1ED
  8
VISIBLE_NARROW__ISO_
 10
370.6575277515663061
 20
-120.9959143934272987
 30
0.0
 70
    32
  0
VERTEX
  5
1EE
  8
VISIBLE_NARROW__ISO_
 10
370.6526560980229874
 20
-121.0054813225611952
 30
0.0
 70
    32
  0
VERTEX
  5
1EF
  8
VISIBLE_NARROW__ISO_
 10
370.6479021610151108
 20
-121.0150482516950063
 30
0.0
 70
    32
  0
VERTEX
  5
1F0
  8
VISIBLE_NARROW__ISO_
 10
370.6432663342434921
 20
-121.0247332910651039
 30
0.0
 70
    32
  0
VERTEX
  5
1F1
  8
VISIBLE_NARROW__ISO_
 10
370.6387490114087768
 20
-121.0344183304352015
 30
0.0
 70
    32
  0
VERTEX
  5
1F2
  8
VISIBLE_NARROW__ISO_
 10
370.6343513736135833
 20
-121.0441821099627049
 30
0.0
 70
    32
  0
VERTEX
  5
1F3
  8
VISIBLE_NARROW__ISO_
 10
370.6300738145583864
 20
-121.0540246296477989
 30
0.0
 70
    32
  0
VERTEX
  5
1F4
  8
VISIBLE_NARROW__ISO_
 10
370.6259167279442863
 20
-121.0639065194116029
 30
0.0
 70
    32
  0
VERTEX
  5
1F5
  8
VISIBLE_NARROW__ISO_
 10
370.6218812948733898
 20
-121.0738277792541027
 30
0.0
 70
    32
  0
VERTEX
  5
1F6
  8
VISIBLE_NARROW__ISO_
 10
370.6179679090466266
 20
-121.0837884091752983
 30
0.0
 70
    32
  0
VERTEX
  5
1F7
  8
VISIBLE_NARROW__ISO_
 10
370.6141769641646988
 20
-121.0937884091753034
 30
0.0
 70
    32
  0
VERTEX
  5
1F8
  8
VISIBLE_NARROW__ISO_
 10
370.6105092476292953
 20
-121.1038671493327996
 30
0.0
 70
    32
  0
VERTEX
  5
1F9
  8
VISIBLE_NARROW__ISO_
 10
370.6069651531411182
 20
-121.1139852595690058
 30
0.0
 70
    32
  0
VERTEX
  5
1FA
  8
VISIBLE_NARROW__ISO_
 10
370.6035454681017995
 20
-121.1241427398839932
 30
0.0
 70
    32
  0
VERTEX
  5
1FB
  8
VISIBLE_NARROW__ISO_
 10
370.6002501925112256
 20
-121.1343395902777047
 30
0.0
 70
    32
  0
VERTEX
  5
1FC
  8
VISIBLE_NARROW__ISO_
 10
370.597080507471901
 20
-121.144536440671402
 30
0.0
 70
    32
  0
VERTEX
  5
1FD
  8
VISIBLE_NARROW__ISO_
 10
370.5940360192827825
 20
-121.1548120312226047
 30
0.0
 70
    32
  0
VERTEX
  5
1FE
  8
VISIBLE_NARROW__ISO_
 10
370.5911183027474181
 20
-121.1651269918525031
 30
0.0
 70
    32
  0
VERTEX
  5
1FF
  8
VISIBLE_NARROW__ISO_
 10
370.5883269641648212
 20
-121.1754813225611969
 30
0.0
 70
    32
  0
VERTEX
  5
200
  8
VISIBLE_NARROW__ISO_
 10
370.5856623972355806
 20
-121.1858750233486006
 30
0.0
 70
    32
  0
VERTEX
  5
201
  8
VISIBLE_NARROW__ISO_
 10
370.5831253893616122
 20
-121.1962687241360044
 30
0.0
 70
    32
  0
VERTEX
  5
202
  8
VISIBLE_NARROW__ISO_
 10
370.5807163342435047
 20
-121.2067017950021039
 30
0.0
 70
    32
  0
VERTEX
  5
203
  8
VISIBLE_NARROW__ISO_
 10
370.5784352318813148
 20
-121.2171742359469988
 30
0.0
 70
    32
  0
VERTEX
  5
204
  8
VISIBLE_NARROW__ISO_
 10
370.5762828696766178
 20
-121.2276860469706037
 30
0.0
 70
    32
  0
VERTEX
  5
205
  8
VISIBLE_NARROW__ISO_
 10
370.5742592476292998
 20
-121.2381978579942938
 30
0.0
 70
    32
  0
VERTEX
  5
206
  8
VISIBLE_NARROW__ISO_
 10
370.5723647594404042
 20
-121.2487490390965945
 30
0.0
 70
    32
  0
VERTEX
  5
207
  8
VISIBLE_NARROW__ISO_
 10
370.5705994051097036
 20
-121.2593002201989947
 30
0.0
 70
    32
  0
VERTEX
  5
208
  8
VISIBLE_NARROW__ISO_
 10
370.5689643657394754
 20
-121.2699301414588007
 30
0.0
 70
    32
  0
VERTEX
  5
209
  8
VISIBLE_NARROW__ISO_
 10
370.5674588539284855
 20
-121.2805206926398967
 30
0.0
 70
    32
  0
VERTEX
  5
20A
  8
VISIBLE_NARROW__ISO_
 10
370.5660832633773225
 20
-121.2911506138998021
 30
0.0
 70
    32
  0
VERTEX
  5
20B
  8
VISIBLE_NARROW__ISO_
 10
370.5648383814875046
 20
-121.3017805351595939
 30
0.0
 70
    32
  0
VERTEX
  5
20C
  8
VISIBLE_NARROW__ISO_
 10
370.5637238145583865
 20
-121.3124498264981952
 30
0.0
 70
    32
  0
VERTEX
  5
20D
  8
VISIBLE_NARROW__ISO_
 10
370.5627403499914863
 20
-121.3231191178367965
 30
0.0
 70
    32
  0
VERTEX
  5
20E
  8
VISIBLE_NARROW__ISO_
 10
370.561887594085988
 20
-121.3338277792540936
 30
0.0
 70
    32
  0
VERTEX
  5
20F
  8
VISIBLE_NARROW__ISO_
 10
370.5611655468418917
 20
-121.3444970705926949
 30
0.0
 70
    32
  0
VERTEX
  5
210
  8
VISIBLE_NARROW__ISO_
 10
370.5605749956607724
 20
-121.3552057320100062
 30
0.0
 70
    32
  0
VERTEX
  5
211
  8
VISIBLE_NARROW__ISO_
 10
370.5601151531411119
 20
-121.3659143934273033
 30
0.0
 70
    32
  0
VERTEX
  5
212
  8
VISIBLE_NARROW__ISO_
 10
370.5597868066843716
 20
-121.3766624249233956
 30
0.0
 70
    32
  0
VERTEX
  5
213
  8
VISIBLE_NARROW__ISO_
 10
370.5595899562907221
 20
-121.3873710863407069
 30
0.0
 70
    32
  0
VERTEX
  5
214
  8
VISIBLE_NARROW__ISO_
 10
370.5595242082591767
 20
-121.398079747758004
 30
0.0
 70
    32
  0
SEQEND
  5
215
  8
VISIBLE_NARROW__ISO_
  0
LINE
  5
A3
  8
VISIBLE_NARROW__ISO_
 10
370.5595242367184028
 20
-121.3980833802527002
 30
0.0
 11
370.5595242367184028
 21
-136.3522681342072076
 31
0.0
  0
POLYLINE
  5
A4
  8
VISIBLE_NARROW__ISO_
 66
     1
 10
0.0
 20
0.0
 30
0.0
 70
     8
  0
VERTEX
  5
216
  8
VISIBLE_NARROW__ISO_
 10
370.5595242082591767
 20
-136.3522687241359961
 30
0.0
 70
    32
  0
VERTEX
  5
217
  8
VISIBLE_NARROW__ISO_
 10
370.5595899562907221
 20
-136.3629891965769048
 30
0.0
 70
    32
  0
VERTEX
  5
218
  8
VISIBLE_NARROW__ISO_
 10
370.5597868066843716
 20
-136.3737096690178987
 30
0.0
 70
    32
  0
VERTEX
  5
219
  8
VISIBLE_NARROW__ISO_
 10
370.5601151531411119
 20
-136.3844262044509037
 30
0.0
 70
    32
  0
VERTEX
  5
21A
  8
VISIBLE_NARROW__ISO_
 10
370.5605749956607724
 20
-136.3951348658683003
 30
0.0
 70
    32
  0
VERTEX
  5
21B
  8
VISIBLE_NARROW__ISO_
 10
370.5611655468418917
 20
-136.4058395902777079
 30
0.0
 70
    32
  0
VERTEX
  5
21C
  8
VISIBLE_NARROW__ISO_
 10
370.561887594085988
 20
-136.4165325036634897
 30
0.0
 70
    32
  0
VERTEX
  5
21D
  8
VISIBLE_NARROW__ISO_
 10
370.5627403499914863
 20
-136.4272214800415099
 30
0.0
 70
    32
  0
VERTEX
  5
21E
  8
VISIBLE_NARROW__ISO_
 10
370.5637238145583865
 20
-136.4378947083880007
 30
0.0
 70
    32
  0
VERTEX
  5
21F
  8
VISIBLE_NARROW__ISO_
 10
370.5648383814875046
 20
-136.4485521887029051
 30
0.0
 70
    32
  0
VERTEX
  5
220
  8
VISIBLE_NARROW__ISO_
 10
370.5660832633773225
 20
-136.4591978579942122
 30
0.0
 70
    32
  0
VERTEX
  5
221
  8
VISIBLE_NARROW__ISO_
 10
370.5674588539284855
 20
-136.4698277792541035
 30
0.0
 70
    32
  0
VERTEX
  5
222
  8
VISIBLE_NARROW__ISO_
 10
370.5689643657394754
 20
-136.4804419524824937
 30
0.0
 70
    32
  0
VERTEX
  5
223
  8
VISIBLE_NARROW__ISO_
 10
370.5705994051097036
 20
-136.4910325036634902
 30
0.0
 70
    32
  0
VERTEX
  5
224
  8
VISIBLE_NARROW__ISO_
 10
370.5723647594404042
 20
-136.5016033698053093
 30
0.0
 70
    32
  0
VERTEX
  5
225
  8
VISIBLE_NARROW__ISO_
 10
370.5742592476292998
 20
-136.5121506138997916
 30
0.0
 70
    32
  0
VERTEX
  5
226
  8
VISIBLE_NARROW__ISO_
 10
370.5762828696766178
 20
-136.5226742359469938
 30
0.0
 70
    32
  0
VERTEX
  5
227
  8
VISIBLE_NARROW__ISO_
 10
370.5784352318813148
 20
-136.5331702989390976
 30
0.0
 70
    32
  0
VERTEX
  5
228
  8
VISIBLE_NARROW__ISO_
 10
370.5807163342435047
 20
-136.5436427398840067
 30
0.0
 70
    32
  0
VERTEX
  5
229
  8
VISIBLE_NARROW__ISO_
 10
370.5831253893616122
 20
-136.5540836847659136
 30
0.0
 70
    32
  0
VERTEX
  5
22A
  8
VISIBLE_NARROW__ISO_
 10
370.5856623972355806
 20
-136.56449313358479
 30
0.0
 70
    32
  0
VERTEX
  5
22B
  8
VISIBLE_NARROW__ISO_
 10
370.5883269641648212
 20
-136.5748710863406927
 30
0.0
 70
    32
  0
VERTEX
  5
22C
  8
VISIBLE_NARROW__ISO_
 10
370.5911183027474181
 20
-136.5852136060258033
 30
0.0
 70
    32
  0
VERTEX
  5
22D
  8
VISIBLE_NARROW__ISO_
 10
370.5940360192827825
 20
-136.5955246296477981
 30
0.0
 70
    32
  0
VERTEX
  5
22E
  8
VISIBLE_NARROW__ISO_
 10
370.597080507471901
 20
-136.605796283191097
 30
0.0
 70
    32
  0
VERTEX
  5
22F
  8
VISIBLE_NARROW__ISO_
 10
370.6002501925112256
 20
-136.6160285666557002
 30
0.0
 70
    32
  0
VERTEX
  5
230
  8
VISIBLE_NARROW__ISO_
 10
370.6035454681017995
 20
-136.6262214800414938
 30
0.0
 70
    32
  0
VERTEX
  5
231
  8
VISIBLE_NARROW__ISO_
 10
370.6069651531411182
 20
-136.6363750233485916
 30
0.0
 70
    32
  0
VERTEX
  5
232
  8
VISIBLE_NARROW__ISO_
 10
370.6105092476292953
 20
-136.64648525956909
 30
0.0
 70
    32
  0
VERTEX
  5
233
  8
VISIBLE_NARROW__ISO_
 10
370.6141769641646988
 20
-136.6565482516949999
 30
0.0
 70
    32
  0
VERTEX
  5
234
  8
VISIBLE_NARROW__ISO_
 10
370.6179679090466266
 20
-136.6665679367343955
 30
0.0
 70
    32
  0
VERTEX
  5
235
  8
VISIBLE_NARROW__ISO_
 10
370.6218812948733898
 20
-136.676540377679288
 30
0.0
 70
    32
  0
VERTEX
  5
236
  8
VISIBLE_NARROW__ISO_
 10
370.6259167279442863
 20
-136.686461637521802
 30
0.0
 70
    32
  0
VERTEX
  5
237
  8
VISIBLE_NARROW__ISO_
 10
370.6300738145583864
 20
-136.6963317162619944
 30
0.0
 70
    32
  0
VERTEX
  5
238
  8
VISIBLE_NARROW__ISO_
 10
370.6343513736135833
 20
-136.7061545509075984
 30
0.0
 70
    32
  0
VERTEX
  5
239
  8
VISIBLE_NARROW__ISO_
 10
370.6387490114087768
 20
-136.715918330435187
 30
0.0
 70
    32
  0
VERTEX
  5
23A
  8
VISIBLE_NARROW__ISO_
 10
370.6432663342434921
 20
-136.7256309288603973
 30
0.0
 70
    32
  0
VERTEX
  5
23B
  8
VISIBLE_NARROW__ISO_
 10
370.6479021610151108
 20
-136.7352844721675069
 30
0.0
 70
    32
  0
VERTEX
  5
23C
  8
VISIBLE_NARROW__ISO_
 10
370.6526560980229874
 20
-136.744882897364306
 30
0.0
 70
    32
  0
VERTEX
  5
23D
  8
VISIBLE_NARROW__ISO_
 10
370.6575277515663061
 20
-136.7544183304351861
 30
0.0
 70
    32
  0
VERTEX
  5
23E
  8
VISIBLE_NARROW__ISO_
 10
370.6625159405426757
 20
-136.7638986453958125
 30
0.0
 70
    32
  0
VERTEX
  5
23F
  8
VISIBLE_NARROW__ISO_
 10
370.6676183027474281
 20
-136.7733120312225878
 30
0.0
 70
    32
  0
VERTEX
  5
240
  8
VISIBLE_NARROW__ISO_
 10
370.6728387751883815
 20
-136.7826624249233873
 30
0.0
 70
    32
  0
VERTEX
  5
241
  8
VISIBLE_NARROW__ISO_
 10
370.678173420857604
 20
-136.791949826498211
 30
0.0
 70
    32
  0
VERTEX
  5
242
  8
VISIBLE_NARROW__ISO_
 10
370.6836183027473908
 20
-136.8011702989390983
 30
0.0
 70
    32
  0
VERTEX
  5
243
  8
VISIBLE_NARROW__ISO_
 10
370.6891773578655034
 20
-136.8103238422461914
 30
0.0
 70
    32
  0
VERTEX
  5
244
  8
VISIBLE_NARROW__ISO_
 10
370.6948505862119987
 20
-136.8194065194115865
 30
0.0
 70
    32
  0
VERTEX
  5
245
  8
VISIBLE_NARROW__ISO_
 10
370.7006340507788877
 20
-136.8284183304351984
 30
0.0
 70
    32
  0
VERTEX
  5
246
  8
VISIBLE_NARROW__ISO_
 10
370.7065238145585226
 20
-136.8373592753171124
 30
0.0
 70
    32
  0
VERTEX
  5
247
  8
VISIBLE_NARROW__ISO_
 10
370.7125277515663129
 20
-136.8462254170493964
 30
0.0
 70
    32
  0
VERTEX
  5
248
  8
VISIBLE_NARROW__ISO_
 10
370.7186379877867921
 20
-136.8550206926398971
 30
0.0
 70
    32
  0
VERTEX
  5
249
  8
VISIBLE_NARROW__ISO_
 10
370.7248545232197898
 20
-136.8637372280730062
 30
0.0
 70
    32
  0
VERTEX
  5
24A
  8
VISIBLE_NARROW__ISO_
 10
370.7311812948734087
 20
-136.8723789603565137
 30
0.0
 70
    32
  0
VERTEX
  5
24B
  8
VISIBLE_NARROW__ISO_
 10
370.7376104287317276
 20
-136.8809419524824023
 30
0.0
 70
    32
  0
VERTEX
  5
24C
  8
VISIBLE_NARROW__ISO_
 10
370.7441458618025081
 20
-136.8894222674431091
 30
0.0
 70
    32
  0
VERTEX
  5
24D
  8
VISIBLE_NARROW__ISO_
 10
370.7507836570781024
 20
-136.897823842246197
 30
0.0
 70
    32
  0
VERTEX
  5
24E
  8
VISIBLE_NARROW__ISO_
 10
370.7575238145583967
 20
-136.9061427398839896
 30
0.0
 70
    32
  0
VERTEX
  5
24F
  8
VISIBLE_NARROW__ISO_
 10
370.7643663342435048
 20
-136.9143789603564869
 30
0.0
 70
    32
  0
VERTEX
  5
250
  8
VISIBLE_NARROW__ISO_
 10
370.7713112161333129
 20
-136.9225285666556999
 30
0.0
 70
    32
  0
VERTEX
  5
251
  8
VISIBLE_NARROW__ISO_
 10
370.7783505862120137
 20
-136.930595495789504
 30
0.0
 70
    32
  0
VERTEX
  5
252
  8
VISIBLE_NARROW__ISO_
 10
370.7854923184955283
 20
-136.9385718737422906
 30
0.0
 70
    32
  0
VERTEX
  5
253
  8
VISIBLE_NARROW__ISO_
 10
370.7927324759756971
 20
-136.9464616375217929
 30
0.0
 70
    32
  0
VERTEX
  5
254
  8
VISIBLE_NARROW__ISO_
 10
370.8000671216450996
 20
-136.9542608501201926
 30
0.0
 70
    32
  0
VERTEX
  5
255
  8
VISIBLE_NARROW__ISO_
 10
370.8074962555032812
 20
-136.9619695115376032
 30
0.0
 70
    32
  0
VERTEX
  5
256
  8
VISIBLE_NARROW__ISO_
 10
370.8150238145585149
 20
-136.9695876217737975
 30
0.0
 70
    32
  0
VERTEX
  5
257
  8
VISIBLE_NARROW__ISO_
 10
370.8226379877867771
 20
-136.9771112438210139
 30
0.0
 70
    32
  0
VERTEX
  5
258
  8
VISIBLE_NARROW__ISO_
 10
370.8303466492041025
 20
-136.9845443146872128
 30
0.0
 70
    32
  0
VERTEX
  5
259
  8
VISIBLE_NARROW__ISO_
 10
370.8381497988103774
 20
-136.991878960356388
 30
0.0
 70
    32
  0
VERTEX
  5
25A
  8
VISIBLE_NARROW__ISO_
 10
370.8460395625900219
 20
-136.9991151808289089
 30
0.0
 70
    32
  0
VERTEX
  5
25B
  8
VISIBLE_NARROW__ISO_
 10
370.8540159405426948
 20
-137.0062569131123951
 30
0.0
 70
    32
  0
VERTEX
  5
25C
  8
VISIBLE_NARROW__ISO_
 10
370.8620789326686804
 20
-137.0133002201989996
 30
0.0
 70
    32
  0
VERTEX
  5
25D
  8
VISIBLE_NARROW__ISO_
 10
370.8702324759756834
 20
-137.0202435272856007
 30
0.0
 70
    32
  0
VERTEX
  5
25E
  8
VISIBLE_NARROW__ISO_
 10
370.8784686964481807
 20
-137.0270860469705951
 30
0.0
 70
    32
  0
VERTEX
  5
25F
  8
VISIBLE_NARROW__ISO_
 10
370.8867875940860017
 20
-137.0338269918524929
 30
0.0
 70
    32
  0
VERTEX
  5
260
  8
VISIBLE_NARROW__ISO_
 10
370.8951891688890896
 20
-137.0404655745296907
 30
0.0
 70
    32
  0
VERTEX
  5
261
  8
VISIBLE_NARROW__ISO_
 10
370.9036694838497965
 20
-137.0469998264981939
 30
0.0
 70
    32
  0
VERTEX
  5
262
  8
VISIBLE_NARROW__ISO_
 10
370.9122324759758271
 20
-137.0534301414587901
 30
0.0
 70
    32
  0
VERTEX
  5
263
  8
VISIBLE_NARROW__ISO_
 10
370.9208702712513741
 20
-137.0597545509075985
 30
0.0
 70
    32
  0
VERTEX
  5
264
  8
VISIBLE_NARROW__ISO_
 10
370.9295907436923017
 20
-137.0659722674431009
 30
0.0
 70
    32
  0
VERTEX
  5
265
  8
VISIBLE_NARROW__ISO_
 10
370.938382082274984
 20
-137.0720828973643108
 30
0.0
 70
    32
  0
VERTEX
  5
266
  8
VISIBLE_NARROW__ISO_
 10
370.9472521610151148
 20
-137.0780848658683055
 30
0.0
 70
    32
  0
VERTEX
  5
267
  8
VISIBLE_NARROW__ISO_
 10
370.9561931058970004
 20
-137.083977385553311
 30
0.0
 70
    32
  0
VERTEX
  5
268
  8
VISIBLE_NARROW__ISO_
 10
370.9652049169206975
 20
-137.0897600627187103
 30
0.0
 70
    32
  0
VERTEX
  5
269
  8
VISIBLE_NARROW__ISO_
 10
370.974287594085979
 20
-137.0954317162619986
 30
0.0
 70
    32
  0
VERTEX
  5
26A
  8
VISIBLE_NARROW__ISO_
 10
370.983441137393072
 20
-137.1009911650808988
 30
0.0
 70
    32
  0
VERTEX
  5
26B
  8
VISIBLE_NARROW__ISO_
 10
370.9926616098341015
 20
-137.1064384091754107
 30
0.0
 70
    32
  0
VERTEX
  5
26C
  8
VISIBLE_NARROW__ISO_
 10
371.0019450744010214
 20
-137.1117714800415115
 30
0.0
 70
    32
  0
VERTEX
  5
26D
  8
VISIBLE_NARROW__ISO_
 10
371.0112994051096962
 20
-137.1169907713801024
 30
0.0
 70
    32
  0
VERTEX
  5
26E
  8
VISIBLE_NARROW__ISO_
 10
371.0207127909363862
 20
-137.1220947083880048
 30
0.0
 70
    32
  0
VERTEX
  5
26F
  8
VISIBLE_NARROW__ISO_
 10
371.0301891688890805
 20
-137.1270825036635017
 30
0.0
 70
    32
  0
VERTEX
  5
270
  8
VISIBLE_NARROW__ISO_
 10
371.0397285389678927
 20
-137.1319541572067919
 30
0.0
 70
    32
  0
VERTEX
  5
271
  8
VISIBLE_NARROW__ISO_
 10
371.0493230271567882
 20
-137.136708094214697
 30
0.0
 70
    32
  0
VERTEX
  5
272
  8
VISIBLE_NARROW__ISO_
 10
371.0589805074719152
 20
-137.1413439209864009
 30
0.0
 70
    32
  0
VERTEX
  5
273
  8
VISIBLE_NARROW__ISO_
 10
371.0686891688890796
 20
-137.1458612438210025
 30
0.0
 70
    32
  0
VERTEX
  5
274
  8
VISIBLE_NARROW__ISO_
 10
371.0784568854246004
 20
-137.1502588816163097
 30
0.0
 70
    32
  0
VERTEX
  5
275
  8
VISIBLE_NARROW__ISO_
 10
371.0882757830623859
 20
-137.1545364406713929
 30
0.0
 70
    32
  0
VERTEX
  5
276
  8
VISIBLE_NARROW__ISO_
 10
371.0981497988104252
 20
-137.1586935272856067
 30
0.0
 70
    32
  0
VERTEX
  5
277
  8
VISIBLE_NARROW__ISO_
 10
371.1080710586529108
 20
-137.1627289603565032
 30
0.0
 70
    32
  0
VERTEX
  5
278
  8
VISIBLE_NARROW__ISO_
 10
371.1180434995977748
 20
-137.1666423461832096
 30
0.0
 70
    32
  0
VERTEX
  5
279
  8
VISIBLE_NARROW__ISO_
 10
371.1280592476293236
 20
-137.170433291065109
 30
0.0
 70
    32
  0
VERTEX
  5
27A
  8
VISIBLE_NARROW__ISO_
 10
371.1381261767631941
 20
-137.1741010076005125
 30
0.0
 70
    32
  0
VERTEX
  5
27B
  8
VISIBLE_NARROW__ISO_
 10
371.1482364129835787
 20
-137.1776451020888032
 30
0.0
 70
    32
  0
VERTEX
  5
27C
  8
VISIBLE_NARROW__ISO_
 10
371.1583860192827728
 20
-137.1810651808289094
 30
0.0
 70
    32
  0
VERTEX
  5
27D
  8
VISIBLE_NARROW__ISO_
 10
371.1685828696765839
 20
-137.1843600627186959
 30
0.0
 70
    32
  0
VERTEX
  5
27E
  8
VISIBLE_NARROW__ISO_
 10
371.1788151531411017
 20
-137.187530141458808
 30
0.0
 70
    32
  0
VERTEX
  5
27F
  8
VISIBLE_NARROW__ISO_
 10
371.1890868066843723
 20
-137.1905742359469969
 30
0.0
 70
    32
  0
VERTEX
  5
280
  8
VISIBLE_NARROW__ISO_
 10
371.199393893298577
 20
-137.1934919524823897
 30
0.0
 70
    32
  0
VERTEX
  5
281
  8
VISIBLE_NARROW__ISO_
 10
371.2097403499914776
 20
-137.1962836847658878
 30
0.0
 70
    32
  0
VERTEX
  5
282
  8
VISIBLE_NARROW__ISO_
 10
371.2201183027473803
 20
-137.1989478579943125
 30
0.0
 70
    32
  0
VERTEX
  5
283
  8
VISIBLE_NARROW__ISO_
 10
371.2305277515662851
 20
-137.2014848658681956
 30
0.0
 70
    32
  0
VERTEX
  5
284
  8
VISIBLE_NARROW__ISO_
 10
371.2409686964481921
 20
-137.2038939209863884
 30
0.0
 70
    32
  0
VERTEX
  5
285
  8
VISIBLE_NARROW__ISO_
 10
371.2514372003852259
 20
-137.2061750233486066
 30
0.0
 70
    32
  0
VERTEX
  5
286
  8
VISIBLE_NARROW__ISO_
 10
371.261937200385205
 20
-137.2083273855533037
 30
0.0
 70
    32
  0
VERTEX
  5
287
  8
VISIBLE_NARROW__ISO_
 10
371.2724608224323788
 20
-137.210351007600508
 30
0.0
 70
    32
  0
VERTEX
  5
288
  8
VISIBLE_NARROW__ISO_
 10
371.2830080665269747
 20
-137.2122454957894888
 30
0.0
 70
    32
  0
VERTEX
  5
289
  8
VISIBLE_NARROW__ISO_
 10
371.2935789326687086
 20
-137.2140108501203031
 30
0.0
 70
    32
  0
VERTEX
  5
28A
  8
VISIBLE_NARROW__ISO_
 10
371.3041694838498188
 20
-137.2156462831910915
 30
0.0
 70
    32
  0
VERTEX
  5
28B
  8
VISIBLE_NARROW__ISO_
 10
371.3147797200701916
 20
-137.2171517950021098
 30
0.0
 70
    32
  0
VERTEX
  5
28C
  8
VISIBLE_NARROW__ISO_
 10
371.3254096413301113
 20
-137.2185269918525137
 30
0.0
 70
    32
  0
VERTEX
  5
28D
  8
VISIBLE_NARROW__ISO_
 10
371.3360553106214184
 20
-137.2197718737423031
 30
0.0
 70
    32
  0
VERTEX
  5
28E
  8
VISIBLE_NARROW__ISO_
 10
371.3467167279442833
 20
-137.2208864406713928
 30
0.0
 70
    32
  0
VERTEX
  5
28F
  8
VISIBLE_NARROW__ISO_
 10
371.3573899562907172
 20
-137.2218699052384068
 30
0.0
 70
    32
  0
VERTEX
  5
290
  8
VISIBLE_NARROW__ISO_
 10
371.3680749956607769
 20
-137.2227230548446073
 30
0.0
 70
    32
  0
VERTEX
  5
291
  8
VISIBLE_NARROW__ISO_
 10
371.3787718460545193
 20
-137.2234447083878877
 30
0.0
 70
    32
  0
VERTEX
  5
292
  8
VISIBLE_NARROW__ISO_
 10
371.3894765704638985
 20
-137.2240356532699082
 30
0.0
 70
    32
  0
VERTEX
  5
293
  8
VISIBLE_NARROW__ISO_
 10
371.4001852318812098
 20
-137.2244951020886958
 30
0.0
 70
    32
  0
VERTEX
  5
294
  8
VISIBLE_NARROW__ISO_
 10
371.4109017673142716
 20
-137.2248234485454077
 30
0.0
 70
    32
  0
VERTEX
  5
295
  8
VISIBLE_NARROW__ISO_
 10
371.4216222397553224
 20
-137.2250202989391141
 30
0.0
 70
    32
  0
VERTEX
  5
296
  8
VISIBLE_NARROW__ISO_
 10
371.4323427121962027
 20
-137.2250860469706026
 30
0.0
 70
    32
  0
SEQEND
  5
297
  8
VISIBLE_NARROW__ISO_
  0
LINE
  5
A5
  8
VISIBLE_NARROW__ISO_
 10
371.4323421765432158
 20
-137.2250860740319922
 30
0.0
 11
402.7637503218609254
 21
-137.2250860740321059
 31
0.0
  0
POLYLINE
  5
A6
  8
VISIBLE_NARROW__ISO_
 66
     1
 10
0.0
 20
0.0
 30
0.0
 70
     8
  0
VERTEX
  5
298
  8
VISIBLE_NARROW__ISO_
 10
403.6365789326687263
 20
-121.398079747758004
 30
0.0
 70
    32
  0
VERTEX
  5
299
  8
VISIBLE_NARROW__ISO_
 10
403.636500192511221
 20
-121.3873710863407069
 30
0.0
 70
    32
  0
VERTEX
  5
29A
  8
VISIBLE_NARROW__ISO_
 10
403.6363033421174009
 20
-121.3766624249233956
 30
0.0
 70
    32
  0
VERTEX
  5
29B
  8
VISIBLE_NARROW__ISO_
 10
403.6359883814876071
 20
-121.3659143934273033
 30
0.0
 70
    32
  0
VERTEX
  5
29C
  8
VISIBLE_NARROW__ISO_
 10
403.6355159405425752
 20
-121.3552057320100062
 30
0.0
 70
    32
  0
VERTEX
  5
29D
  8
VISIBLE_NARROW__ISO_
 10
403.6349253893616265
 20
-121.3444970705926949
 30
0.0
 70
    32
  0
VERTEX
  5
29E
  8
VISIBLE_NARROW__ISO_
 10
403.6342167279443061
 20
-121.3338277792540936
 30
0.0
 70
    32
  0
VERTEX
  5
29F
  8
VISIBLE_NARROW__ISO_
 10
403.633350586211975
 20
-121.3231191178367965
 30
0.0
 70
    32
  0
VERTEX
  5
2A0
  8
VISIBLE_NARROW__ISO_
 10
403.6323663342433861
 20
-121.3124498264981952
 30
0.0
 70
    32
  0
VERTEX
  5
2A1
  8
VISIBLE_NARROW__ISO_
 10
403.6312639720387097
 20
-121.3017805351595939
 30
0.0
 70
    32
  0
VERTEX
  5
2A2
  8
VISIBLE_NARROW__ISO_
 10
403.6300041295190795
 20
-121.2911506138998021
 30
0.0
 70
    32
  0
VERTEX
  5
2A3
  8
VISIBLE_NARROW__ISO_
 10
403.6286261767631913
 20
-121.2805206926398967
 30
0.0
 70
    32
  0
VERTEX
  5
2A4
  8
VISIBLE_NARROW__ISO_
 10
403.6271301137709884
 20
-121.2699301414588007
 30
0.0
 70
    32
  0
VERTEX
  5
2A5
  8
VISIBLE_NARROW__ISO_
 10
403.6254765704638885
 20
-121.2593002201989947
 30
0.0
 70
    32
  0
VERTEX
  5
2A6
  8
VISIBLE_NARROW__ISO_
 10
403.6237442869992833
 20
-121.2487490390965945
 30
0.0
 70
    32
  0
VERTEX
  5
2A7
  8
VISIBLE_NARROW__ISO_
 10
403.6218151531410854
 20
-121.2381978579942938
 30
0.0
 70
    32
  0
VERTEX
  5
2A8
  8
VISIBLE_NARROW__ISO_
 10
403.6198072791253253
 20
-121.2276860469706037
 30
0.0
 70
    32
  0
VERTEX
  5
2A9
  8
VISIBLE_NARROW__ISO_
 10
403.6176419247946114
 20
-121.2171742359469988
 30
0.0
 70
    32
  0
VERTEX
  5
2AA
  8
VISIBLE_NARROW__ISO_
 10
403.6153584602276965
 20
-121.2067017950021039
 30
0.0
 70
    32
  0
VERTEX
  5
2AB
  8
VISIBLE_NARROW__ISO_
 10
403.6129568854245804
 20
-121.1962687241360044
 30
0.0
 70
    32
  0
VERTEX
  5
2AC
  8
VISIBLE_NARROW__ISO_
 10
403.6104372003852063
 20
-121.1858750233486006
 30
0.0
 70
    32
  0
VERTEX
  5
2AD
  8
VISIBLE_NARROW__ISO_
 10
403.6077600350308217
 20
-121.1754813225611969
 30
0.0
 70
    32
  0
VERTEX
  5
2AE
  8
VISIBLE_NARROW__ISO_
 10
403.6049647594402927
 20
-121.1651269918525031
 30
0.0
 70
    32
  0
VERTEX
  5
2AF
  8
VISIBLE_NARROW__ISO_
 10
403.6020513736136195
 20
-121.1548120312226047
 30
0.0
 70
    32
  0
VERTEX
  5
2B0
  8
VISIBLE_NARROW__ISO_
 10
403.5990198775505746
 20
-121.144536440671402
 30
0.0
 70
    32
  0
VERTEX
  5
2B1
  8
VISIBLE_NARROW__ISO_
 10
403.595830901172576
 20
-121.1343395902777047
 30
0.0
 70
    32
  0
VERTEX
  5
2B2
  8
VISIBLE_NARROW__ISO_
 10
403.5925631846371857
 20
-121.1241427398839932
 30
0.0
 70
    32
  0
VERTEX
  5
2B3
  8
VISIBLE_NARROW__ISO_
 10
403.5891379877867848
 20
-121.1139852595690058
 30
0.0
 70
    32
  0
VERTEX
  5
2B4
  8
VISIBLE_NARROW__ISO_
 10
403.5855946807001828
 20
-121.1038671493327996
 30
0.0
 70
    32
  0
VERTEX
  5
2B5
  8
VISIBLE_NARROW__ISO_
 10
403.5819332633773229
 20
-121.0937884091753034
 30
0.0
 70
    32
  0
VERTEX
  5
2B6
  8
VISIBLE_NARROW__ISO_
 10
403.5781143657395091
 20
-121.0837884091752983
 30
0.0
 70
    32
  0
VERTEX
  5
2B7
  8
VISIBLE_NARROW__ISO_
 10
403.5742167279441901
 20
-121.0738277792541027
 30
0.0
 70
    32
  0
VERTEX
  5
2B8
  8
VISIBLE_NARROW__ISO_
 10
403.5701616098339741
 20
-121.0639065194116029
 30
0.0
 70
    32
  0
VERTEX
  5
2B9
  8
VISIBLE_NARROW__ISO_
 10
403.5660277515663097
 20
-121.0540246296477989
 30
0.0
 70
    32
  0
VERTEX
  5
2BA
  8
VISIBLE_NARROW__ISO_
 10
403.5617364129835778
 20
-121.0441821099627049
 30
0.0
 70
    32
  0
VERTEX
  5
2BB
  8
VISIBLE_NARROW__ISO_
 10
403.5573269641647016
 20
-121.0344183304352015
 30
0.0
 70
    32
  0
VERTEX
  5
2BC
  8
VISIBLE_NARROW__ISO_
 10
403.552838775188377
 20
-121.0247332910651039
 30
0.0
 70
    32
  0
VERTEX
  5
2BD
  8
VISIBLE_NARROW__ISO_
 10
403.5481931058969849
 20
-121.0150482516950063
 30
0.0
 70
    32
  0
VERTEX
  5
2BE
  8
VISIBLE_NARROW__ISO_
 10
403.5434293263695054
 20
-121.0054813225611952
 30
0.0
 70
    32
  0
VERTEX
  5
2BF
  8
VISIBLE_NARROW__ISO_
 10
403.538547436605711
 20
-120.9959143934272987
 30
0.0
 70
    32
  0
VERTEX
  5
2C0
  8
VISIBLE_NARROW__ISO_
 10
403.5335868066844114
 20
-120.9864655745297028
 30
0.0
 70
    32
  0
VERTEX
  5
2C1
  8
VISIBLE_NARROW__ISO_
 10
403.5284686964482148
 20
-120.9770561257108028
 30
0.0
 70
    32
  0
VERTEX
  5
2C2
  8
VISIBLE_NARROW__ISO_
 10
403.5232718460543992
 20
-120.9676860469705986
 30
0.0
 70
    32
  0
VERTEX
  5
2C3
  8
VISIBLE_NARROW__ISO_
 10
403.5179175153458004
 20
-120.9583947083879991
 30
0.0
 70
    32
  0
VERTEX
  5
2C4
  8
VISIBLE_NARROW__ISO_
 10
403.5124844444796963
 20
-120.949182109962706
 30
0.0
 70
    32
  0
VERTEX
  5
2C5
  8
VISIBLE_NARROW__ISO_
 10
403.5069332633772774
 20
-120.9400482516950035
 30
0.0
 70
    32
  0
VERTEX
  5
2C6
  8
VISIBLE_NARROW__ISO_
 10
403.5012246019600184
 20
-120.9309537635060963
 30
0.0
 70
    32
  0
VERTEX
  5
2C7
  8
VISIBLE_NARROW__ISO_
 10
403.495476570463893
 20
-120.9219380154744954
 30
0.0
 70
    32
  0
VERTEX
  5
2C8
  8
VISIBLE_NARROW__ISO_
 10
403.4895710586529276
 20
-120.9130010076004993
 30
0.0
 70
    32
  0
VERTEX
  5
2C9
  8
VISIBLE_NARROW__ISO_
 10
403.4835474366055905
 20
-120.9041427398839943
 30
0.0
 70
    32
  0
VERTEX
  5
2CA
  8
VISIBLE_NARROW__ISO_
 10
403.4774450744009187
 20
-120.8953238422461993
 30
0.0
 70
    32
  0
VERTEX
  5
2CB
  8
VISIBLE_NARROW__ISO_
 10
403.4712246019599888
 20
-120.8866230548446055
 30
0.0
 70
    32
  0
VERTEX
  5
2CC
  8
VISIBLE_NARROW__ISO_
 10
403.4649253893616105
 20
-120.8779616375218069
 30
0.0
 70
    32
  0
VERTEX
  5
2CD
  8
VISIBLE_NARROW__ISO_
 10
403.4584686964482216
 20
-120.8694183304351952
 30
0.0
 70
    32
  0
VERTEX
  5
2CE
  8
VISIBLE_NARROW__ISO_
 10
403.4519332633773274
 20
-120.8609143934272936
 30
0.0
 70
    32
  0
VERTEX
  5
2CF
  8
VISIBLE_NARROW__ISO_
 10
403.4453190901489847
 20
-120.8525285666555931
 30
0.0
 70
    32
  0
VERTEX
  5
2D0
  8
VISIBLE_NARROW__ISO_
 10
403.4385868066843841
 20
-120.8442214800414973
 30
0.0
 70
    32
  0
VERTEX
  5
2D1
  8
VISIBLE_NARROW__ISO_
 10
403.4317364129835823
 20
-120.8359537635060974
 30
0.0
 70
    32
  0
VERTEX
  5
2D2
  8
VISIBLE_NARROW__ISO_
 10
403.4247679090465795
 20
-120.8278041572067991
 30
0.0
 70
    32
  0
VERTEX
  5
2D3
  8
VISIBLE_NARROW__ISO_
 10
403.417720664952185
 20
-120.8197726611438014
 30
0.0
 70
    32
  0
VERTEX
  5
2D4
  8
VISIBLE_NARROW__ISO_
 10
403.4105946807001146
 20
-120.811780535159599
 30
0.0
 70
    32
  0
VERTEX
  5
2D5
  8
VISIBLE_NARROW__ISO_
 10
403.4033505862120137
 20
-120.8039065194115977
 30
0.0
 70
    32
  0
VERTEX
  5
2D6
  8
VISIBLE_NARROW__ISO_
 10
403.3960277515662938
 20
-120.7960718737423065
 30
0.0
 70
    32
  0
VERTEX
  5
2D7
  8
VISIBLE_NARROW__ISO_
 10
403.3885868066843727
 20
-120.7883947083879974
 30
0.0
 70
    32
  0
VERTEX
  5
2D8
  8
VISIBLE_NARROW__ISO_
 10
403.3810671216450032
 20
-120.7807569131123984
 30
0.0
 70
    32
  0
VERTEX
  5
2D9
  8
VISIBLE_NARROW__ISO_
 10
403.3734686964481853
 20
-120.7732372280730004
 30
0.0
 70
    32
  0
VERTEX
  5
2DA
  8
VISIBLE_NARROW__ISO_
 10
403.3657521610151093
 20
-120.7657962831910936
 30
0.0
 70
    32
  0
VERTEX
  5
2DB
  8
VISIBLE_NARROW__ISO_
 10
403.3579568854245281
 20
-120.7584734485454021
 30
0.0
 70
    32
  0
VERTEX
  5
2DC
  8
VISIBLE_NARROW__ISO_
 10
403.3500434995978026
 20
-120.7512293540572017
 30
0.0
 70
    32
  0
VERTEX
  5
2DD
  8
VISIBLE_NARROW__ISO_
 10
403.3420907436923244
 20
-120.7441033698053019
 30
0.0
 70
    32
  0
VERTEX
  5
2DE
  8
VISIBLE_NARROW__ISO_
 10
403.3340198775505883
 20
-120.7370561257107937
 30
0.0
 70
    32
  0
VERTEX
  5
2DF
  8
VISIBLE_NARROW__ISO_
 10
403.32587027125129
 20
-120.7301269918525009
 30
0.0
 70
    32
  0
VERTEX
  5
2E0
  8
VISIBLE_NARROW__ISO_
 10
403.3176419247946001
 20
-120.7232765981516991
 30
0.0
 70
    32
  0
VERTEX
  5
2E1
  8
VISIBLE_NARROW__ISO_
 10
403.309295468101709
 20
-120.7165049446084026
 30
0.0
 70
    32
  0
VERTEX
  5
2E2
  8
VISIBLE_NARROW__ISO_
 10
403.3009096413301222
 20
-120.7098907713801026
 30
0.0
 70
    32
  0
VERTEX
  5
2E3
  8
VISIBLE_NARROW__ISO_
 10
403.2924057043222206
 20
-120.7033553383091942
 30
0.0
 70
    32
  0
VERTEX
  5
2E4
  8
VISIBLE_NARROW__ISO_
 10
403.2838623972356231
 20
-120.6969380154746005
 30
0.0
 70
    32
  0
VERTEX
  5
2E5
  8
VISIBLE_NARROW__ISO_
 10
403.2752009799128246
 20
-120.6905994327973985
 30
0.0
 70
    32
  0
VERTEX
  5
2E6
  8
VISIBLE_NARROW__ISO_
 10
403.2665001925112165
 20
-120.6843789603563977
 30
0.0
 70
    32
  0
VERTEX
  5
2E7
  8
VISIBLE_NARROW__ISO_
 10
403.2577206649521031
 20
-120.6782765981516974
 30
0.0
 70
    32
  0
VERTEX
  5
2E8
  8
VISIBLE_NARROW__ISO_
 10
403.2488230271567886
 20
-120.6722529761045024
 30
0.0
 70
    32
  0
VERTEX
  5
2E9
  8
VISIBLE_NARROW__ISO_
 10
403.2398860192827783
 20
-120.6663868343722044
 30
0.0
 70
    32
  0
VERTEX
  5
2EA
  8
VISIBLE_NARROW__ISO_
 10
403.2308702712513195
 20
-120.6605994327973974
 30
0.0
 70
    32
  0
VERTEX
  5
2EB
  8
VISIBLE_NARROW__ISO_
 10
403.2218151531411081
 20
-120.6549301414588058
 30
0.0
 70
    32
  0
VERTEX
  5
2EC
  8
VISIBLE_NARROW__ISO_
 10
403.2126419247946956
 20
-120.6493789603565006
 30
0.0
 70
    32
  0
VERTEX
  5
2ED
  8
VISIBLE_NARROW__ISO_
 10
403.2034293263694167
 20
-120.6439065194116012
 30
0.0
 70
    32
  0
VERTEX
  5
2EE
  8
VISIBLE_NARROW__ISO_
 10
403.194137987786803
 20
-120.6385915587815987
 30
0.0
 70
    32
  0
VERTEX
  5
2EF
  8
VISIBLE_NARROW__ISO_
 10
403.1848072791253799
 20
-120.633355338309201
 30
0.0
 70
    32
  0
VERTEX
  5
2F0
  8
VISIBLE_NARROW__ISO_
 10
403.1753978303065082
 20
-120.6282372280730044
 30
0.0
 70
    32
  0
VERTEX
  5
2F1
  8
VISIBLE_NARROW__ISO_
 10
403.1659096413300745
 20
-120.6232765981517048
 30
0.0
 70
    32
  0
VERTEX
  5
2F2
  8
VISIBLE_NARROW__ISO_
 10
403.1563820822750017
 20
-120.6183947083878962
 30
0.0
 70
    32
  0
VERTEX
  5
2F3
  8
VISIBLE_NARROW__ISO_
 10
403.1467757830624237
 20
-120.6136309288604025
 30
0.0
 70
    32
  0
VERTEX
  5
2F4
  8
VISIBLE_NARROW__ISO_
 10
403.1371301137709793
 20
-120.6090246296478057
 30
0.0
 70
    32
  0
VERTEX
  5
2F5
  8
VISIBLE_NARROW__ISO_
 10
403.1274057043222001
 20
-120.6044970705927
 30
0.0
 70
    32
  0
VERTEX
  5
2F6
  8
VISIBLE_NARROW__ISO_
 10
403.1176419247946114
 20
-120.6000876217737954
 30
0.0
 70
    32
  0
VERTEX
  5
2F7
  8
VISIBLE_NARROW__ISO_
 10
403.1077994051095743
 20
-120.5957962831911061
 30
0.0
 70
    32
  0
VERTEX
  5
2F8
  8
VISIBLE_NARROW__ISO_
 10
403.0979568854244803
 20
-120.591662424923399
 30
0.0
 70
    32
  0
VERTEX
  5
2F9
  8
VISIBLE_NARROW__ISO_
 10
403.0880356255821084
 20
-120.5876073068130978
 30
0.0
 70
    32
  0
VERTEX
  5
2FA
  8
VISIBLE_NARROW__ISO_
 10
403.0780356255820038
 20
-120.5837096690179067
 30
0.0
 70
    32
  0
VERTEX
  5
2FB
  8
VISIBLE_NARROW__ISO_
 10
403.0680356255820129
 20
-120.579930141458803
 30
0.0
 70
    32
  0
VERTEX
  5
2FC
  8
VISIBLE_NARROW__ISO_
 10
403.0579568854245167
 20
-120.5762687241359998
 30
0.0
 70
    32
  0
VERTEX
  5
2FD
  8
VISIBLE_NARROW__ISO_
 10
403.0478387751883247
 20
-120.5727254170492984
 30
0.0
 70
    32
  0
VERTEX
  5
2FE
  8
VISIBLE_NARROW__ISO_
 10
403.0377206649521895
 20
-120.569300220198997
 30
0.0
 70
    32
  0
VERTEX
  5
2FF
  8
VISIBLE_NARROW__ISO_
 10
403.0275238145583785
 20
-120.5659931335847972
 30
0.0
 70
    32
  0
VERTEX
  5
300
  8
VISIBLE_NARROW__ISO_
 10
403.0172875940859853
 20
-120.562804157206898
 30
0.0
 70
    32
  0
VERTEX
  5
301
  8
VISIBLE_NARROW__ISO_
 10
403.0070120035347827
 20
-120.5597726611438958
 30
0.0
 70
    32
  0
VERTEX
  5
302
  8
VISIBLE_NARROW__ISO_
 10
402.9966970429048843
 20
-120.5568592753170947
 30
0.0
 70
    32
  0
VERTEX
  5
303
  8
VISIBLE_NARROW__ISO_
 10
402.9863427121961763
 20
-120.5540639997264947
 30
0.0
 70
    32
  0
VERTEX
  5
304
  8
VISIBLE_NARROW__ISO_
 10
402.9759883814875252
 20
-120.5513868343721953
 30
0.0
 70
    32
  0
VERTEX
  5
305
  8
VISIBLE_NARROW__ISO_
 10
402.9655553106214256
 20
-120.548867149332807
 30
0.0
 70
    32
  0
VERTEX
  5
306
  8
VISIBLE_NARROW__ISO_
 10
402.9551222397553261
 20
-120.5464655745297051
 30
0.0
 70
    32
  0
VERTEX
  5
307
  8
VISIBLE_NARROW__ISO_
 10
402.944649798810417
 20
-120.5441821099628044
 30
0.0
 70
    32
  0
VERTEX
  5
308
  8
VISIBLE_NARROW__ISO_
 10
402.9341379877868121
 20
-120.5420167556320052
 30
0.0
 70
    32
  0
VERTEX
  5
309
  8
VISIBLE_NARROW__ISO_
 10
402.9236261767632072
 20
-120.540008881616302
 30
0.0
 70
    32
  0
VERTEX
  5
30A
  8
VISIBLE_NARROW__ISO_
 10
402.9130749956607929
 20
-120.5381191178367999
 30
0.0
 70
    32
  0
VERTEX
  5
30B
  8
VISIBLE_NARROW__ISO_
 10
402.9025238145583216
 20
-120.5363474642934989
 30
0.0
 70
    32
  0
VERTEX
  5
30C
  8
VISIBLE_NARROW__ISO_
 10
402.8919332633773251
 20
-120.534693920986399
 30
0.0
 70
    32
  0
VERTEX
  5
30D
  8
VISIBLE_NARROW__ISO_
 10
402.8813033421175192
 20
-120.5331978579942955
 30
0.0
 70
    32
  0
VERTEX
  5
30E
  8
VISIBLE_NARROW__ISO_
 10
402.8706734208575995
 20
-120.5318199052382937
 30
0.0
 70
    32
  0
VERTEX
  5
30F
  8
VISIBLE_NARROW__ISO_
 10
402.8600434995977935
 20
-120.5305600627186067
 30
0.0
 70
    32
  0
VERTEX
  5
310
  8
VISIBLE_NARROW__ISO_
 10
402.849374208259178
 20
-120.5294577005139018
 30
0.0
 70
    32
  0
VERTEX
  5
311
  8
VISIBLE_NARROW__ISO_
 10
402.8387049169206193
 20
-120.5284734485453981
 30
0.0
 70
    32
  0
VERTEX
  5
312
  8
VISIBLE_NARROW__ISO_
 10
402.8280356255820038
 20
-120.527646676891905
 30
0.0
 70
    32
  0
VERTEX
  5
313
  8
VISIBLE_NARROW__ISO_
 10
402.8173269641646925
 20
-120.5268986453958036
 30
0.0
 70
    32
  0
VERTEX
  5
314
  8
VISIBLE_NARROW__ISO_
 10
402.8066183027473812
 20
-120.5263080942146985
 30
0.0
 70
    32
  0
VERTEX
  5
315
  8
VISIBLE_NARROW__ISO_
 10
402.7959096413301268
 20
-120.525875023348604
 30
0.0
 70
    32
  0
VERTEX
  5
316
  8
VISIBLE_NARROW__ISO_
 10
402.7852009799127018
 20
-120.5255206926399012
 30
0.0
 70
    32
  0
VERTEX
  5
317
  8
VISIBLE_NARROW__ISO_
 10
402.7744529484166947
 20
-120.5253238422461948
 30
0.0
 70
    32
  0
VERTEX
  5
318
  8
VISIBLE_NARROW__ISO_
 10
402.7637442869993265
 20
-120.525284472167499
 30
0.0
 70
    32
  0
SEQEND
  5
319
  8
VISIBLE_NARROW__ISO_
  0
POLYLINE
  5
A7
  8
VISIBLE_NARROW__ISO_
 66
     1
 10
0.0
 20
0.0
 30
0.0
 70
     8
  0
VERTEX
  5
31A
  8
VISIBLE_NARROW__ISO_
 10
402.7637442869993265
 20
-137.2250860469706026
 30
0.0
 70
    32
  0
VERTEX
  5
31B
  8
VISIBLE_NARROW__ISO_
 10
402.7744529484166947
 20
-137.2250202989391141
 30
0.0
 70
    32
  0
VERTEX
  5
31C
  8
VISIBLE_NARROW__ISO_
 10
402.7852009799127018
 20
-137.2248234485454077
 30
0.0
 70
    32
  0
VERTEX
  5
31D
  8
VISIBLE_NARROW__ISO_
 10
402.7959096413301268
 20
-137.2244951020886958
 30
0.0
 70
    32
  0
VERTEX
  5
31E
  8
VISIBLE_NARROW__ISO_
 10
402.8066183027473812
 20
-137.2240356532699082
 30
0.0
 70
    32
  0
VERTEX
  5
31F
  8
VISIBLE_NARROW__ISO_
 10
402.8173269641646925
 20
-137.2234447083878877
 30
0.0
 70
    32
  0
VERTEX
  5
320
  8
VISIBLE_NARROW__ISO_
 10
402.8280356255820038
 20
-137.2227230548446073
 30
0.0
 70
    32
  0
VERTEX
  5
321
  8
VISIBLE_NARROW__ISO_
 10
402.8387049169206193
 20
-137.2218699052384068
 30
0.0
 70
    32
  0
VERTEX
  5
322
  8
VISIBLE_NARROW__ISO_
 10
402.849374208259178
 20
-137.2208864406713928
 30
0.0
 70
    32
  0
VERTEX
  5
323
  8
VISIBLE_NARROW__ISO_
 10
402.8600434995977935
 20
-137.2197718737423031
 30
0.0
 70
    32
  0
VERTEX
  5
324
  8
VISIBLE_NARROW__ISO_
 10
402.8706734208575995
 20
-137.2185269918525137
 30
0.0
 70
    32
  0
VERTEX
  5
325
  8
VISIBLE_NARROW__ISO_
 10
402.8813033421175192
 20
-137.2171517950021098
 30
0.0
 70
    32
  0
VERTEX
  5
326
  8
VISIBLE_NARROW__ISO_
 10
402.8919332633773251
 20
-137.2156462831910915
 30
0.0
 70
    32
  0
VERTEX
  5
327
  8
VISIBLE_NARROW__ISO_
 10
402.9025238145583216
 20
-137.2140108501203031
 30
0.0
 70
    32
  0
VERTEX
  5
328
  8
VISIBLE_NARROW__ISO_
 10
402.9130749956607929
 20
-137.2122454957894888
 30
0.0
 70
    32
  0
VERTEX
  5
329
  8
VISIBLE_NARROW__ISO_
 10
402.9236261767632072
 20
-137.210351007600508
 30
0.0
 70
    32
  0
VERTEX
  5
32A
  8
VISIBLE_NARROW__ISO_
 10
402.9341379877868121
 20
-137.2083273855533037
 30
0.0
 70
    32
  0
VERTEX
  5
32B
  8
VISIBLE_NARROW__ISO_
 10
402.944649798810417
 20
-137.2061750233486066
 30
0.0
 70
    32
  0
VERTEX
  5
32C
  8
VISIBLE_NARROW__ISO_
 10
402.9551222397553261
 20
-137.2038939209863884
 30
0.0
 70
    32
  0
VERTEX
  5
32D
  8
VISIBLE_NARROW__ISO_
 10
402.9655553106214256
 20
-137.2014848658681956
 30
0.0
 70
    32
  0
VERTEX
  5
32E
  8
VISIBLE_NARROW__ISO_
 10
402.9759883814875252
 20
-137.1989478579943125
 30
0.0
 70
    32
  0
VERTEX
  5
32F
  8
VISIBLE_NARROW__ISO_
 10
402.9863427121961763
 20
-137.1962836847658878
 30
0.0
 70
    32
  0
VERTEX
  5
330
  8
VISIBLE_NARROW__ISO_
 10
402.9966970429048843
 20
-137.1934919524823897
 30
0.0
 70
    32
  0
VERTEX
  5
331
  8
VISIBLE_NARROW__ISO_
 10
403.0070120035347827
 20
-137.1905742359469969
 30
0.0
 70
    32
  0
VERTEX
  5
332
  8
VISIBLE_NARROW__ISO_
 10
403.0172875940859853
 20
-137.187530141458808
 30
0.0
 70
    32
  0
VERTEX
  5
333
  8
VISIBLE_NARROW__ISO_
 10
403.0275238145583785
 20
-137.1843600627186959
 30
0.0
 70
    32
  0
VERTEX
  5
334
  8
VISIBLE_NARROW__ISO_
 10
403.0377206649521895
 20
-137.1810651808289094
 30
0.0
 70
    32
  0
VERTEX
  5
335
  8
VISIBLE_NARROW__ISO_
 10
403.0478387751883247
 20
-137.1776451020888032
 30
0.0
 70
    32
  0
VERTEX
  5
336
  8
VISIBLE_NARROW__ISO_
 10
403.0579568854245167
 20
-137.1741010076005125
 30
0.0
 70
    32
  0
VERTEX
  5
337
  8
VISIBLE_NARROW__ISO_
 10
403.0680356255820129
 20
-137.170433291065109
 30
0.0
 70
    32
  0
VERTEX
  5
338
  8
VISIBLE_NARROW__ISO_
 10
403.0780356255820038
 20
-137.1666423461832096
 30
0.0
 70
    32
  0
VERTEX
  5
339
  8
VISIBLE_NARROW__ISO_
 10
403.0880356255821084
 20
-137.1627289603565032
 30
0.0
 70
    32
  0
VERTEX
  5
33A
  8
VISIBLE_NARROW__ISO_
 10
403.0979568854244803
 20
-137.1586935272856067
 30
0.0
 70
    32
  0
VERTEX
  5
33B
  8
VISIBLE_NARROW__ISO_
 10
403.1077994051095743
 20
-137.1545364406713929
 30
0.0
 70
    32
  0
VERTEX
  5
33C
  8
VISIBLE_NARROW__ISO_
 10
403.1176419247946114
 20
-137.1502588816163097
 30
0.0
 70
    32
  0
VERTEX
  5
33D
  8
VISIBLE_NARROW__ISO_
 10
403.1274057043222001
 20
-137.1458612438210025
 30
0.0
 70
    32
  0
VERTEX
  5
33E
  8
VISIBLE_NARROW__ISO_
 10
403.1371301137709793
 20
-137.1413439209864009
 30
0.0
 70
    32
  0
VERTEX
  5
33F
  8
VISIBLE_NARROW__ISO_
 10
403.1467757830624237
 20
-137.136708094214697
 30
0.0
 70
    32
  0
VERTEX
  5
340
  8
VISIBLE_NARROW__ISO_
 10
403.1563820822750017
 20
-137.1319541572067919
 30
0.0
 70
    32
  0
VERTEX
  5
341
  8
VISIBLE_NARROW__ISO_
 10
403.1659096413300745
 20
-137.1270825036635017
 30
0.0
 70
    32
  0
VERTEX
  5
342
  8
VISIBLE_NARROW__ISO_
 10
403.1753978303065082
 20
-137.1220947083880048
 30
0.0
 70
    32
  0
VERTEX
  5
343
  8
VISIBLE_NARROW__ISO_
 10
403.1848072791253799
 20
-137.1169907713801024
 30
0.0
 70
    32
  0
VERTEX
  5
344
  8
VISIBLE_NARROW__ISO_
 10
403.194137987786803
 20
-137.1117714800415115
 30
0.0
 70
    32
  0
VERTEX
  5
345
  8
VISIBLE_NARROW__ISO_
 10
403.2034293263694167
 20
-137.1064384091754107
 30
0.0
 70
    32
  0
VERTEX
  5
346
  8
VISIBLE_NARROW__ISO_
 10
403.2126419247946956
 20
-137.1009911650808988
 30
0.0
 70
    32
  0
VERTEX
  5
347
  8
VISIBLE_NARROW__ISO_
 10
403.2218151531411081
 20
-137.0954317162619986
 30
0.0
 70
    32
  0
VERTEX
  5
348
  8
VISIBLE_NARROW__ISO_
 10
403.2308702712513195
 20
-137.0897600627187103
 30
0.0
 70
    32
  0
VERTEX
  5
349
  8
VISIBLE_NARROW__ISO_
 10
403.2398860192827783
 20
-137.083977385553311
 30
0.0
 70
    32
  0
VERTEX
  5
34A
  8
VISIBLE_NARROW__ISO_
 10
403.2488230271567886
 20
-137.0780848658683055
 30
0.0
 70
    32
  0
VERTEX
  5
34B
  8
VISIBLE_NARROW__ISO_
 10
403.2577206649521031
 20
-137.0720828973643108
 30
0.0
 70
    32
  0
VERTEX
  5
34C
  8
VISIBLE_NARROW__ISO_
 10
403.2665001925112165
 20
-137.0659722674431009
 30
0.0
 70
    32
  0
VERTEX
  5
34D
  8
VISIBLE_NARROW__ISO_
 10
403.2752009799128246
 20
-137.0597545509075985
 30
0.0
 70
    32
  0
VERTEX
  5
34E
  8
VISIBLE_NARROW__ISO_
 10
403.2838623972356231
 20
-137.0534301414587901
 30
0.0
 70
    32
  0
VERTEX
  5
34F
  8
VISIBLE_NARROW__ISO_
 10
403.2924057043222206
 20
-137.0469998264981939
 30
0.0
 70
    32
  0
VERTEX
  5
350
  8
VISIBLE_NARROW__ISO_
 10
403.3009096413301222
 20
-137.0404655745296907
 30
0.0
 70
    32
  0
VERTEX
  5
351
  8
VISIBLE_NARROW__ISO_
 10
403.309295468101709
 20
-137.0338269918524929
 30
0.0
 70
    32
  0
VERTEX
  5
352
  8
VISIBLE_NARROW__ISO_
 10
403.3176419247946001
 20
-137.0270860469705951
 30
0.0
 70
    32
  0
VERTEX
  5
353
  8
VISIBLE_NARROW__ISO_
 10
403.32587027125129
 20
-137.0202435272856007
 30
0.0
 70
    32
  0
VERTEX
  5
354
  8
VISIBLE_NARROW__ISO_
 10
403.3340198775505883
 20
-137.0133002201989996
 30
0.0
 70
    32
  0
VERTEX
  5
355
  8
VISIBLE_NARROW__ISO_
 10
403.3420907436923244
 20
-137.0062569131123951
 30
0.0
 70
    32
  0
VERTEX
  5
356
  8
VISIBLE_NARROW__ISO_
 10
403.3500434995978026
 20
-136.9991151808289089
 30
0.0
 70
    32
  0
VERTEX
  5
357
  8
VISIBLE_NARROW__ISO_
 10
403.3579568854245281
 20
-136.991878960356388
 30
0.0
 70
    32
  0
VERTEX
  5
358
  8
VISIBLE_NARROW__ISO_
 10
403.3657521610151093
 20
-136.9845443146872128
 30
0.0
 70
    32
  0
VERTEX
  5
359
  8
VISIBLE_NARROW__ISO_
 10
403.3734686964481853
 20
-136.9771112438210139
 30
0.0
 70
    32
  0
VERTEX
  5
35A
  8
VISIBLE_NARROW__ISO_
 10
403.3810671216450032
 20
-136.9695876217737975
 30
0.0
 70
    32
  0
VERTEX
  5
35B
  8
VISIBLE_NARROW__ISO_
 10
403.3885868066843727
 20
-136.9619695115376032
 30
0.0
 70
    32
  0
VERTEX
  5
35C
  8
VISIBLE_NARROW__ISO_
 10
403.3960277515662938
 20
-136.9542608501201926
 30
0.0
 70
    32
  0
VERTEX
  5
35D
  8
VISIBLE_NARROW__ISO_
 10
403.4033505862120137
 20
-136.9464616375217929
 30
0.0
 70
    32
  0
VERTEX
  5
35E
  8
VISIBLE_NARROW__ISO_
 10
403.4105946807001146
 20
-136.9385718737422906
 30
0.0
 70
    32
  0
VERTEX
  5
35F
  8
VISIBLE_NARROW__ISO_
 10
403.417720664952185
 20
-136.930595495789504
 30
0.0
 70
    32
  0
VERTEX
  5
360
  8
VISIBLE_NARROW__ISO_
 10
403.4247679090465795
 20
-136.9225285666556999
 30
0.0
 70
    32
  0
VERTEX
  5
361
  8
VISIBLE_NARROW__ISO_
 10
403.4317364129835823
 20
-136.9143789603564869
 30
0.0
 70
    32
  0
VERTEX
  5
362
  8
VISIBLE_NARROW__ISO_
 10
403.4385868066843841
 20
-136.9061427398839896
 30
0.0
 70
    32
  0
VERTEX
  5
363
  8
VISIBLE_NARROW__ISO_
 10
403.4453190901489847
 20
-136.897823842246197
 30
0.0
 70
    32
  0
VERTEX
  5
364
  8
VISIBLE_NARROW__ISO_
 10
403.4519332633773274
 20
-136.8894222674431091
 30
0.0
 70
    32
  0
VERTEX
  5
365
  8
VISIBLE_NARROW__ISO_
 10
403.4584686964482216
 20
-136.8809419524824023
 30
0.0
 70
    32
  0
VERTEX
  5
366
  8
VISIBLE_NARROW__ISO_
 10
403.4649253893616105
 20
-136.8723789603565137
 30
0.0
 70
    32
  0
VERTEX
  5
367
  8
VISIBLE_NARROW__ISO_
 10
403.4712246019599888
 20
-136.8637372280730062
 30
0.0
 70
    32
  0
VERTEX
  5
368
  8
VISIBLE_NARROW__ISO_
 10
403.4774450744009187
 20
-136.8550206926398971
 30
0.0
 70
    32
  0
VERTEX
  5
369
  8
VISIBLE_NARROW__ISO_
 10
403.4835474366055905
 20
-136.8462254170493964
 30
0.0
 70
    32
  0
VERTEX
  5
36A
  8
VISIBLE_NARROW__ISO_
 10
403.4895710586529276
 20
-136.8373592753171124
 30
0.0
 70
    32
  0
VERTEX
  5
36B
  8
VISIBLE_NARROW__ISO_
 10
403.495476570463893
 20
-136.8284183304351984
 30
0.0
 70
    32
  0
VERTEX
  5
36C
  8
VISIBLE_NARROW__ISO_
 10
403.5012246019600184
 20
-136.8194065194115865
 30
0.0
 70
    32
  0
VERTEX
  5
36D
  8
VISIBLE_NARROW__ISO_
 10
403.5069332633772774
 20
-136.8103238422461914
 30
0.0
 70
    32
  0
VERTEX
  5
36E
  8
VISIBLE_NARROW__ISO_
 10
403.5124844444796963
 20
-136.8011702989390983
 30
0.0
 70
    32
  0
VERTEX
  5
36F
  8
VISIBLE_NARROW__ISO_
 10
403.5179175153458004
 20
-136.791949826498211
 30
0.0
 70
    32
  0
VERTEX
  5
370
  8
VISIBLE_NARROW__ISO_
 10
403.5232718460543992
 20
-136.7826624249233873
 30
0.0
 70
    32
  0
VERTEX
  5
371
  8
VISIBLE_NARROW__ISO_
 10
403.5284686964482148
 20
-136.7733120312225878
 30
0.0
 70
    32
  0
VERTEX
  5
372
  8
VISIBLE_NARROW__ISO_
 10
403.5335868066844114
 20
-136.7638986453958125
 30
0.0
 70
    32
  0
VERTEX
  5
373
  8
VISIBLE_NARROW__ISO_
 10
403.538547436605711
 20
-136.7544183304351861
 30
0.0
 70
    32
  0
VERTEX
  5
374
  8
VISIBLE_NARROW__ISO_
 10
403.5434293263695054
 20
-136.744882897364306
 30
0.0
 70
    32
  0
VERTEX
  5
375
  8
VISIBLE_NARROW__ISO_
 10
403.5481931058969849
 20
-136.7352844721675069
 30
0.0
 70
    32
  0
VERTEX
  5
376
  8
VISIBLE_NARROW__ISO_
 10
403.552838775188377
 20
-136.7256309288603973
 30
0.0
 70
    32
  0
VERTEX
  5
377
  8
VISIBLE_NARROW__ISO_
 10
403.5573269641647016
 20
-136.715918330435187
 30
0.0
 70
    32
  0
VERTEX
  5
378
  8
VISIBLE_NARROW__ISO_
 10
403.5617364129835778
 20
-136.7061545509075984
 30
0.0
 70
    32
  0
VERTEX
  5
379
  8
VISIBLE_NARROW__ISO_
 10
403.5660277515663097
 20
-136.6963317162619944
 30
0.0
 70
    32
  0
VERTEX
  5
37A
  8
VISIBLE_NARROW__ISO_
 10
403.5701616098339741
 20
-136.686461637521802
 30
0.0
 70
    32
  0
VERTEX
  5
37B
  8
VISIBLE_NARROW__ISO_
 10
403.5742167279441901
 20
-136.676540377679288
 30
0.0
 70
    32
  0
VERTEX
  5
37C
  8
VISIBLE_NARROW__ISO_
 10
403.5781143657395091
 20
-136.6665679367343955
 30
0.0
 70
    32
  0
VERTEX
  5
37D
  8
VISIBLE_NARROW__ISO_
 10
403.5819332633773229
 20
-136.6565482516949999
 30
0.0
 70
    32
  0
VERTEX
  5
37E
  8
VISIBLE_NARROW__ISO_
 10
403.5855946807001828
 20
-136.64648525956909
 30
0.0
 70
    32
  0
VERTEX
  5
37F
  8
VISIBLE_NARROW__ISO_
 10
403.5891379877867848
 20
-136.6363750233485916
 30
0.0
 70
    32
  0
VERTEX
  5
380
  8
VISIBLE_NARROW__ISO_
 10
403.5925631846371857
 20
-136.6262214800414938
 30
0.0
 70
    32
  0
VERTEX
  5
381
  8
VISIBLE_NARROW__ISO_
 10
403.595830901172576
 20
-136.6160285666557002
 30
0.0
 70
    32
  0
VERTEX
  5
382
  8
VISIBLE_NARROW__ISO_
 10
403.5990198775505746
 20
-136.605796283191097
 30
0.0
 70
    32
  0
VERTEX
  5
383
  8
VISIBLE_NARROW__ISO_
 10
403.6020513736136195
 20
-136.5955246296477981
 30
0.0
 70
    32
  0
VERTEX
  5
384
  8
VISIBLE_NARROW__ISO_
 10
403.6049647594402927
 20
-136.5852136060258033
 30
0.0
 70
    32
  0
VERTEX
  5
385
  8
VISIBLE_NARROW__ISO_
 10
403.6077600350308217
 20
-136.5748710863406927
 30
0.0
 70
    32
  0
VERTEX
  5
386
  8
VISIBLE_NARROW__ISO_
 10
403.6104372003852063
 20
-136.56449313358479
 30
0.0
 70
    32
  0
VERTEX
  5
387
  8
VISIBLE_NARROW__ISO_
 10
403.6129568854245804
 20
-136.5540836847659136
 30
0.0
 70
    32
  0
VERTEX
  5
388
  8
VISIBLE_NARROW__ISO_
 10
403.6153584602276965
 20
-136.5436427398840067
 30
0.0
 70
    32
  0
VERTEX
  5
389
  8
VISIBLE_NARROW__ISO_
 10
403.6176419247946114
 20
-136.5331702989390976
 30
0.0
 70
    32
  0
VERTEX
  5
38A
  8
VISIBLE_NARROW__ISO_
 10
403.6198072791253253
 20
-136.5226742359469938
 30
0.0
 70
    32
  0
VERTEX
  5
38B
  8
VISIBLE_NARROW__ISO_
 10
403.6218151531410854
 20
-136.5121506138997916
 30
0.0
 70
    32
  0
VERTEX
  5
38C
  8
VISIBLE_NARROW__ISO_
 10
403.6237442869992833
 20
-136.5016033698053093
 30
0.0
 70
    32
  0
VERTEX
  5
38D
  8
VISIBLE_NARROW__ISO_
 10
403.6254765704638885
 20
-136.4910325036634902
 30
0.0
 70
    32
  0
VERTEX
  5
38E
  8
VISIBLE_NARROW__ISO_
 10
403.6271301137709884
 20
-136.4804419524824937
 30
0.0
 70
    32
  0
VERTEX
  5
38F
  8
VISIBLE_NARROW__ISO_
 10
403.6286261767631913
 20
-136.4698277792541035
 30
0.0
 70
    32
  0
VERTEX
  5
390
  8
VISIBLE_NARROW__ISO_
 10
403.6300041295190795
 20
-136.4591978579942122
 30
0.0
 70
    32
  0
VERTEX
  5
391
  8
VISIBLE_NARROW__ISO_
 10
403.6312639720387097
 20
-136.4485521887029051
 30
0.0
 70
    32
  0
VERTEX
  5
392
  8
VISIBLE_NARROW__ISO_
 10
403.6323663342433861
 20
-136.4378947083880007
 30
0.0
 70
    32
  0
VERTEX
  5
393
  8
VISIBLE_NARROW__ISO_
 10
403.633350586211975
 20
-136.4272214800415099
 30
0.0
 70
    32
  0
VERTEX
  5
394
  8
VISIBLE_NARROW__ISO_
 10
403.6342167279443061
 20
-136.4165325036634897
 30
0.0
 70
    32
  0
VERTEX
  5
395
  8
VISIBLE_NARROW__ISO_
 10
403.6349253893616265
 20
-136.4058395902777079
 30
0.0
 70
    32
  0
VERTEX
  5
396
  8
VISIBLE_NARROW__ISO_
 10
403.6355159405425752
 20
-136.3951348658683003
 30
0.0
 70
    32
  0
VERTEX
  5
397
  8
VISIBLE_NARROW__ISO_
 10
403.6359883814876071
 20
-136.3844262044509037
 30
0.0
 70
    32
  0
VERTEX
  5
398
  8
VISIBLE_NARROW__ISO_
 10
403.6363033421174009
 20
-136.3737096690178987
 30
0.0
 70
    32
  0
VERTEX
  5
399
  8
VISIBLE_NARROW__ISO_
 10
403.636500192511221
 20
-136.3629891965769048
 30
0.0
 70
    32
  0
VERTEX
  5
39A
  8
VISIBLE_NARROW__ISO_
 10
403.6365789326687263
 20
-136.3522687241359961
 30
0.0
 70
    32
  0
SEQEND
  5
39B
  8
VISIBLE_NARROW__ISO_
  0
LINE
  5
A8
  8
VISIBLE_NARROW__ISO_
 10
403.6365682616856816
 20
-136.3522681342072076
 30
0.0
 11
403.6365682616856816
 21
-121.3980833802527997
 31
0.0
  0
VIEWPORT
  5
C9
 67
     1
  8
0
 10
-1662.0124328288850393
 20
453.1792782202388139
 30
0.0
 40
61.9081149219764626
 41
26.0728407075247013
 68
     1
 69
     1
1001
ACAD
1000
MVIEW
1002
{
1070
    16
1010
0.0
1020
0.0
1030
0.0
1010
0.0
1020
0.0
1030
1.0
1040
0.0
1040
26.0728407075247013
1040
-1662.0124328288850393
1040
453.1792782202388139
1040
50.0
1040
0.0
1040
0.0
1070
     0
1070
  1000
1070
     1
1070
     1
1070
     0
1070
     0
1070
     0
1070
     0
1040
0.0
1040
0.0
1040
0.0
1040
0.5
1040
0.5
1040
0.5
1040
0.5
1070
     0
1002
{
1002
}
1002
}
  0
LINE
  5
864
 67
     1
  8
VISIBLE_NARROW__ISO_
 10
-1646.1617189398909886
 20
463.5709055375647267
 30
0.0
 11
-1677.4931270852080161
 21
463.5709055375647836
 31
0.0
  0
POLYLINE
  5
865
 67
     1
  8
VISIBLE_NARROW__ISO_
 66
     1
 10
0.0
 20
0.0
 30
0.0
 70
     8
  0
VERTEX
  5
866
 67
     1
  8
VISIBLE_NARROW__ISO_
 10
-1677.4931265495561092
 20
463.5708865058250012
 30
0.0
 70
    32
  0
VERTEX
  5
867
 67
     1
  8
VISIBLE_NARROW__ISO_
 10
-1677.50384702199608
 20
463.5708471357464191
 30
0.0
 70
    32
  0
VERTEX
  5
868
 67
     1
  8
VISIBLE_NARROW__ISO_
 10
-1677.5145674944369603
 20
463.5706502853527127
 30
0.0
 70
    32
  0
VERTEX
  5
869
 67
     1
  8
VISIBLE_NARROW__ISO_
 10
-1677.5252840298699084
 20
463.5702959546439956
 30
0.0
 70
    32
  0
VERTEX
  5
86A
 67
     1
  8
VISIBLE_NARROW__ISO_
 10
-1677.5359926912879018
 20
463.5698628837777733
 30
0.0
 70
    32
  0
VERTEX
  5
86B
 67
     1
  8
VISIBLE_NARROW__ISO_
 10
-1677.5466974156979632
 20
463.5692723325968245
 30
0.0
 70
    32
  0
VERTEX
  5
86C
 67
     1
  8
VISIBLE_NARROW__ISO_
 10
-1677.5573942660910234
 20
463.5685243011006946
 30
0.0
 70
    32
  0
VERTEX
  5
86D
 67
     1
  8
VISIBLE_NARROW__ISO_
 10
-1677.5680793054609694
 20
463.5676975294471163
 30
0.0
 70
    32
  0
VERTEX
  5
86E
 67
     1
  8
VISIBLE_NARROW__ISO_
 10
-1677.5787525338068917
 20
463.5667132774786978
 30
0.0
 70
    32
  0
VERTEX
  5
86F
 67
     1
  8
VISIBLE_NARROW__ISO_
 10
-1677.5894139511299272
 20
463.5656109152740214
 30
0.0
 70
    32
  0
VERTEX
  5
870
 67
     1
  8
VISIBLE_NARROW__ISO_
 10
-1677.6000596204210069
 20
463.5643510727542207
 30
0.0
 70
    32
  0
VERTEX
  5
871
 67
     1
  8
VISIBLE_NARROW__ISO_
 10
-1677.6106895416819498
 20
463.5629731199982757
 30
0.0
 70
    32
  0
VERTEX
  5
872
 67
     1
  8
VISIBLE_NARROW__ISO_
 10
-1677.6212997779020952
 20
463.5614770570061864
 30
0.0
 70
    32
  0
VERTEX
  5
873
 67
     1
  8
VISIBLE_NARROW__ISO_
 10
-1677.6318903290830349
 20
463.5598235136990866
 30
0.0
 70
    32
  0
VERTEX
  5
874
 67
     1
  8
VISIBLE_NARROW__ISO_
 10
-1677.6424611952249961
 20
463.5580518601557856
 30
0.0
 70
    32
  0
VERTEX
  5
875
 67
     1
  8
VISIBLE_NARROW__ISO_
 10
-1677.65300843931891
 20
463.5561620963762834
 30
0.0
 70
    32
  0
VERTEX
  5
876
 67
     1
  8
VISIBLE_NARROW__ISO_
 10
-1677.6635320613670501
 20
463.5541542223605234
 30
0.0
 70
    32
  0
VERTEX
  5
877
 67
     1
  8
VISIBLE_NARROW__ISO_
 10
-1677.674032061366006
 20
463.5519888680298095
 30
0.0
 70
    32
  0
VERTEX
  5
878
 67
     1
  8
VISIBLE_NARROW__ISO_
 10
-1677.6845005653040062
 20
463.5497054034628945
 30
0.0
 70
    32
  0
VERTEX
  5
879
 67
     1
  8
VISIBLE_NARROW__ISO_
 10
-1677.6949415101860268
 20
463.5473038286597784
 30
0.0
 70
    32
  0
VERTEX
  5
87A
 67
     1
  8
VISIBLE_NARROW__ISO_
 10
-1677.7053509590039084
 20
463.5447841436204044
 30
0.0
 70
    32
  0
VERTEX
  5
87B
 67
     1
  8
VISIBLE_NARROW__ISO_
 10
-1677.7157289117599248
 20
463.5421069782660197
 30
0.0
 70
    32
  0
VERTEX
  5
87C
 67
     1
  8
VISIBLE_NARROW__ISO_
 10
-1677.7260753684529391
 20
463.5393117026754908
 30
0.0
 70
    32
  0
VERTEX
  5
87D
 67
     1
  8
VISIBLE_NARROW__ISO_
 10
-1677.736382455067087
 20
463.5363983168487039
 30
0.0
 70
    32
  0
VERTEX
  5
87E
 67
     1
  8
VISIBLE_NARROW__ISO_
 10
-1677.7466541086100733
 20
463.5333668207857727
 30
0.0
 70
    32
  0
VERTEX
  5
87F
 67
     1
  8
VISIBLE_NARROW__ISO_
 10
-1677.7568863920751028
 20
463.530177844407774
 30
0.0
 70
    32
  0
VERTEX
  5
880
 67
     1
  8
VISIBLE_NARROW__ISO_
 10
-1677.7670832424689706
 20
463.5268707577935743
 30
0.0
 70
    32
  0
VERTEX
  5
881
 67
     1
  8
VISIBLE_NARROW__ISO_
 10
-1677.7772328487681079
 20
463.5234455609432871
 30
0.0
 70
    32
  0
VERTEX
  5
882
 67
     1
  8
VISIBLE_NARROW__ISO_
 10
-1677.787343084989061
 20
463.5199022538566282
 30
0.0
 70
    32
  0
VERTEX
  5
883
 67
     1
  8
VISIBLE_NARROW__ISO_
 10
-1677.7974100141220788
 20
463.5162408365338251
 30
0.0
 70
    32
  0
VERTEX
  5
884
 67
     1
  8
VISIBLE_NARROW__ISO_
 10
-1677.8074257621540255
 20
463.5124613089748209
 30
0.0
 70
    32
  0
VERTEX
  5
885
 67
     1
  8
VISIBLE_NARROW__ISO_
 10
-1677.8173982030989464
 20
463.5085636711793882
 30
0.0
 70
    32
  0
VERTEX
  5
886
 67
     1
  8
VISIBLE_NARROW__ISO_
 10
-1677.8273194629409772
 20
463.5045085530691722
 30
0.0
 70
    32
  0
VERTEX
  5
887
 67
     1
  8
VISIBLE_NARROW__ISO_
 10
-1677.8371934786900965
 20
463.5003746948013941
 30
0.0
 70
    32
  0
VERTEX
  5
888
 67
     1
  8
VISIBLE_NARROW__ISO_
 10
-1677.8470123763270294
 20
463.4960833562187759
 30
0.0
 70
    32
  0
VERTEX
  5
889
 67
     1
  8
VISIBLE_NARROW__ISO_
 10
-1677.8567800928619818
 20
463.4916739073998997
 30
0.0
 70
    32
  0
VERTEX
  5
88A
 67
     1
  8
VISIBLE_NARROW__ISO_
 10
-1677.8664887542799988
 20
463.4871463483448224
 30
0.0
 70
    32
  0
VERTEX
  5
88B
 67
     1
  8
VISIBLE_NARROW__ISO_
 10
-1677.8761462345948985
 20
463.482540049132183
 30
0.0
 70
    32
  0
VERTEX
  5
88C
 67
     1
  8
VISIBLE_NARROW__ISO_
 10
-1677.8857407227840213
 20
463.4777762696045897
 30
0.0
 70
    32
  0
VERTEX
  5
88D
 67
     1
  8
VISIBLE_NARROW__ISO_
 10
-1677.895280092863004
 20
463.4728943798409091
 30
0.0
 70
    32
  0
VERTEX
  5
88E
 67
     1
  8
VISIBLE_NARROW__ISO_
 10
-1677.904756470815073
 20
463.4679337499196095
 30
0.0
 70
    32
  0
VERTEX
  5
88F
 67
     1
  8
VISIBLE_NARROW__ISO_
 10
-1677.9141698566420473
 20
463.4628156396834129
 30
0.0
 70
    32
  0
VERTEX
  5
890
 67
     1
  8
VISIBLE_NARROW__ISO_
 10
-1677.9235241873509494
 20
463.4575794192109015
 30
0.0
 70
    32
  0
VERTEX
  5
891
 67
     1
  8
VISIBLE_NARROW__ISO_
 10
-1677.9328076519179831
 20
463.4522644585809985
 30
0.0
 70
    32
  0
VERTEX
  5
892
 67
     1
  8
VISIBLE_NARROW__ISO_
 10
-1677.9420281243590125
 20
463.4467920176360849
 30
0.0
 70
    32
  0
VERTEX
  5
893
 67
     1
  8
VISIBLE_NARROW__ISO_
 10
-1677.9511816676661056
 20
463.4412408365337797
 30
0.0
 70
    32
  0
VERTEX
  5
894
 67
     1
  8
VISIBLE_NARROW__ISO_
 10
-1677.9602643448311028
 20
463.4355715451952165
 30
0.0
 70
    32
  0
VERTEX
  5
895
 67
     1
  8
VISIBLE_NARROW__ISO_
 10
-1677.9692761558549137
 20
463.4297841436203953
 30
0.0
 70
    32
  0
VERTEX
  5
896
 67
     1
  8
VISIBLE_NARROW__ISO_
 10
-1677.9782171007370835
 20
463.4239180018881257
 30
0.0
 70
    32
  0
VERTEX
  5
897
 67
     1
  8
VISIBLE_NARROW__ISO_
 10
-1677.98708717947693
 20
463.4178943798409023
 30
0.0
 70
    32
  0
VERTEX
  5
898
 67
     1
  8
VISIBLE_NARROW__ISO_
 10
-1677.9958785180599534
 20
463.4117920176361167
 30
0.0
 70
    32
  0
VERTEX
  5
899
 67
     1
  8
VISIBLE_NARROW__ISO_
 10
-1678.0045989904999715
 20
463.4055715451951869
 30
0.0
 70
    32
  0
VERTEX
  5
89A
 67
     1
  8
VISIBLE_NARROW__ISO_
 10
-1678.0132367857759164
 20
463.3992329625179991
 30
0.0
 70
    32
  0
VERTEX
  5
89B
 67
     1
  8
VISIBLE_NARROW__ISO_
 10
-1678.0217997779020607
 20
463.3928156396834197
 30
0.0
 70
    32
  0
VERTEX
  5
89C
 67
     1
  8
VISIBLE_NARROW__ISO_
 10
-1678.0302800928629949
 20
463.3862802066125823
 30
0.0
 70
    32
  0
VERTEX
  5
89D
 67
     1
  8
VISIBLE_NARROW__ISO_
 10
-1678.0386816676659691
 20
463.3796660333841828
 30
0.0
 70
    32
  0
VERTEX
  5
89E
 67
     1
  8
VISIBLE_NARROW__ISO_
 10
-1678.0470005653030512
 20
463.3728943798407727
 30
0.0
 70
    32
  0
VERTEX
  5
89F
 67
     1
  8
VISIBLE_NARROW__ISO_
 10
-1678.0552367857760601
 20
463.3660439861400278
 30
0.0
 70
    32
  0
VERTEX
  5
8A0
 67
     1
  8
VISIBLE_NARROW__ISO_
 10
-1678.0633903290829494
 20
463.3591148522817775
 30
0.0
 70
    32
  0
VERTEX
  5
8A1
 67
     1
  8
VISIBLE_NARROW__ISO_
 10
-1678.0714533212089918
 20
463.3520676081873262
 30
0.0
 70
    32
  0
VERTEX
  5
8A2
 67
     1
  8
VISIBLE_NARROW__ISO_
 10
-1678.0794296991618921
 20
463.3449416239353127
 30
0.0
 70
    32
  0
VERTEX
  5
8A3
 67
     1
  8
VISIBLE_NARROW__ISO_
 10
-1678.0873194629409682
 20
463.3376975294472118
 30
0.0
 70
    32
  0
VERTEX
  5
8A4
 67
     1
  8
VISIBLE_NARROW__ISO_
 10
-1678.0951226125480389
 20
463.3303746948014918
 30
0.0
 70
    32
  0
VERTEX
  5
8A5
 67
     1
  8
VISIBLE_NARROW__ISO_
 10
-1678.1028312739649664
 20
463.3229337499196276
 30
0.0
 70
    32
  0
VERTEX
  5
8A6
 67
     1
  8
VISIBLE_NARROW__ISO_
 10
-1678.1104454471928875
 20
463.315414064880315
 30
0.0
 70
    32
  0
VERTEX
  5
8A7
 67
     1
  8
VISIBLE_NARROW__ISO_
 10
-1678.1179730062490307
 20
463.3077762696045738
 30
0.0
 70
    32
  0
VERTEX
  5
8A8
 67
     1
  8
VISIBLE_NARROW__ISO_
 10
-1678.1254021401070986
 20
463.3000991042503074
 30
0.0
 70
    32
  0
VERTEX
  5
8A9
 67
     1
  8
VISIBLE_NARROW__ISO_
 10
-1678.1327367857759327
 20
463.2922644585809735
 30
0.0
 70
    32
  0
VERTEX
  5
8AA
 67
     1
  8
VISIBLE_NARROW__ISO_
 10
-1678.1399769432559879
 20
463.2843904428328869
 30
0.0
 70
    32
  0
VERTEX
  5
8AB
 67
     1
  8
VISIBLE_NARROW__ISO_
 10
-1678.1471186755391045
 20
463.276398316848713
 30
0.0
 70
    32
  0
VERTEX
  5
8AC
 67
     1
  8
VISIBLE_NARROW__ISO_
 10
-1678.1541580456189422
 20
463.2683668207857863
 30
0.0
 70
    32
  0
VERTEX
  5
8AD
 67
     1
  8
VISIBLE_NARROW__ISO_
 10
-1678.1611029275079545
 20
463.260217214486488
 30
0.0
 70
    32
  0
VERTEX
  5
8AE
 67
     1
  8
VISIBLE_NARROW__ISO_
 10
-1678.1679454471930057
 20
463.2519494979511023
 30
0.0
 70
    32
  0
VERTEX
  5
8AF
 67
     1
  8
VISIBLE_NARROW__ISO_
 10
-1678.174685604672959
 20
463.2436424113369071
 30
0.0
 70
    32
  0
VERTEX
  5
8B0
 67
     1
  8
VISIBLE_NARROW__ISO_
 10
-1678.1813233999489512
 20
463.2352565845653203
 30
0.0
 70
    32
  0
VERTEX
  5
8B1
 67
     1
  8
VISIBLE_NARROW__ISO_
 10
-1678.1878588330200728
 20
463.226752647557305
 30
0.0
 70
    32
  0
VERTEX
  5
8B2
 67
     1
  8
VISIBLE_NARROW__ISO_
 10
-1678.1942879668790738
 20
463.2182093404708212
 30
0.0
 70
    32
  0
VERTEX
  5
8B3
 67
     1
  8
VISIBLE_NARROW__ISO_
 10
-1678.2006147385320673
 20
463.2095479231479089
 30
0.0
 70
    32
  0
VERTEX
  5
8B4
 67
     1
  8
VISIBLE_NARROW__ISO_
 10
-1678.2068312739650082
 20
463.2008471357464146
 30
0.0
 70
    32
  0
VERTEX
  5
8B5
 67
     1
  8
VISIBLE_NARROW__ISO_
 10
-1678.212941510184919
 20
463.1920282381086054
 30
0.0
 70
    32
  0
VERTEX
  5
8B6
 67
     1
  8
VISIBLE_NARROW__ISO_
 10
-1678.2189454471929366
 20
463.1831699703921004
 30
0.0
 70
    32
  0
VERTEX
  5
8B7
 67
     1
  8
VISIBLE_NARROW__ISO_
 10
-1678.2248352109729694
 20
463.1742329625180901
 30
0.0
 70
    32
  0
VERTEX
  5
8B8
 67
     1
  8
VISIBLE_NARROW__ISO_
 10
-1678.2306186755399722
 20
463.1652172144865744
 30
0.0
 70
    32
  0
VERTEX
  5
8B9
 67
     1
  8
VISIBLE_NARROW__ISO_
 10
-1678.2362919038860127
 20
463.1561227262976104
 30
0.0
 70
    32
  0
VERTEX
  5
8BA
 67
     1
  8
VISIBLE_NARROW__ISO_
 10
-1678.2418509590040685
 20
463.1469888680298936
 30
0.0
 70
    32
  0
VERTEX
  5
8BB
 67
     1
  8
VISIBLE_NARROW__ISO_
 10
-1678.2472958408939121
 20
463.1377762696046148
 30
0.0
 70
    32
  0
VERTEX
  5
8BC
 67
     1
  8
VISIBLE_NARROW__ISO_
 10
-1678.2526304865630209
 20
463.1284849310220011
 30
0.0
 70
    32
  0
VERTEX
  5
8BD
 67
     1
  8
VISIBLE_NARROW__ISO_
 10
-1678.2578509590039175
 20
463.1191148522818253
 30
0.0
 70
    32
  0
VERTEX
  5
8BE
 67
     1
  8
VISIBLE_NARROW__ISO_
 10
-1678.2629533212088973
 20
463.1097054034628968
 30
0.0
 70
    32
  0
VERTEX
  5
8BF
 67
     1
  8
VISIBLE_NARROW__ISO_
 10
-1678.2679415101858922
 20
463.1002565845652157
 30
0.0
 70
    32
  0
VERTEX
  5
8C0
 67
     1
  8
VISIBLE_NARROW__ISO_
 10
-1678.2728131637290971
 20
463.0906896554313903
 30
0.0
 70
    32
  0
VERTEX
  5
8C1
 67
     1
  8
VISIBLE_NARROW__ISO_
 10
-1678.2775671007370875
 20
463.0811227262976217
 30
0.0
 70
    32
  0
VERTEX
  5
8C2
 67
     1
  8
VISIBLE_NARROW__ISO_
 10
-1678.282202927508024
 20
463.0714376869274815
 30
0.0
 70
    32
  0
VERTEX
  5
8C3
 67
     1
  8
VISIBLE_NARROW__ISO_
 10
-1678.2867202503430235
 20
463.0617526475573982
 30
0.0
 70
    32
  0
VERTEX
  5
8C4
 67
     1
  8
VISIBLE_NARROW__ISO_
 10
-1678.2911178881379328
 20
463.0519888680298095
 30
0.0
 70
    32
  0
VERTEX
  5
8C5
 67
     1
  8
VISIBLE_NARROW__ISO_
 10
-1678.2953954471929592
 20
463.0421463483447724
 30
0.0
 70
    32
  0
VERTEX
  5
8C6
 67
     1
  8
VISIBLE_NARROW__ISO_
 10
-1678.2995525338080824
 20
463.0322644585809826
 30
0.0
 70
    32
  0
VERTEX
  5
8C7
 67
     1
  8
VISIBLE_NARROW__ISO_
 10
-1678.3035879668780126
 20
463.022343198738497
 30
0.0
 70
    32
  0
VERTEX
  5
8C8
 67
     1
  8
VISIBLE_NARROW__ISO_
 10
-1678.3075013527050032
 20
463.0123825688172019
 30
0.0
 70
    32
  0
VERTEX
  5
8C9
 67
     1
  8
VISIBLE_NARROW__ISO_
 10
-1678.3112922975869878
 20
463.002382568817211
 30
0.0
 70
    32
  0
VERTEX
  5
8CA
 67
     1
  8
VISIBLE_NARROW__ISO_
 10
-1678.3149600141221072
 20
462.9923038286597148
 30
0.0
 70
    32
  0
VERTEX
  5
8CB
 67
     1
  8
VISIBLE_NARROW__ISO_
 10
-1678.3185041086110232
 20
462.9821857184235796
 30
0.0
 70
    32
  0
VERTEX
  5
8CC
 67
     1
  8
VISIBLE_NARROW__ISO_
 10
-1678.3219237936500576
 20
462.9720282381085212
 30
0.0
 70
    32
  0
VERTEX
  5
8CD
 67
     1
  8
VISIBLE_NARROW__ISO_
 10
-1678.3252190692398926
 20
462.9618313877148807
 30
0.0
 70
    32
  0
VERTEX
  5
8CE
 67
     1
  8
VISIBLE_NARROW__ISO_
 10
-1678.328388754280013
 20
462.9516345373211266
 30
0.0
 70
    32
  0
VERTEX
  5
8CF
 67
     1
  8
VISIBLE_NARROW__ISO_
 10
-1678.3314332424690747
 20
462.9413589467699808
 30
0.0
 70
    32
  0
VERTEX
  5
8D0
 67
     1
  8
VISIBLE_NARROW__ISO_
 10
-1678.3343509590040412
 20
462.9310439861400823
 30
0.0
 70
    32
  0
VERTEX
  5
8D1
 67
     1
  8
VISIBLE_NARROW__ISO_
 10
-1678.3371422975869791
 20
462.9206896554313744
 30
0.0
 70
    32
  0
VERTEX
  5
8D2
 67
     1
  8
VISIBLE_NARROW__ISO_
 10
-1678.3398068645160492
 20
462.9102959546440275
 30
0.0
 70
    32
  0
VERTEX
  5
8D3
 67
     1
  8
VISIBLE_NARROW__ISO_
 10
-1678.3423438723900745
 20
462.89990225385651
 30
0.0
 70
    32
  0
VERTEX
  5
8D4
 67
     1
  8
VISIBLE_NARROW__ISO_
 10
-1678.3447529275078978
 20
462.8894691829905241
 30
0.0
 70
    32
  0
VERTEX
  5
8D5
 67
     1
  8
VISIBLE_NARROW__ISO_
 10
-1678.3470340298699739
 20
462.8789967420456151
 30
0.0
 70
    32
  0
VERTEX
  5
8D6
 67
     1
  8
VISIBLE_NARROW__ISO_
 10
-1678.3491863920748983
 20
462.8684849310220102
 30
0.0
 70
    32
  0
VERTEX
  5
8D7
 67
     1
  8
VISIBLE_NARROW__ISO_
 10
-1678.3512100141219889
 20
462.8579731199984053
 30
0.0
 70
    32
  0
VERTEX
  5
8D8
 67
     1
  8
VISIBLE_NARROW__ISO_
 10
-1678.3531045023109982
 20
462.8474219388959909
 30
0.0
 70
    32
  0
VERTEX
  5
8D9
 67
     1
  8
VISIBLE_NARROW__ISO_
 10
-1678.3548698566419262
 20
462.8368707577935766
 30
0.0
 70
    32
  0
VERTEX
  5
8DA
 67
     1
  8
VISIBLE_NARROW__ISO_
 10
-1678.3565048960119839
 20
462.8262408365337137
 30
0.0
 70
    32
  0
VERTEX
  5
8DB
 67
     1
  8
VISIBLE_NARROW__ISO_
 10
-1678.3580104078230306
 20
462.8156502853527172
 30
0.0
 70
    32
  0
VERTEX
  5
8DC
 67
     1
  8
VISIBLE_NARROW__ISO_
 10
-1678.3593859983739094
 20
462.8050203640929112
 30
0.0
 70
    32
  0
VERTEX
  5
8DD
 67
     1
  8
VISIBLE_NARROW__ISO_
 10
-1678.3606308802638978
 20
462.7943904428328779
 30
0.0
 70
    32
  0
VERTEX
  5
8DE
 67
     1
  8
VISIBLE_NARROW__ISO_
 10
-1678.3617454471930159
 20
462.783721151494376
 30
0.0
 70
    32
  0
VERTEX
  5
8DF
 67
     1
  8
VISIBLE_NARROW__ISO_
 10
-1678.3627289117600867
 20
462.7730518601558174
 30
0.0
 70
    32
  0
VERTEX
  5
8E0
 67
     1
  8
VISIBLE_NARROW__ISO_
 10
-1678.3635816676660397
 20
462.7623431987386198
 30
0.0
 70
    32
  0
VERTEX
  5
8E1
 67
     1
  8
VISIBLE_NARROW__ISO_
 10
-1678.3643037149099655
 20
462.7516739073998906
 30
0.0
 70
    32
  0
VERTEX
  5
8E2
 67
     1
  8
VISIBLE_NARROW__ISO_
 10
-1678.3648942660909142
 20
462.7409652459825793
 30
0.0
 70
    32
  0
VERTEX
  5
8E3
 67
     1
  8
VISIBLE_NARROW__ISO_
 10
-1678.3653541086109726
 20
462.7302565845652111
 30
0.0
 70
    32
  0
VERTEX
  5
8E4
 67
     1
  8
VISIBLE_NARROW__ISO_
 10
-1678.3656824550669171
 20
462.7195085530693177
 30
0.0
 70
    32
  0
VERTEX
  5
8E5
 67
     1
  8
VISIBLE_NARROW__ISO_
 10
-1678.3658793054610214
 20
462.708799891651779
 30
0.0
 70
    32
  0
VERTEX
  5
8E6
 67
     1
  8
VISIBLE_NARROW__ISO_
 10
-1678.3659450534919415
 20
462.6980912302345814
 30
0.0
 70
    32
  0
SEQEND
  5
8E7
 67
     1
  8
VISIBLE_NARROW__ISO_
  0
LINE
  5
8E8
 67
     1
  8
VISIBLE_NARROW__ISO_
 10
-1678.3659450250329428
 20
462.6980875977399137
 30
0.0
 11
-1678.3659450250329428
 21
447.74390284378552
 31
0.0
  0
POLYLINE
  5
8E9
 67
     1
  8
VISIBLE_NARROW__ISO_
 66
     1
 10
0.0
 20
0.0
 30
0.0
 70
     8
  0
VERTEX
  5
8EA
 67
     1
  8
VISIBLE_NARROW__ISO_
 10
-1678.3659450534919415
 20
447.7439022538566178
 30
0.0
 70
    32
  0
VERTEX
  5
8EB
 67
     1
  8
VISIBLE_NARROW__ISO_
 10
-1678.3658793054610214
 20
447.7331817814156807
 30
0.0
 70
    32
  0
VERTEX
  5
8EC
 67
     1
  8
VISIBLE_NARROW__ISO_
 10
-1678.3656824550669171
 20
447.7224613089746867
 30
0.0
 70
    32
  0
VERTEX
  5
8ED
 67
     1
  8
VISIBLE_NARROW__ISO_
 10
-1678.3653541086109726
 20
447.7117447735416249
 30
0.0
 70
    32
  0
VERTEX
  5
8EE
 67
     1
  8
VISIBLE_NARROW__ISO_
 10
-1678.3648942660909142
 20
447.7010361121243136
 30
0.0
 70
    32
  0
VERTEX
  5
8EF
 67
     1
  8
VISIBLE_NARROW__ISO_
 10
-1678.3643037149099655
 20
447.6903313877148776
 30
0.0
 70
    32
  0
VERTEX
  5
8F0
 67
     1
  8
VISIBLE_NARROW__ISO_
 10
-1678.3635816676660397
 20
447.6796384743290105
 30
0.0
 70
    32
  0
VERTEX
  5
8F1
 67
     1
  8
VISIBLE_NARROW__ISO_
 10
-1678.3627289117600867
 20
447.6689494979510755
 30
0.0
 70
    32
  0
VERTEX
  5
8F2
 67
     1
  8
VISIBLE_NARROW__ISO_
 10
-1678.3617454471930159
 20
447.6582762696046984
 30
0.0
 70
    32
  0
VERTEX
  5
8F3
 67
     1
  8
VISIBLE_NARROW__ISO_
 10
-1678.3606308802638978
 20
447.6476187892897087
 30
0.0
 70
    32
  0
VERTEX
  5
8F4
 67
     1
  8
VISIBLE_NARROW__ISO_
 10
-1678.3593859983739094
 20
447.6369731199984017
 30
0.0
 70
    32
  0
VERTEX
  5
8F5
 67
     1
  8
VISIBLE_NARROW__ISO_
 10
-1678.3580104078230306
 20
447.6263431987384251
 30
0.0
 70
    32
  0
VERTEX
  5
8F6
 67
     1
  8
VISIBLE_NARROW__ISO_
 10
-1678.3565048960119839
 20
447.6157290255101202
 30
0.0
 70
    32
  0
VERTEX
  5
8F7
 67
     1
  8
VISIBLE_NARROW__ISO_
 10
-1678.3548698566419262
 20
447.60513847432901
 30
0.0
 70
    32
  0
VERTEX
  5
8F8
 67
     1
  8
VISIBLE_NARROW__ISO_
 10
-1678.3531045023109982
 20
447.5945676081872762
 30
0.0
 70
    32
  0
VERTEX
  5
8F9
 67
     1
  8
VISIBLE_NARROW__ISO_
 10
-1678.3512100141219889
 20
447.5840203640927939
 30
0.0
 70
    32
  0
VERTEX
  5
8FA
 67
     1
  8
VISIBLE_NARROW__ISO_
 10
-1678.3491863920748983
 20
447.5734967420456201
 30
0.0
 70
    32
  0
VERTEX
  5
8FB
 67
     1
  8
VISIBLE_NARROW__ISO_
 10
-1678.3470340298699739
 20
447.5630006790535163
 30
0.0
 70
    32
  0
VERTEX
  5
8FC
 67
     1
  8
VISIBLE_NARROW__ISO_
 10
-1678.3447529275078978
 20
447.5525282381084935
 30
0.0
 70
    32
  0
VERTEX
  5
8FD
 67
     1
  8
VISIBLE_NARROW__ISO_
 10
-1678.3423438723900745
 20
447.5420872932267002
 30
0.0
 70
    32
  0
VERTEX
  5
8FE
 67
     1
  8
VISIBLE_NARROW__ISO_
 10
-1678.3398068645160492
 20
447.5316778444077954
 30
0.0
 70
    32
  0
VERTEX
  5
8FF
 67
     1
  8
VISIBLE_NARROW__ISO_
 10
-1678.3371422975869791
 20
447.5212998916518927
 30
0.0
 70
    32
  0
VERTEX
  5
900
 67
     1
  8
VISIBLE_NARROW__ISO_
 10
-1678.3343509590040412
 20
447.5109573719668106
 30
0.0
 70
    32
  0
VERTEX
  5
901
 67
     1
  8
VISIBLE_NARROW__ISO_
 10
-1678.3314332424690747
 20
447.5006463483447874
 30
0.0
 70
    32
  0
VERTEX
  5
902
 67
     1
  8
VISIBLE_NARROW__ISO_
 10
-1678.328388754280013
 20
447.4903746948014032
 30
0.0
 70
    32
  0
VERTEX
  5
903
 67
     1
  8
VISIBLE_NARROW__ISO_
 10
-1678.3252190692398926
 20
447.4801424113368853
 30
0.0
 70
    32
  0
VERTEX
  5
904
 67
     1
  8
VISIBLE_NARROW__ISO_
 10
-1678.3219237936500576
 20
447.4699494979510064
 30
0.0
 70
    32
  0
VERTEX
  5
905
 67
     1
  8
VISIBLE_NARROW__ISO_
 10
-1678.3185041086110232
 20
447.4597959546439938
 30
0.0
 70
    32
  0
VERTEX
  5
906
 67
     1
  8
VISIBLE_NARROW__ISO_
 10
-1678.3149600141221072
 20
447.4496857184234955
 30
0.0
 70
    32
  0
VERTEX
  5
907
 67
     1
  8
VISIBLE_NARROW__ISO_
 10
-1678.3112922975869878
 20
447.439622726297614
 30
0.0
 70
    32
  0
VERTEX
  5
908
 67
     1
  8
VISIBLE_NARROW__ISO_
 10
-1678.3075013527050032
 20
447.4296030412581899
 30
0.0
 70
    32
  0
VERTEX
  5
909
 67
     1
  8
VISIBLE_NARROW__ISO_
 10
-1678.3035879668780126
 20
447.4196306003133259
 30
0.0
 70
    32
  0
VERTEX
  5
90A
 67
     1
  8
VISIBLE_NARROW__ISO_
 10
-1678.2995525338080824
 20
447.4097093404707834
 30
0.0
 70
    32
  0
VERTEX
  5
90B
 67
     1
  8
VISIBLE_NARROW__ISO_
 10
-1678.2953954471929592
 20
447.3998392617306195
 30
0.0
 70
    32
  0
VERTEX
  5
90C
 67
     1
  8
VISIBLE_NARROW__ISO_
 10
-1678.2911178881379328
 20
447.3900164270850155
 30
0.0
 70
    32
  0
VERTEX
  5
90D
 67
     1
  8
VISIBLE_NARROW__ISO_
 10
-1678.2867202503430235
 20
447.3802526475574268
 30
0.0
 70
    32
  0
VERTEX
  5
90E
 67
     1
  8
VISIBLE_NARROW__ISO_
 10
-1678.282202927508024
 20
447.3705400491322166
 30
0.0
 70
    32
  0
VERTEX
  5
90F
 67
     1
  8
VISIBLE_NARROW__ISO_
 10
-1678.2775671007370875
 20
447.3608865058250785
 30
0.0
 70
    32
  0
VERTEX
  5
910
 67
     1
  8
VISIBLE_NARROW__ISO_
 10
-1678.2728131637290971
 20
447.3512880806281942
 30
0.0
 70
    32
  0
VERTEX
  5
911
 67
     1
  8
VISIBLE_NARROW__ISO_
 10
-1678.2679415101858922
 20
447.3417526475574277
 30
0.0
 70
    32
  0
VERTEX
  5
912
 67
     1
  8
VISIBLE_NARROW__ISO_
 10
-1678.2629533212088973
 20
447.3322723325968013
 30
0.0
 70
    32
  0
VERTEX
  5
913
 67
     1
  8
VISIBLE_NARROW__ISO_
 10
-1678.2578509590039175
 20
447.3228589467699976
 30
0.0
 70
    32
  0
VERTEX
  5
914
 67
     1
  8
VISIBLE_NARROW__ISO_
 10
-1678.2526304865630209
 20
447.3135085530691981
 30
0.0
 70
    32
  0
VERTEX
  5
915
 67
     1
  8
VISIBLE_NARROW__ISO_
 10
-1678.2472958408939121
 20
447.3042211514942892
 30
0.0
 70
    32
  0
VERTEX
  5
916
 67
     1
  8
VISIBLE_NARROW__ISO_
 10
-1678.2418509590040685
 20
447.2950006790534871
 30
0.0
 70
    32
  0
VERTEX
  5
917
 67
     1
  8
VISIBLE_NARROW__ISO_
 10
-1678.2362919038860127
 20
447.2858471357462804
 30
0.0
 70
    32
  0
VERTEX
  5
918
 67
     1
  8
VISIBLE_NARROW__ISO_
 10
-1678.2306186755399722
 20
447.276764458580999
 30
0.0
 70
    32
  0
VERTEX
  5
919
 67
     1
  8
VISIBLE_NARROW__ISO_
 10
-1678.2248352109729694
 20
447.2677526475574155
 30
0.0
 70
    32
  0
VERTEX
  5
91A
 67
     1
  8
VISIBLE_NARROW__ISO_
 10
-1678.2189454471929366
 20
447.258811702675473
 30
0.0
 70
    32
  0
VERTEX
  5
91B
 67
     1
  8
VISIBLE_NARROW__ISO_
 10
-1678.212941510184919
 20
447.2499455609432175
 30
0.0
 70
    32
  0
VERTEX
  5
91C
 67
     1
  8
VISIBLE_NARROW__ISO_
 10
-1678.2068312739650082
 20
447.2411502853526031
 30
0.0
 70
    32
  0
VERTEX
  5
91D
 67
     1
  8
VISIBLE_NARROW__ISO_
 10
-1678.2006147385320673
 20
447.2324337499197213
 30
0.0
 70
    32
  0
VERTEX
  5
91E
 67
     1
  8
VISIBLE_NARROW__ISO_
 10
-1678.1942879668790738
 20
447.2237920176360717
 30
0.0
 70
    32
  0
VERTEX
  5
91F
 67
     1
  8
VISIBLE_NARROW__ISO_
 10
-1678.1878588330200728
 20
447.2152290255102116
 30
0.0
 70
    32
  0
VERTEX
  5
920
 67
     1
  8
VISIBLE_NARROW__ISO_
 10
-1678.1813233999489512
 20
447.2067487105495047
 30
0.0
 70
    32
  0
VERTEX
  5
921
 67
     1
  8
VISIBLE_NARROW__ISO_
 10
-1678.174685604672959
 20
447.1983471357463031
 30
0.0
 70
    32
  0
VERTEX
  5
922
 67
     1
  8
VISIBLE_NARROW__ISO_
 10
-1678.1679454471930057
 20
447.1900282381085958
 30
0.0
 70
    32
  0
VERTEX
  5
923
 67
     1
  8
VISIBLE_NARROW__ISO_
 10
-1678.1611029275079545
 20
447.1817920176360985
 30
0.0
 70
    32
  0
VERTEX
  5
924
 67
     1
  8
VISIBLE_NARROW__ISO_
 10
-1678.1541580456189422
 20
447.1736424113369139
 30
0.0
 70
    32
  0
VERTEX
  5
925
 67
     1
  8
VISIBLE_NARROW__ISO_
 10
-1678.1471186755391045
 20
447.1655754822029962
 30
0.0
 70
    32
  0
VERTEX
  5
926
 67
     1
  8
VISIBLE_NARROW__ISO_
 10
-1678.1399769432559879
 20
447.1575991042503233
 30
0.0
 70
    32
  0
VERTEX
  5
927
 67
     1
  8
VISIBLE_NARROW__ISO_
 10
-1678.1327367857759327
 20
447.1497093404707925
 30
0.0
 70
    32
  0
VERTEX
  5
928
 67
     1
  8
VISIBLE_NARROW__ISO_
 10
-1678.1254021401070986
 20
447.1419101278723929
 30
0.0
 70
    32
  0
VERTEX
  5
929
 67
     1
  8
VISIBLE_NARROW__ISO_
 10
-1678.1179730062490307
 20
447.1342014664550106
 30
0.0
 70
    32
  0
VERTEX
  5
92A
 67
     1
  8
VISIBLE_NARROW__ISO_
 10
-1678.1104454471928875
 20
447.1265833562187026
 30
0.0
 70
    32
  0
VERTEX
  5
92B
 67
     1
  8
VISIBLE_NARROW__ISO_
 10
-1678.1028312739649664
 20
447.1190597341716284
 30
0.0
 70
    32
  0
VERTEX
  5
92C
 67
     1
  8
VISIBLE_NARROW__ISO_
 10
-1678.0951226125480389
 20
447.1116266633054011
 30
0.0
 70
    32
  0
VERTEX
  5
92D
 67
     1
  8
VISIBLE_NARROW__ISO_
 10
-1678.0873194629409682
 20
447.1042920176361122
 30
0.0
 70
    32
  0
VERTEX
  5
92E
 67
     1
  8
VISIBLE_NARROW__ISO_
 10
-1678.0794296991618921
 20
447.0970557971638186
 30
0.0
 70
    32
  0
VERTEX
  5
92F
 67
     1
  8
VISIBLE_NARROW__ISO_
 10
-1678.0714533212089918
 20
447.0899140648803041
 30
0.0
 70
    32
  0
VERTEX
  5
930
 67
     1
  8
VISIBLE_NARROW__ISO_
 10
-1678.0633903290829494
 20
447.0828707577936143
 30
0.0
 70
    32
  0
VERTEX
  5
931
 67
     1
  8
VISIBLE_NARROW__ISO_
 10
-1678.0552367857760601
 20
447.0759274507070131
 30
0.0
 70
    32
  0
VERTEX
  5
932
 67
     1
  8
VISIBLE_NARROW__ISO_
 10
-1678.0470005653030512
 20
447.069084931021905
 30
0.0
 70
    32
  0
VERTEX
  5
933
 67
     1
  8
VISIBLE_NARROW__ISO_
 10
-1678.0386816676659691
 20
447.0623439861400925
 30
0.0
 70
    32
  0
VERTEX
  5
934
 67
     1
  8
VISIBLE_NARROW__ISO_
 10
-1678.0302800928629949
 20
447.0557054034629232
 30
0.0
 70
    32
  0
VERTEX
  5
935
 67
     1
  8
VISIBLE_NARROW__ISO_
 10
-1678.0217997779020607
 20
447.04917115149442
 30
0.0
 70
    32
  0
VERTEX
  5
936
 67
     1
  8
VISIBLE_NARROW__ISO_
 10
-1678.0132367857759164
 20
447.0427408365337101
 30
0.0
 70
    32
  0
VERTEX
  5
937
 67
     1
  8
VISIBLE_NARROW__ISO_
 10
-1678.0045989904999715
 20
447.0364164270849869
 30
0.0
 70
    32
  0
VERTEX
  5
938
 67
     1
  8
VISIBLE_NARROW__ISO_
 10
-1677.9958785180599534
 20
447.0301987105494845
 30
0.0
 70
    32
  0
VERTEX
  5
939
 67
     1
  8
VISIBLE_NARROW__ISO_
 10
-1677.98708717947693
 20
447.024088080628303
 30
0.0
 70
    32
  0
VERTEX
  5
93A
 67
     1
  8
VISIBLE_NARROW__ISO_
 10
-1677.9782171007370835
 20
447.0180861121243083
 30
0.0
 70
    32
  0
VERTEX
  5
93B
 67
     1
  8
VISIBLE_NARROW__ISO_
 10
-1677.9692761558549137
 20
447.0121935924391892
 30
0.0
 70
    32
  0
VERTEX
  5
93C
 67
     1
  8
VISIBLE_NARROW__ISO_
 10
-1677.9602643448311028
 20
447.0064109152738752
 30
0.0
 70
    32
  0
VERTEX
  5
93D
 67
     1
  8
VISIBLE_NARROW__ISO_
 10
-1677.9511816676661056
 20
447.0007392617305868
 30
0.0
 70
    32
  0
VERTEX
  5
93E
 67
     1
  8
VISIBLE_NARROW__ISO_
 10
-1677.9420281243590125
 20
446.9951798129117151
 30
0.0
 70
    32
  0
VERTEX
  5
93F
 67
     1
  8
VISIBLE_NARROW__ISO_
 10
-1677.9328076519179831
 20
446.9897325688172032
 30
0.0
 70
    32
  0
VERTEX
  5
940
 67
     1
  8
VISIBLE_NARROW__ISO_
 10
-1677.9235241873509494
 20
446.984399497951074
 30
0.0
 70
    32
  0
VERTEX
  5
941
 67
     1
  8
VISIBLE_NARROW__ISO_
 10
-1677.9141698566420473
 20
446.9791802066125115
 30
0.0
 70
    32
  0
VERTEX
  5
942
 67
     1
  8
VISIBLE_NARROW__ISO_
 10
-1677.904756470815073
 20
446.974076269604609
 30
0.0
 70
    32
  0
VERTEX
  5
943
 67
     1
  8
VISIBLE_NARROW__ISO_
 10
-1677.895280092863004
 20
446.9690884743291122
 30
0.0
 70
    32
  0
VERTEX
  5
944
 67
     1
  8
VISIBLE_NARROW__ISO_
 10
-1677.8857407227840213
 20
446.9642168207856798
 30
0.0
 70
    32
  0
VERTEX
  5
945
 67
     1
  8
VISIBLE_NARROW__ISO_
 10
-1677.8761462345948985
 20
446.9594628837779169
 30
0.0
 70
    32
  0
VERTEX
  5
946
 67
     1
  8
VISIBLE_NARROW__ISO_
 10
-1677.8664887542799988
 20
446.9548270570061845
 30
0.0
 70
    32
  0
VERTEX
  5
947
 67
     1
  8
VISIBLE_NARROW__ISO_
 10
-1677.8567800928619818
 20
446.9503097341715261
 30
0.0
 70
    32
  0
VERTEX
  5
948
 67
     1
  8
VISIBLE_NARROW__ISO_
 10
-1677.8470123763270294
 20
446.9459120963762757
 30
0.0
 70
    32
  0
VERTEX
  5
949
 67
     1
  8
VISIBLE_NARROW__ISO_
 10
-1677.8371934786900965
 20
446.9416345373210788
 30
0.0
 70
    32
  0
VERTEX
  5
94A
 67
     1
  8
VISIBLE_NARROW__ISO_
 10
-1677.8273194629409772
 20
446.9374774507069787
 30
0.0
 70
    32
  0
VERTEX
  5
94B
 67
     1
  8
VISIBLE_NARROW__ISO_
 10
-1677.8173982030989464
 20
446.9334420176360823
 30
0.0
 70
    32
  0
VERTEX
  5
94C
 67
     1
  8
VISIBLE_NARROW__ISO_
 10
-1677.8074257621540255
 20
446.929528631809319
 30
0.0
 70
    32
  0
VERTEX
  5
94D
 67
     1
  8
VISIBLE_NARROW__ISO_
 10
-1677.7974100141220788
 20
446.9257376869275049
 30
0.0
 70
    32
  0
VERTEX
  5
94E
 67
     1
  8
VISIBLE_NARROW__ISO_
 10
-1677.787343084989061
 20
446.9220699703919877
 30
0.0
 70
    32
  0
VERTEX
  5
94F
 67
     1
  8
VISIBLE_NARROW__ISO_
 10
-1677.7772328487681079
 20
446.9185258759038106
 30
0.0
 70
    32
  0
VERTEX
  5
950
 67
     1
  8
VISIBLE_NARROW__ISO_
 10
-1677.7670832424689706
 20
446.915105797163676
 30
0.0
 70
    32
  0
VERTEX
  5
951
 67
     1
  8
VISIBLE_NARROW__ISO_
 10
-1677.7568863920751028
 20
446.911810915273918
 30
0.0
 70
    32
  0
VERTEX
  5
952
 67
     1
  8
VISIBLE_NARROW__ISO_
 10
-1677.7466541086100733
 20
446.9086408365337206
 30
0.0
 70
    32
  0
VERTEX
  5
953
 67
     1
  8
VISIBLE_NARROW__ISO_
 10
-1677.736382455067087
 20
446.9055967420455886
 30
0.0
 70
    32
  0
VERTEX
  5
954
 67
     1
  8
VISIBLE_NARROW__ISO_
 10
-1677.7260753684529391
 20
446.9026790255101105
 30
0.0
 70
    32
  0
VERTEX
  5
955
 67
     1
  8
VISIBLE_NARROW__ISO_
 10
-1677.7157289117599248
 20
446.899887293226584
 30
0.0
 70
    32
  0
VERTEX
  5
956
 67
     1
  8
VISIBLE_NARROW__ISO_
 10
-1677.7053509590039084
 20
446.897223119998273
 30
0.0
 70
    32
  0
VERTEX
  5
957
 67
     1
  8
VISIBLE_NARROW__ISO_
 10
-1677.6949415101860268
 20
446.8946861121243046
 30
0.0
 70
    32
  0
VERTEX
  5
958
 67
     1
  8
VISIBLE_NARROW__ISO_
 10
-1677.6845005653040062
 20
446.8922770570061971
 30
0.0
 70
    32
  0
VERTEX
  5
959
 67
     1
  8
VISIBLE_NARROW__ISO_
 10
-1677.674032061366006
 20
446.8899959546440073
 30
0.0
 70
    32
  0
VERTEX
  5
95A
 67
     1
  8
VISIBLE_NARROW__ISO_
 10
-1677.6635320613670501
 20
446.8878435924393102
 30
0.0
 70
    32
  0
VERTEX
  5
95B
 67
     1
  8
VISIBLE_NARROW__ISO_
 10
-1677.65300843931891
 20
446.8858199703919922
 30
0.0
 70
    32
  0
VERTEX
  5
95C
 67
     1
  8
VISIBLE_NARROW__ISO_
 10
-1677.6424611952249961
 20
446.8839254822030966
 30
0.0
 70
    32
  0
VERTEX
  5
95D
 67
     1
  8
VISIBLE_NARROW__ISO_
 10
-1677.6318903290830349
 20
446.8821601278722824
 30
0.0
 70
    32
  0
VERTEX
  5
95E
 67
     1
  8
VISIBLE_NARROW__ISO_
 10
-1677.6212997779020952
 20
446.8805246948015224
 30
0.0
 70
    32
  0
VERTEX
  5
95F
 67
     1
  8
VISIBLE_NARROW__ISO_
 10
-1677.6106895416819498
 20
446.8790191829904757
 30
0.0
 70
    32
  0
VERTEX
  5
960
 67
     1
  8
VISIBLE_NARROW__ISO_
 10
-1677.6000596204210069
 20
446.8776439861400718
 30
0.0
 70
    32
  0
VERTEX
  5
961
 67
     1
  8
VISIBLE_NARROW__ISO_
 10
-1677.5894139511299272
 20
446.8763991042504244
 30
0.0
 70
    32
  0
VERTEX
  5
962
 67
     1
  8
VISIBLE_NARROW__ISO_
 10
-1677.5787525338068917
 20
446.8752845373210789
 30
0.0
 70
    32
  0
VERTEX
  5
963
 67
     1
  8
VISIBLE_NARROW__ISO_
 10
-1677.5680793054609694
 20
446.8743010727542924
 30
0.0
 70
    32
  0
VERTEX
  5
964
 67
     1
  8
VISIBLE_NARROW__ISO_
 10
-1677.5573942660910234
 20
446.8734479231479213
 30
0.0
 70
    32
  0
VERTEX
  5
965
 67
     1
  8
VISIBLE_NARROW__ISO_
 10
-1677.5466974156979632
 20
446.8727262696045841
 30
0.0
 70
    32
  0
VERTEX
  5
966
 67
     1
  8
VISIBLE_NARROW__ISO_
 10
-1677.5359926912879018
 20
446.8721353247227057
 30
0.0
 70
    32
  0
VERTEX
  5
967
 67
     1
  8
VISIBLE_NARROW__ISO_
 10
-1677.5252840298699084
 20
446.8716758759038044
 30
0.0
 70
    32
  0
VERTEX
  5
968
 67
     1
  8
VISIBLE_NARROW__ISO_
 10
-1677.5145674944369603
 20
446.8713475294471209
 30
0.0
 70
    32
  0
VERTEX
  5
969
 67
     1
  8
VISIBLE_NARROW__ISO_
 10
-1677.50384702199608
 20
446.8711506790534145
 30
0.0
 70
    32
  0
VERTEX
  5
96A
 67
     1
  8
VISIBLE_NARROW__ISO_
 10
-1677.4931265495561092
 20
446.8710849310219828
 30
0.0
 70
    32
  0
SEQEND
  5
96B
 67
     1
  8
VISIBLE_NARROW__ISO_
  0
LINE
  5
96C
 67
     1
  8
VISIBLE_NARROW__ISO_
 10
-1677.4931270852080161
 20
446.8710849039604796
 30
0.0
 11
-1646.1617189398909886
 21
446.8710849039604796
 31
0.0
  0
POLYLINE
  5
96D
 67
     1
  8
VISIBLE_NARROW__ISO_
 66
     1
 10
0.0
 20
0.0
 30
0.0
 70
     8
  0
VERTEX
  5
96E
 67
     1
  8
VISIBLE_NARROW__ISO_
 10
-1645.2888903290829603
 20
462.6980912302345814
 30
0.0
 70
    32
  0
VERTEX
  5
96F
 67
     1
  8
VISIBLE_NARROW__ISO_
 10
-1645.2889690692409204
 20
462.708799891651779
 30
0.0
 70
    32
  0
VERTEX
  5
970
 67
     1
  8
VISIBLE_NARROW__ISO_
 10
-1645.2891659196338878
 20
462.7195085530693177
 30
0.0
 70
    32
  0
VERTEX
  5
971
 67
     1
  8
VISIBLE_NARROW__ISO_
 10
-1645.2894808802639091
 20
462.7302565845652111
 30
0.0
 70
    32
  0
VERTEX
  5
972
 67
     1
  8
VISIBLE_NARROW__ISO_
 10
-1645.2899533212089409
 20
462.7409652459825793
 30
0.0
 70
    32
  0
VERTEX
  5
973
 67
     1
  8
VISIBLE_NARROW__ISO_
 10
-1645.2905438723898897
 20
462.7516739073998906
 30
0.0
 70
    32
  0
VERTEX
  5
974
 67
     1
  8
VISIBLE_NARROW__ISO_
 10
-1645.2912525338078922
 20
462.7623431987386198
 30
0.0
 70
    32
  0
VERTEX
  5
975
 67
     1
  8
VISIBLE_NARROW__ISO_
 10
-1645.2921186755399958
 20
462.7730518601558174
 30
0.0
 70
    32
  0
VERTEX
  5
976
 67
     1
  8
VISIBLE_NARROW__ISO_
 10
-1645.2931029275080164
 20
462.783721151494376
 30
0.0
 70
    32
  0
VERTEX
  5
977
 67
     1
  8
VISIBLE_NARROW__ISO_
 10
-1645.2942052897130907
 20
462.7943904428328779
 30
0.0
 70
    32
  0
VERTEX
  5
978
 67
     1
  8
VISIBLE_NARROW__ISO_
 10
-1645.2954651322329482
 20
462.8050203640929112
 30
0.0
 70
    32
  0
VERTEX
  5
979
 67
     1
  8
VISIBLE_NARROW__ISO_
 10
-1645.2968430849880406
 20
462.8156502853527172
 30
0.0
 70
    32
  0
VERTEX
  5
97A
 67
     1
  8
VISIBLE_NARROW__ISO_
 10
-1645.2983391479810962
 20
462.8262408365337137
 30
0.0
 70
    32
  0
VERTEX
  5
97B
 67
     1
  8
VISIBLE_NARROW__ISO_
 10
-1645.2999926912880255
 20
462.8368707577935766
 30
0.0
 70
    32
  0
VERTEX
  5
97C
 67
     1
  8
VISIBLE_NARROW__ISO_
 10
-1645.3017249747520054
 20
462.8474219388959909
 30
0.0
 70
    32
  0
VERTEX
  5
97D
 67
     1
  8
VISIBLE_NARROW__ISO_
 10
-1645.3036541086109992
 20
462.8579731199984053
 30
0.0
 70
    32
  0
VERTEX
  5
97E
 67
     1
  8
VISIBLE_NARROW__ISO_
 10
-1645.3056619826259066
 20
462.8684849310220102
 30
0.0
 70
    32
  0
VERTEX
  5
97F
 67
     1
  8
VISIBLE_NARROW__ISO_
 10
-1645.3078273369569615
 20
462.8789967420456151
 30
0.0
 70
    32
  0
VERTEX
  5
980
 67
     1
  8
VISIBLE_NARROW__ISO_
 10
-1645.3101108015239333
 20
462.8894691829905241
 30
0.0
 70
    32
  0
VERTEX
  5
981
 67
     1
  8
VISIBLE_NARROW__ISO_
 10
-1645.3125123763270494
 20
462.89990225385651
 30
0.0
 70
    32
  0
VERTEX
  5
982
 67
     1
  8
VISIBLE_NARROW__ISO_
 10
-1645.3150320613660824
 20
462.9102959546440275
 30
0.0
 70
    32
  0
VERTEX
  5
983
 67
     1
  8
VISIBLE_NARROW__ISO_
 10
-1645.3177092267210355
 20
462.9206896554313744
 30
0.0
 70
    32
  0
VERTEX
  5
984
 67
     1
  8
VISIBLE_NARROW__ISO_
 10
-1645.320504502310996
 20
462.9310439861400823
 30
0.0
 70
    32
  0
VERTEX
  5
985
 67
     1
  8
VISIBLE_NARROW__ISO_
 10
-1645.3234178881380103
 20
462.9413589467699808
 30
0.0
 70
    32
  0
VERTEX
  5
986
 67
     1
  8
VISIBLE_NARROW__ISO_
 10
-1645.3264493842009415
 20
462.9516345373211266
 30
0.0
 70
    32
  0
VERTEX
  5
987
 67
     1
  8
VISIBLE_NARROW__ISO_
 10
-1645.3296383605791107
 20
462.9618313877148807
 30
0.0
 70
    32
  0
VERTEX
  5
988
 67
     1
  8
VISIBLE_NARROW__ISO_
 10
-1645.332906077114103
 20
462.9720282381085212
 30
0.0
 70
    32
  0
VERTEX
  5
989
 67
     1
  8
VISIBLE_NARROW__ISO_
 10
-1645.3363312739650155
 20
462.9821857184235796
 30
0.0
 70
    32
  0
VERTEX
  5
98A
 67
     1
  8
VISIBLE_NARROW__ISO_
 10
-1645.3398745810520722
 20
462.9923038286597148
 30
0.0
 70
    32
  0
VERTEX
  5
98B
 67
     1
  8
VISIBLE_NARROW__ISO_
 10
-1645.3435359983750459
 20
463.002382568817211
 30
0.0
 70
    32
  0
VERTEX
  5
98C
 67
     1
  8
VISIBLE_NARROW__ISO_
 10
-1645.3473548960118933
 20
463.0123825688172019
 30
0.0
 70
    32
  0
VERTEX
  5
98D
 67
     1
  8
VISIBLE_NARROW__ISO_
 10
-1645.351252533808065
 20
463.022343198738497
 30
0.0
 70
    32
  0
VERTEX
  5
98E
 67
     1
  8
VISIBLE_NARROW__ISO_
 10
-1645.3553076519181104
 20
463.0322644585809826
 30
0.0
 70
    32
  0
VERTEX
  5
98F
 67
     1
  8
VISIBLE_NARROW__ISO_
 10
-1645.3594415101849791
 20
463.0421463483447724
 30
0.0
 70
    32
  0
VERTEX
  5
990
 67
     1
  8
VISIBLE_NARROW__ISO_
 10
-1645.3637328487679952
 20
463.0519888680298095
 30
0.0
 70
    32
  0
VERTEX
  5
991
 67
     1
  8
VISIBLE_NARROW__ISO_
 10
-1645.3681422975869282
 20
463.0617526475573982
 30
0.0
 70
    32
  0
VERTEX
  5
992
 67
     1
  8
VISIBLE_NARROW__ISO_
 10
-1645.3726304865629118
 20
463.0714376869274815
 30
0.0
 70
    32
  0
VERTEX
  5
993
 67
     1
  8
VISIBLE_NARROW__ISO_
 10
-1645.3772761558539059
 20
463.0811227262976217
 30
0.0
 70
    32
  0
VERTEX
  5
994
 67
     1
  8
VISIBLE_NARROW__ISO_
 10
-1645.3820399353819539
 20
463.0906896554313903
 30
0.0
 70
    32
  0
VERTEX
  5
995
 67
     1
  8
VISIBLE_NARROW__ISO_
 10
-1645.3869218251459188
 20
463.1002565845652157
 30
0.0
 70
    32
  0
VERTEX
  5
996
 67
     1
  8
VISIBLE_NARROW__ISO_
 10
-1645.3918824550669342
 20
463.1097054034628968
 30
0.0
 70
    32
  0
VERTEX
  5
997
 67
     1
  8
VISIBLE_NARROW__ISO_
 10
-1645.3970005653040971
 20
463.1191148522818253
 30
0.0
 70
    32
  0
VERTEX
  5
998
 67
     1
  8
VISIBLE_NARROW__ISO_
 10
-1645.4021974156969463
 20
463.1284849310220011
 30
0.0
 70
    32
  0
VERTEX
  5
999
 67
     1
  8
VISIBLE_NARROW__ISO_
 10
-1645.407551746405943
 20
463.1377762696046148
 30
0.0
 70
    32
  0
VERTEX
  5
99A
 67
     1
  8
VISIBLE_NARROW__ISO_
 10
-1645.4129848172719903
 20
463.1469888680298936
 30
0.0
 70
    32
  0
VERTEX
  5
99B
 67
     1
  8
VISIBLE_NARROW__ISO_
 10
-1645.4185359983739545
 20
463.1561227262976104
 30
0.0
 70
    32
  0
VERTEX
  5
99C
 67
     1
  8
VISIBLE_NARROW__ISO_
 10
-1645.4242446597920662
 20
463.1652172144865744
 30
0.0
 70
    32
  0
VERTEX
  5
99D
 67
     1
  8
VISIBLE_NARROW__ISO_
 10
-1645.4299926912879073
 20
463.1742329625180901
 30
0.0
 70
    32
  0
VERTEX
  5
99E
 67
     1
  8
VISIBLE_NARROW__ISO_
 10
-1645.4358982030989864
 20
463.1831699703921004
 30
0.0
 70
    32
  0
VERTEX
  5
99F
 67
     1
  8
VISIBLE_NARROW__ISO_
 10
-1645.4419218251459824
 20
463.1920282381086054
 30
0.0
 70
    32
  0
VERTEX
  5
9A0
 67
     1
  8
VISIBLE_NARROW__ISO_
 10
-1645.448024187350029
 20
463.2008471357464146
 30
0.0
 70
    32
  0
VERTEX
  5
9A1
 67
     1
  8
VISIBLE_NARROW__ISO_
 10
-1645.4542446597920389
 20
463.2095479231479089
 30
0.0
 70
    32
  0
VERTEX
  5
9A2
 67
     1
  8
VISIBLE_NARROW__ISO_
 10
-1645.4605438723899624
 20
463.2182093404708212
 30
0.0
 70
    32
  0
VERTEX
  5
9A3
 67
     1
  8
VISIBLE_NARROW__ISO_
 10
-1645.4670005653040334
 20
463.226752647557305
 30
0.0
 70
    32
  0
VERTEX
  5
9A4
 67
     1
  8
VISIBLE_NARROW__ISO_
 10
-1645.4735359983740182
 20
463.2352565845653203
 30
0.0
 70
    32
  0
VERTEX
  5
9A5
 67
     1
  8
VISIBLE_NARROW__ISO_
 10
-1645.4801501716030998
 20
463.2436424113369071
 30
0.0
 70
    32
  0
VERTEX
  5
9A6
 67
     1
  8
VISIBLE_NARROW__ISO_
 10
-1645.4868824550669615
 20
463.2519494979511023
 30
0.0
 70
    32
  0
VERTEX
  5
9A7
 67
     1
  8
VISIBLE_NARROW__ISO_
 10
-1645.4937328487681043
 20
463.260217214486488
 30
0.0
 70
    32
  0
VERTEX
  5
9A8
 67
     1
  8
VISIBLE_NARROW__ISO_
 10
-1645.5007013527049367
 20
463.2683668207857863
 30
0.0
 70
    32
  0
VERTEX
  5
9A9
 67
     1
  8
VISIBLE_NARROW__ISO_
 10
-1645.5077485967999564
 20
463.276398316848713
 30
0.0
 70
    32
  0
VERTEX
  5
9AA
 67
     1
  8
VISIBLE_NARROW__ISO_
 10
-1645.5148745810520268
 20
463.2843904428328869
 30
0.0
 70
    32
  0
VERTEX
  5
9AB
 67
     1
  8
VISIBLE_NARROW__ISO_
 10
-1645.522118675540014
 20
463.2922644585809735
 30
0.0
 70
    32
  0
VERTEX
  5
9AC
 67
     1
  8
VISIBLE_NARROW__ISO_
 10
-1645.5294415101850518
 20
463.3000991042503074
 30
0.0
 70
    32
  0
VERTEX
  5
9AD
 67
     1
  8
VISIBLE_NARROW__ISO_
 10
-1645.536882455066916
 20
463.3077762696045738
 30
0.0
 70
    32
  0
VERTEX
  5
9AE
 67
     1
  8
VISIBLE_NARROW__ISO_
 10
-1645.5444021401069676
 20
463.315414064880315
 30
0.0
 70
    32
  0
VERTEX
  5
9AF
 67
     1
  8
VISIBLE_NARROW__ISO_
 10
-1645.552000565302933
 20
463.3229337499196276
 30
0.0
 70
    32
  0
VERTEX
  5
9B0
 67
     1
  8
VISIBLE_NARROW__ISO_
 10
-1645.559717100735952
 20
463.3303746948014918
 30
0.0
 70
    32
  0
VERTEX
  5
9B1
 67
     1
  8
VISIBLE_NARROW__ISO_
 10
-1645.5675123763269312
 20
463.3376975294472118
 30
0.0
 70
    32
  0
VERTEX
  5
9B2
 67
     1
  8
VISIBLE_NARROW__ISO_
 10
-1645.5754257621540546
 20
463.3449416239353127
 30
0.0
 70
    32
  0
VERTEX
  5
9B3
 67
     1
  8
VISIBLE_NARROW__ISO_
 10
-1645.5833785180589075
 20
463.3520676081873262
 30
0.0
 70
    32
  0
VERTEX
  5
9B4
 67
     1
  8
VISIBLE_NARROW__ISO_
 10
-1645.5914493842010415
 20
463.3591148522817775
 30
0.0
 70
    32
  0
VERTEX
  5
9B5
 67
     1
  8
VISIBLE_NARROW__ISO_
 10
-1645.5995989904999988
 20
463.3660439861400278
 30
0.0
 70
    32
  0
VERTEX
  5
9B6
 67
     1
  8
VISIBLE_NARROW__ISO_
 10
-1645.607827336956916
 20
463.3728943798407727
 30
0.0
 70
    32
  0
VERTEX
  5
9B7
 67
     1
  8
VISIBLE_NARROW__ISO_
 10
-1645.6161737936499776
 20
463.3796660333841828
 30
0.0
 70
    32
  0
VERTEX
  5
9B8
 67
     1
  8
VISIBLE_NARROW__ISO_
 10
-1645.624559620420996
 20
463.3862802066125823
 30
0.0
 70
    32
  0
VERTEX
  5
9B9
 67
     1
  8
VISIBLE_NARROW__ISO_
 10
-1645.6330635574290682
 20
463.3928156396834197
 30
0.0
 70
    32
  0
VERTEX
  5
9BA
 67
     1
  8
VISIBLE_NARROW__ISO_
 10
-1645.6416068645160067
 20
463.3992329625179991
 30
0.0
 70
    32
  0
VERTEX
  5
9BB
 67
     1
  8
VISIBLE_NARROW__ISO_
 10
-1645.6502682818390895
 20
463.4055715451951869
 30
0.0
 70
    32
  0
VERTEX
  5
9BC
 67
     1
  8
VISIBLE_NARROW__ISO_
 10
-1645.6589690692410386
 20
463.4117920176361167
 30
0.0
 70
    32
  0
VERTEX
  5
9BD
 67
     1
  8
VISIBLE_NARROW__ISO_
 10
-1645.6677485968000383
 20
463.4178943798409023
 30
0.0
 70
    32
  0
VERTEX
  5
9BE
 67
     1
  8
VISIBLE_NARROW__ISO_
 10
-1645.6766462345949549
 20
463.4239180018881257
 30
0.0
 70
    32
  0
VERTEX
  5
9BF
 67
     1
  8
VISIBLE_NARROW__ISO_
 10
-1645.6855832424689652
 20
463.4297841436203953
 30
0.0
 70
    32
  0
VERTEX
  5
9C0
 67
     1
  8
VISIBLE_NARROW__ISO_
 10
-1645.694598990500026
 20
463.4355715451952165
 30
0.0
 70
    32
  0
VERTEX
  5
9C1
 67
     1
  8
VISIBLE_NARROW__ISO_
 10
-1645.7036541086110901
 20
463.4412408365337797
 30
0.0
 70
    32
  0
VERTEX
  5
9C2
 67
     1
  8
VISIBLE_NARROW__ISO_
 10
-1645.7128273369569342
 20
463.4467920176360849
 30
0.0
 70
    32
  0
VERTEX
  5
9C3
 67
     1
  8
VISIBLE_NARROW__ISO_
 10
-1645.7220399353820994
 20
463.4522644585809985
 30
0.0
 70
    32
  0
VERTEX
  5
9C4
 67
     1
  8
VISIBLE_NARROW__ISO_
 10
-1645.7313312739649973
 20
463.4575794192109015
 30
0.0
 70
    32
  0
VERTEX
  5
9C5
 67
     1
  8
VISIBLE_NARROW__ISO_
 10
-1645.7406619826260794
 20
463.4628156396834129
 30
0.0
 70
    32
  0
VERTEX
  5
9C6
 67
     1
  8
VISIBLE_NARROW__ISO_
 10
-1645.7500714314448942
 20
463.4679337499196095
 30
0.0
 70
    32
  0
VERTEX
  5
9C7
 67
     1
  8
VISIBLE_NARROW__ISO_
 10
-1645.7595596204218964
 20
463.4728943798409091
 30
0.0
 70
    32
  0
VERTEX
  5
9C8
 67
     1
  8
VISIBLE_NARROW__ISO_
 10
-1645.7690871794770828
 20
463.4777762696045897
 30
0.0
 70
    32
  0
VERTEX
  5
9C9
 67
     1
  8
VISIBLE_NARROW__ISO_
 10
-1645.7786934786890924
 20
463.482540049132183
 30
0.0
 70
    32
  0
VERTEX
  5
9CA
 67
     1
  8
VISIBLE_NARROW__ISO_
 10
-1645.7883391479811053
 20
463.4871463483448224
 30
0.0
 70
    32
  0
VERTEX
  5
9CB
 67
     1
  8
VISIBLE_NARROW__ISO_
 10
-1645.7980635574299413
 20
463.4916739073998997
 30
0.0
 70
    32
  0
VERTEX
  5
9CC
 67
     1
  8
VISIBLE_NARROW__ISO_
 10
-1645.8078273369569615
 20
463.4960833562187759
 30
0.0
 70
    32
  0
VERTEX
  5
9CD
 67
     1
  8
VISIBLE_NARROW__ISO_
 10
-1645.8176698566419418
 20
463.5003746948013941
 30
0.0
 70
    32
  0
VERTEX
  5
9CE
 67
     1
  8
VISIBLE_NARROW__ISO_
 10
-1645.8275123763269221
 20
463.5045085530691722
 30
0.0
 70
    32
  0
VERTEX
  5
9CF
 67
     1
  8
VISIBLE_NARROW__ISO_
 10
-1645.8374336361700898
 20
463.5085636711793882
 30
0.0
 70
    32
  0
VERTEX
  5
9D0
 67
     1
  8
VISIBLE_NARROW__ISO_
 10
-1645.8474336361700807
 20
463.5124613089748209
 30
0.0
 70
    32
  0
VERTEX
  5
9D1
 67
     1
  8
VISIBLE_NARROW__ISO_
 10
-1645.8574336361700716
 20
463.5162408365338251
 30
0.0
 70
    32
  0
VERTEX
  5
9D2
 67
     1
  8
VISIBLE_NARROW__ISO_
 10
-1645.8675123763271131
 20
463.5199022538566282
 30
0.0
 70
    32
  0
VERTEX
  5
9D3
 67
     1
  8
VISIBLE_NARROW__ISO_
 10
-1645.8776304865630209
 20
463.5234455609432871
 30
0.0
 70
    32
  0
VERTEX
  5
9D4
 67
     1
  8
VISIBLE_NARROW__ISO_
 10
-1645.8877485967989287
 20
463.5268707577935743
 30
0.0
 70
    32
  0
VERTEX
  5
9D5
 67
     1
  8
VISIBLE_NARROW__ISO_
 10
-1645.8979454471939334
 20
463.530177844407774
 30
0.0
 70
    32
  0
VERTEX
  5
9D6
 67
     1
  8
VISIBLE_NARROW__ISO_
 10
-1645.9081816676659855
 20
463.5333668207857727
 30
0.0
 70
    32
  0
VERTEX
  5
9D7
 67
     1
  8
VISIBLE_NARROW__ISO_
 10
-1645.9184572582169039
 20
463.5363983168487039
 30
0.0
 70
    32
  0
VERTEX
  5
9D8
 67
     1
  8
VISIBLE_NARROW__ISO_
 10
-1645.9287722188469161
 20
463.5393117026754908
 30
0.0
 70
    32
  0
VERTEX
  5
9D9
 67
     1
  8
VISIBLE_NARROW__ISO_
 10
-1645.9391265495551124
 20
463.5421069782660197
 30
0.0
 70
    32
  0
VERTEX
  5
9DA
 67
     1
  8
VISIBLE_NARROW__ISO_
 10
-1645.9494808802639909
 20
463.5447841436204044
 30
0.0
 70
    32
  0
VERTEX
  5
9DB
 67
     1
  8
VISIBLE_NARROW__ISO_
 10
-1645.95991395112992
 20
463.5473038286597784
 30
0.0
 70
    32
  0
VERTEX
  5
9DC
 67
     1
  8
VISIBLE_NARROW__ISO_
 10
-1645.9703470219969859
 20
463.5497054034628945
 30
0.0
 70
    32
  0
VERTEX
  5
9DD
 67
     1
  8
VISIBLE_NARROW__ISO_
 10
-1645.9808194629410991
 20
463.5519888680298095
 30
0.0
 70
    32
  0
VERTEX
  5
9DE
 67
     1
  8
VISIBLE_NARROW__ISO_
 10
-1645.9913312739649882
 20
463.5541542223605234
 30
0.0
 70
    32
  0
VERTEX
  5
9DF
 67
     1
  8
VISIBLE_NARROW__ISO_
 10
-1646.0018430849879678
 20
463.5561620963762834
 30
0.0
 70
    32
  0
VERTEX
  5
9E0
 67
     1
  8
VISIBLE_NARROW__ISO_
 10
-1646.0123942660909506
 20
463.5580518601557856
 30
0.0
 70
    32
  0
VERTEX
  5
9E1
 67
     1
  8
VISIBLE_NARROW__ISO_
 10
-1646.0229454471930239
 20
463.5598235136990866
 30
0.0
 70
    32
  0
VERTEX
  5
9E2
 67
     1
  8
VISIBLE_NARROW__ISO_
 10
-1646.0335359983751005
 20
463.5614770570061864
 30
0.0
 70
    32
  0
VERTEX
  5
9E3
 67
     1
  8
VISIBLE_NARROW__ISO_
 10
-1646.044165919633997
 20
463.5629731199982757
 30
0.0
 70
    32
  0
VERTEX
  5
9E4
 67
     1
  8
VISIBLE_NARROW__ISO_
 10
-1646.0547958408940303
 20
463.5643510727542207
 30
0.0
 70
    32
  0
VERTEX
  5
9E5
 67
     1
  8
VISIBLE_NARROW__ISO_
 10
-1646.0654257621540637
 20
463.5656109152740214
 30
0.0
 70
    32
  0
VERTEX
  5
9E6
 67
     1
  8
VISIBLE_NARROW__ISO_
 10
-1646.0760950534920539
 20
463.5667132774786978
 30
0.0
 70
    32
  0
VERTEX
  5
9E7
 67
     1
  8
VISIBLE_NARROW__ISO_
 10
-1646.0867643448309536
 20
463.5676975294471163
 30
0.0
 70
    32
  0
VERTEX
  5
9E8
 67
     1
  8
VISIBLE_NARROW__ISO_
 10
-1646.0974336361689438
 20
463.5685243011006946
 30
0.0
 70
    32
  0
VERTEX
  5
9E9
 67
     1
  8
VISIBLE_NARROW__ISO_
 10
-1646.1081422975869373
 20
463.5692723325968245
 30
0.0
 70
    32
  0
VERTEX
  5
9EA
 67
     1
  8
VISIBLE_NARROW__ISO_
 10
-1646.1188509590040212
 20
463.5698628837777733
 30
0.0
 70
    32
  0
VERTEX
  5
9EB
 67
     1
  8
VISIBLE_NARROW__ISO_
 10
-1646.1295596204220146
 20
463.5702959546439956
 30
0.0
 70
    32
  0
VERTEX
  5
9EC
 67
     1
  8
VISIBLE_NARROW__ISO_
 10
-1646.1402682818390986
 20
463.5706502853527127
 30
0.0
 70
    32
  0
VERTEX
  5
9ED
 67
     1
  8
VISIBLE_NARROW__ISO_
 10
-1646.1510163133350488
 20
463.5708471357464191
 30
0.0
 70
    32
  0
VERTEX
  5
9EE
 67
     1
  8
VISIBLE_NARROW__ISO_
 10
-1646.1617249747519054
 20
463.5708865058250012
 30
0.0
 70
    32
  0
SEQEND
  5
9EF
 67
     1
  8
VISIBLE_NARROW__ISO_
  0
POLYLINE
  5
9F0
 67
     1
  8
VISIBLE_NARROW__ISO_
 66
     1
 10
0.0
 20
0.0
 30
0.0
 70
     8
  0
VERTEX
  5
9F1
 67
     1
  8
VISIBLE_NARROW__ISO_
 10
-1646.1617249747519054
 20
446.8710849310219828
 30
0.0
 70
    32
  0
VERTEX
  5
9F2
 67
     1
  8
VISIBLE_NARROW__ISO_
 10
-1646.1510163133350488
 20
446.8711506790534145
 30
0.0
 70
    32
  0
VERTEX
  5
9F3
 67
     1
  8
VISIBLE_NARROW__ISO_
 10
-1646.1402682818390986
 20
446.8713475294471209
 30
0.0
 70
    32
  0
VERTEX
  5
9F4
 67
     1
  8
VISIBLE_NARROW__ISO_
 10
-1646.1295596204220146
 20
446.8716758759038044
 30
0.0
 70
    32
  0
VERTEX
  5
9F5
 67
     1
  8
VISIBLE_NARROW__ISO_
 10
-1646.1188509590040212
 20
446.8721353247227057
 30
0.0
 70
    32
  0
VERTEX
  5
9F6
 67
     1
  8
VISIBLE_NARROW__ISO_
 10
-1646.1081422975869373
 20
446.8727262696045841
 30
0.0
 70
    32
  0
VERTEX
  5
9F7
 67
     1
  8
VISIBLE_NARROW__ISO_
 10
-1646.0974336361689438
 20
446.8734479231479213
 30
0.0
 70
    32
  0
VERTEX
  5
9F8
 67
     1
  8
VISIBLE_NARROW__ISO_
 10
-1646.0867643448309536
 20
446.8743010727542924
 30
0.0
 70
    32
  0
VERTEX
  5
9F9
 67
     1
  8
VISIBLE_NARROW__ISO_
 10
-1646.0760950534920539
 20
446.8752845373210789
 30
0.0
 70
    32
  0
VERTEX
  5
9FA
 67
     1
  8
VISIBLE_NARROW__ISO_
 10
-1646.0654257621540637
 20
446.8763991042504244
 30
0.0
 70
    32
  0
VERTEX
  5
9FB
 67
     1
  8
VISIBLE_NARROW__ISO_
 10
-1646.0547958408940303
 20
446.8776439861400718
 30
0.0
 70
    32
  0
VERTEX
  5
9FC
 67
     1
  8
VISIBLE_NARROW__ISO_
 10
-1646.044165919633997
 20
446.8790191829904757
 30
0.0
 70
    32
  0
VERTEX
  5
9FD
 67
     1
  8
VISIBLE_NARROW__ISO_
 10
-1646.0335359983751005
 20
446.8805246948015224
 30
0.0
 70
    32
  0
VERTEX
  5
9FE
 67
     1
  8
VISIBLE_NARROW__ISO_
 10
-1646.0229454471930239
 20
446.8821601278722824
 30
0.0
 70
    32
  0
VERTEX
  5
9FF
 67
     1
  8
VISIBLE_NARROW__ISO_
 10
-1646.0123942660909506
 20
446.8839254822030966
 30
0.0
 70
    32
  0
VERTEX
  5
A00
 67
     1
  8
VISIBLE_NARROW__ISO_
 10
-1646.0018430849879678
 20
446.8858199703919922
 30
0.0
 70
    32
  0
VERTEX
  5
A01
 67
     1
  8
VISIBLE_NARROW__ISO_
 10
-1645.9913312739649882
 20
446.8878435924393102
 30
0.0
 70
    32
  0
VERTEX
  5
A02
 67
     1
  8
VISIBLE_NARROW__ISO_
 10
-1645.9808194629410991
 20
446.8899959546440073
 30
0.0
 70
    32
  0
VERTEX
  5
A03
 67
     1
  8
VISIBLE_NARROW__ISO_
 10
-1645.9703470219969859
 20
446.8922770570061971
 30
0.0
 70
    32
  0
VERTEX
  5
A04
 67
     1
  8
VISIBLE_NARROW__ISO_
 10
-1645.95991395112992
 20
446.8946861121243046
 30
0.0
 70
    32
  0
VERTEX
  5
A05
 67
     1
  8
VISIBLE_NARROW__ISO_
 10
-1645.9494808802639909
 20
446.897223119998273
 30
0.0
 70
    32
  0
VERTEX
  5
A06
 67
     1
  8
VISIBLE_NARROW__ISO_
 10
-1645.9391265495551124
 20
446.899887293226584
 30
0.0
 70
    32
  0
VERTEX
  5
A07
 67
     1
  8
VISIBLE_NARROW__ISO_
 10
-1645.9287722188469161
 20
446.9026790255101105
 30
0.0
 70
    32
  0
VERTEX
  5
A08
 67
     1
  8
VISIBLE_NARROW__ISO_
 10
-1645.9184572582169039
 20
446.9055967420455886
 30
0.0
 70
    32
  0
VERTEX
  5
A09
 67
     1
  8
VISIBLE_NARROW__ISO_
 10
-1645.9081816676659855
 20
446.9086408365337206
 30
0.0
 70
    32
  0
VERTEX
  5
A0A
 67
     1
  8
VISIBLE_NARROW__ISO_
 10
-1645.8979454471939334
 20
446.911810915273918
 30
0.0
 70
    32
  0
VERTEX
  5
A0B
 67
     1
  8
VISIBLE_NARROW__ISO_
 10
-1645.8877485967989287
 20
446.915105797163676
 30
0.0
 70
    32
  0
VERTEX
  5
A0C
 67
     1
  8
VISIBLE_NARROW__ISO_
 10
-1645.8776304865630209
 20
446.9185258759038106
 30
0.0
 70
    32
  0
VERTEX
  5
A0D
 67
     1
  8
VISIBLE_NARROW__ISO_
 10
-1645.8675123763271131
 20
446.9220699703919877
 30
0.0
 70
    32
  0
VERTEX
  5
A0E
 67
     1
  8
VISIBLE_NARROW__ISO_
 10
-1645.8574336361700716
 20
446.9257376869275049
 30
0.0
 70
    32
  0
VERTEX
  5
A0F
 67
     1
  8
VISIBLE_NARROW__ISO_
 10
-1645.8474336361700807
 20
446.929528631809319
 30
0.0
 70
    32
  0
VERTEX
  5
A10
 67
     1
  8
VISIBLE_NARROW__ISO_
 10
-1645.8374336361700898
 20
446.9334420176360823
 30
0.0
 70
    32
  0
VERTEX
  5
A11
 67
     1
  8
VISIBLE_NARROW__ISO_
 10
-1645.8275123763269221
 20
446.9374774507069787
 30
0.0
 70
    32
  0
VERTEX
  5
A12
 67
     1
  8
VISIBLE_NARROW__ISO_
 10
-1645.8176698566419418
 20
446.9416345373210788
 30
0.0
 70
    32
  0
VERTEX
  5
A13
 67
     1
  8
VISIBLE_NARROW__ISO_
 10
-1645.8078273369569615
 20
446.9459120963762757
 30
0.0
 70
    32
  0
VERTEX
  5
A14
 67
     1
  8
VISIBLE_NARROW__ISO_
 10
-1645.7980635574299413
 20
446.9503097341715261
 30
0.0
 70
    32
  0
VERTEX
  5
A15
 67
     1
  8
VISIBLE_NARROW__ISO_
 10
-1645.7883391479811053
 20
446.9548270570061845
 30
0.0
 70
    32
  0
VERTEX
  5
A16
 67
     1
  8
VISIBLE_NARROW__ISO_
 10
-1645.7786934786890924
 20
446.9594628837779169
 30
0.0
 70
    32
  0
VERTEX
  5
A17
 67
     1
  8
VISIBLE_NARROW__ISO_
 10
-1645.7690871794770828
 20
446.9642168207856798
 30
0.0
 70
    32
  0
VERTEX
  5
A18
 67
     1
  8
VISIBLE_NARROW__ISO_
 10
-1645.7595596204218964
 20
446.9690884743291122
 30
0.0
 70
    32
  0
VERTEX
  5
A19
 67
     1
  8
VISIBLE_NARROW__ISO_
 10
-1645.7500714314448942
 20
446.974076269604609
 30
0.0
 70
    32
  0
VERTEX
  5
A1A
 67
     1
  8
VISIBLE_NARROW__ISO_
 10
-1645.7406619826260794
 20
446.9791802066125115
 30
0.0
 70
    32
  0
VERTEX
  5
A1B
 67
     1
  8
VISIBLE_NARROW__ISO_
 10
-1645.7313312739649973
 20
446.984399497951074
 30
0.0
 70
    32
  0
VERTEX
  5
A1C
 67
     1
  8
VISIBLE_NARROW__ISO_
 10
-1645.7220399353820994
 20
446.9897325688172032
 30
0.0
 70
    32
  0
VERTEX
  5
A1D
 67
     1
  8
VISIBLE_NARROW__ISO_
 10
-1645.7128273369569342
 20
446.9951798129117151
 30
0.0
 70
    32
  0
VERTEX
  5
A1E
 67
     1
  8
VISIBLE_NARROW__ISO_
 10
-1645.7036541086110901
 20
447.0007392617305868
 30
0.0
 70
    32
  0
VERTEX
  5
A1F
 67
     1
  8
VISIBLE_NARROW__ISO_
 10
-1645.694598990500026
 20
447.0064109152738752
 30
0.0
 70
    32
  0
VERTEX
  5
A20
 67
     1
  8
VISIBLE_NARROW__ISO_
 10
-1645.6855832424689652
 20
447.0121935924391892
 30
0.0
 70
    32
  0
VERTEX
  5
A21
 67
     1
  8
VISIBLE_NARROW__ISO_
 10
-1645.6766462345949549
 20
447.0180861121243083
 30
0.0
 70
    32
  0
VERTEX
  5
A22
 67
     1
  8
VISIBLE_NARROW__ISO_
 10
-1645.6677485968000383
 20
447.024088080628303
 30
0.0
 70
    32
  0
VERTEX
  5
A23
 67
     1
  8
VISIBLE_NARROW__ISO_
 10
-1645.6589690692410386
 20
447.0301987105494845
 30
0.0
 70
    32
  0
VERTEX
  5
A24
 67
     1
  8
VISIBLE_NARROW__ISO_
 10
-1645.6502682818390895
 20
447.0364164270849869
 30
0.0
 70
    32
  0
VERTEX
  5
A25
 67
     1
  8
VISIBLE_NARROW__ISO_
 10
-1645.6416068645160067
 20
447.0427408365337101
 30
0.0
 70
    32
  0
VERTEX
  5
A26
 67
     1
  8
VISIBLE_NARROW__ISO_
 10
-1645.6330635574290682
 20
447.04917115149442
 30
0.0
 70
    32
  0
VERTEX
  5
A27
 67
     1
  8
VISIBLE_NARROW__ISO_
 10
-1645.624559620420996
 20
447.0557054034629232
 30
0.0
 70
    32
  0
VERTEX
  5
A28
 67
     1
  8
VISIBLE_NARROW__ISO_
 10
-1645.6161737936499776
 20
447.0623439861400925
 30
0.0
 70
    32
  0
VERTEX
  5
A29
 67
     1
  8
VISIBLE_NARROW__ISO_
 10
-1645.607827336956916
 20
447.069084931021905
 30
0.0
 70
    32
  0
VERTEX
  5
A2A
 67
     1
  8
VISIBLE_NARROW__ISO_
 10
-1645.5995989904999988
 20
447.0759274507070131
 30
0.0
 70
    32
  0
VERTEX
  5
A2B
 67
     1
  8
VISIBLE_NARROW__ISO_
 10
-1645.5914493842010415
 20
447.0828707577936143
 30
0.0
 70
    32
  0
VERTEX
  5
A2C
 67
     1
  8
VISIBLE_NARROW__ISO_
 10
-1645.5833785180589075
 20
447.0899140648803041
 30
0.0
 70
    32
  0
VERTEX
  5
A2D
 67
     1
  8
VISIBLE_NARROW__ISO_
 10
-1645.5754257621540546
 20
447.0970557971638186
 30
0.0
 70
    32
  0
VERTEX
  5
A2E
 67
     1
  8
VISIBLE_NARROW__ISO_
 10
-1645.5675123763269312
 20
447.1042920176361122
 30
0.0
 70
    32
  0
VERTEX
  5
A2F
 67
     1
  8
VISIBLE_NARROW__ISO_
 10
-1645.559717100735952
 20
447.1116266633054011
 30
0.0
 70
    32
  0
VERTEX
  5
A30
 67
     1
  8
VISIBLE_NARROW__ISO_
 10
-1645.552000565302933
 20
447.1190597341716284
 30
0.0
 70
    32
  0
VERTEX
  5
A31
 67
     1
  8
VISIBLE_NARROW__ISO_
 10
-1645.5444021401069676
 20
447.1265833562187026
 30
0.0
 70
    32
  0
VERTEX
  5
A32
 67
     1
  8
VISIBLE_NARROW__ISO_
 10
-1645.536882455066916
 20
447.1342014664550106
 30
0.0
 70
    32
  0
VERTEX
  5
A33
 67
     1
  8
VISIBLE_NARROW__ISO_
 10
-1645.5294415101850518
 20
447.1419101278723929
 30
0.0
 70
    32
  0
VERTEX
  5
A34
 67
     1
  8
VISIBLE_NARROW__ISO_
 10
-1645.522118675540014
 20
447.1497093404707925
 30
0.0
 70
    32
  0
VERTEX
  5
A35
 67
     1
  8
VISIBLE_NARROW__ISO_
 10
-1645.5148745810520268
 20
447.1575991042503233
 30
0.0
 70
    32
  0
VERTEX
  5
A36
 67
     1
  8
VISIBLE_NARROW__ISO_
 10
-1645.5077485967999564
 20
447.1655754822029962
 30
0.0
 70
    32
  0
VERTEX
  5
A37
 67
     1
  8
VISIBLE_NARROW__ISO_
 10
-1645.5007013527049367
 20
447.1736424113369139
 30
0.0
 70
    32
  0
VERTEX
  5
A38
 67
     1
  8
VISIBLE_NARROW__ISO_
 10
-1645.4937328487681043
 20
447.1817920176360985
 30
0.0
 70
    32
  0
VERTEX
  5
A39
 67
     1
  8
VISIBLE_NARROW__ISO_
 10
-1645.4868824550669615
 20
447.1900282381085958
 30
0.0
 70
    32
  0
VERTEX
  5
A3A
 67
     1
  8
VISIBLE_NARROW__ISO_
 10
-1645.4801501716030998
 20
447.1983471357463031
 30
0.0
 70
    32
  0
VERTEX
  5
A3B
 67
     1
  8
VISIBLE_NARROW__ISO_
 10
-1645.4735359983740182
 20
447.2067487105495047
 30
0.0
 70
    32
  0
VERTEX
  5
A3C
 67
     1
  8
VISIBLE_NARROW__ISO_
 10
-1645.4670005653040334
 20
447.2152290255102116
 30
0.0
 70
    32
  0
VERTEX
  5
A3D
 67
     1
  8
VISIBLE_NARROW__ISO_
 10
-1645.4605438723899624
 20
447.2237920176360717
 30
0.0
 70
    32
  0
VERTEX
  5
A3E
 67
     1
  8
VISIBLE_NARROW__ISO_
 10
-1645.4542446597920389
 20
447.2324337499197213
 30
0.0
 70
    32
  0
VERTEX
  5
A3F
 67
     1
  8
VISIBLE_NARROW__ISO_
 10
-1645.448024187350029
 20
447.2411502853526031
 30
0.0
 70
    32
  0
VERTEX
  5
A40
 67
     1
  8
VISIBLE_NARROW__ISO_
 10
-1645.4419218251459824
 20
447.2499455609432175
 30
0.0
 70
    32
  0
VERTEX
  5
A41
 67
     1
  8
VISIBLE_NARROW__ISO_
 10
-1645.4358982030989864
 20
447.258811702675473
 30
0.0
 70
    32
  0
VERTEX
  5
A42
 67
     1
  8
VISIBLE_NARROW__ISO_
 10
-1645.4299926912879073
 20
447.2677526475574155
 30
0.0
 70
    32
  0
VERTEX
  5
A43
 67
     1
  8
VISIBLE_NARROW__ISO_
 10
-1645.4242446597920662
 20
447.276764458580999
 30
0.0
 70
    32
  0
VERTEX
  5
A44
 67
     1
  8
VISIBLE_NARROW__ISO_
 10
-1645.4185359983739545
 20
447.2858471357462804
 30
0.0
 70
    32
  0
VERTEX
  5
A45
 67
     1
  8
VISIBLE_NARROW__ISO_
 10
-1645.4129848172719903
 20
447.2950006790534871
 30
0.0
 70
    32
  0
VERTEX
  5
A46
 67
     1
  8
VISIBLE_NARROW__ISO_
 10
-1645.407551746405943
 20
447.3042211514942892
 30
0.0
 70
    32
  0
VERTEX
  5
A47
 67
     1
  8
VISIBLE_NARROW__ISO_
 10
-1645.4021974156969463
 20
447.3135085530691981
 30
0.0
 70
    32
  0
VERTEX
  5
A48
 67
     1
  8
VISIBLE_NARROW__ISO_
 10
-1645.3970005653040971
 20
447.3228589467699976
 30
0.0
 70
    32
  0
VERTEX
  5
A49
 67
     1
  8
VISIBLE_NARROW__ISO_
 10
-1645.3918824550669342
 20
447.3322723325968013
 30
0.0
 70
    32
  0
VERTEX
  5
A4A
 67
     1
  8
VISIBLE_NARROW__ISO_
 10
-1645.3869218251459188
 20
447.3417526475574277
 30
0.0
 70
    32
  0
VERTEX
  5
A4B
 67
     1
  8
VISIBLE_NARROW__ISO_
 10
-1645.3820399353819539
 20
447.3512880806281942
 30
0.0
 70
    32
  0
VERTEX
  5
A4C
 67
     1
  8
VISIBLE_NARROW__ISO_
 10
-1645.3772761558539059
 20
447.3608865058250785
 30
0.0
 70
    32
  0
VERTEX
  5
A4D
 67
     1
  8
VISIBLE_NARROW__ISO_
 10
-1645.3726304865629118
 20
447.3705400491322166
 30
0.0
 70
    32
  0
VERTEX
  5
A4E
 67
     1
  8
VISIBLE_NARROW__ISO_
 10
-1645.3681422975869282
 20
447.3802526475574268
 30
0.0
 70
    32
  0
VERTEX
  5
A4F
 67
     1
  8
VISIBLE_NARROW__ISO_
 10
-1645.3637328487679952
 20
447.3900164270850155
 30
0.0
 70
    32
  0
VERTEX
  5
A50
 67
     1
  8
VISIBLE_NARROW__ISO_
 10
-1645.3594415101849791
 20
447.3998392617306195
 30
0.0
 70
    32
  0
VERTEX
  5
A51
 67
     1
  8
VISIBLE_NARROW__ISO_
 10
-1645.3553076519181104
 20
447.4097093404707834
 30
0.0
 70
    32
  0
VERTEX
  5
A52
 67
     1
  8
VISIBLE_NARROW__ISO_
 10
-1645.351252533808065
 20
447.4196306003133259
 30
0.0
 70
    32
  0
VERTEX
  5
A53
 67
     1
  8
VISIBLE_NARROW__ISO_
 10
-1645.3473548960118933
 20
447.4296030412581899
 30
0.0
 70
    32
  0
VERTEX
  5
A54
 67
     1
  8
VISIBLE_NARROW__ISO_
 10
-1645.3435359983750459
 20
447.439622726297614
 30
0.0
 70
    32
  0
VERTEX
  5
A55
 67
     1
  8
VISIBLE_NARROW__ISO_
 10
-1645.3398745810520722
 20
447.4496857184234955
 30
0.0
 70
    32
  0
VERTEX
  5
A56
 67
     1
  8
VISIBLE_NARROW__ISO_
 10
-1645.3363312739650155
 20
447.4597959546439938
 30
0.0
 70
    32
  0
VERTEX
  5
A57
 67
     1
  8
VISIBLE_NARROW__ISO_
 10
-1645.332906077114103
 20
447.4699494979510064
 30
0.0
 70
    32
  0
VERTEX
  5
A58
 67
     1
  8
VISIBLE_NARROW__ISO_
 10
-1645.3296383605791107
 20
447.4801424113368853
 30
0.0
 70
    32
  0
VERTEX
  5
A59
 67
     1
  8
VISIBLE_NARROW__ISO_
 10
-1645.3264493842009415
 20
447.4903746948014032
 30
0.0
 70
    32
  0
VERTEX
  5
A5A
 67
     1
  8
VISIBLE_NARROW__ISO_
 10
-1645.3234178881380103
 20
447.5006463483447874
 30
0.0
 70
    32
  0
VERTEX
  5
A5B
 67
     1
  8
VISIBLE_NARROW__ISO_
 10
-1645.320504502310996
 20
447.5109573719668106
 30
0.0
 70
    32
  0
VERTEX
  5
A5C
 67
     1
  8
VISIBLE_NARROW__ISO_
 10
-1645.3177092267210355
 20
447.5212998916518927
 30
0.0
 70
    32
  0
VERTEX
  5
A5D
 67
     1
  8
VISIBLE_NARROW__ISO_
 10
-1645.3150320613660824
 20
447.5316778444077954
 30
0.0
 70
    32
  0
VERTEX
  5
A5E
 67
     1
  8
VISIBLE_NARROW__ISO_
 10
-1645.3125123763270494
 20
447.5420872932267002
 30
0.0
 70
    32
  0
VERTEX
  5
A5F
 67
     1
  8
VISIBLE_NARROW__ISO_
 10
-1645.3101108015239333
 20
447.5525282381084935
 30
0.0
 70
    32
  0
VERTEX
  5
A60
 67
     1
  8
VISIBLE_NARROW__ISO_
 10
-1645.3078273369569615
 20
447.5630006790535163
 30
0.0
 70
    32
  0
VERTEX
  5
A61
 67
     1
  8
VISIBLE_NARROW__ISO_
 10
-1645.3056619826259066
 20
447.5734967420456201
 30
0.0
 70
    32
  0
VERTEX
  5
A62
 67
     1
  8
VISIBLE_NARROW__ISO_
 10
-1645.3036541086109992
 20
447.5840203640927939
 30
0.0
 70
    32
  0
VERTEX
  5
A63
 67
     1
  8
VISIBLE_NARROW__ISO_
 10
-1645.3017249747520054
 20
447.5945676081872762
 30
0.0
 70
    32
  0
VERTEX
  5
A64
 67
     1
  8
VISIBLE_NARROW__ISO_
 10
-1645.2999926912880255
 20
447.60513847432901
 30
0.0
 70
    32
  0
VERTEX
  5
A65
 67
     1
  8
VISIBLE_NARROW__ISO_
 10
-1645.2983391479810962
 20
447.6157290255101202
 30
0.0
 70
    32
  0
VERTEX
  5
A66
 67
     1
  8
VISIBLE_NARROW__ISO_
 10
-1645.2968430849880406
 20
447.6263431987384251
 30
0.0
 70
    32
  0
VERTEX
  5
A67
 67
     1
  8
VISIBLE_NARROW__ISO_
 10
-1645.2954651322329482
 20
447.6369731199984017
 30
0.0
 70
    32
  0
VERTEX
  5
A68
 67
     1
  8
VISIBLE_NARROW__ISO_
 10
-1645.2942052897130907
 20
447.6476187892897087
 30
0.0
 70
    32
  0
VERTEX
  5
A69
 67
     1
  8
VISIBLE_NARROW__ISO_
 10
-1645.2931029275080164
 20
447.6582762696046984
 30
0.0
 70
    32
  0
VERTEX
  5
A6A
 67
     1
  8
VISIBLE_NARROW__ISO_
 10
-1645.2921186755399958
 20
447.6689494979510755
 30
0.0
 70
    32
  0
VERTEX
  5
A6B
 67
     1
  8
VISIBLE_NARROW__ISO_
 10
-1645.2912525338078922
 20
447.6796384743290105
 30
0.0
 70
    32
  0
VERTEX
  5
A6C
 67
     1
  8
VISIBLE_NARROW__ISO_
 10
-1645.2905438723898897
 20
447.6903313877148776
 30
0.0
 70
    32
  0
VERTEX
  5
A6D
 67
     1
  8
VISIBLE_NARROW__ISO_
 10
-1645.2899533212089409
 20
447.7010361121243136
 30
0.0
 70
    32
  0
VERTEX
  5
A6E
 67
     1
  8
VISIBLE_NARROW__ISO_
 10
-1645.2894808802639091
 20
447.7117447735416249
 30
0.0
 70
    32
  0
VERTEX
  5
A6F
 67
     1
  8
VISIBLE_NARROW__ISO_
 10
-1645.2891659196338878
 20
447.7224613089746867
 30
0.0
 70
    32
  0
VERTEX
  5
A70
 67
     1
  8
VISIBLE_NARROW__ISO_
 10
-1645.2889690692409204
 20
447.7331817814156807
 30
0.0
 70
    32
  0
VERTEX
  5
A71
 67
     1
  8
VISIBLE_NARROW__ISO_
 10
-1645.2888903290829603
 20
447.7439022538566178
 30
0.0
 70
    32
  0
SEQEND
  5
A72
 67
     1
  8
VISIBLE_NARROW__ISO_
  0
LINE
  5
A73
 67
     1
  8
VISIBLE_NARROW__ISO_
 10
-1645.2889010000660619
 20
447.7439028437854063
 30
0.0
 11
-1645.2889010000660619
 21
462.6980875977396863
 31
0.0
  0
ENDSEC
  0
EOF
