  0
SECTION
  2
HEADER
  9
$ACADVER
  1
AC1009
  9
$INSBASE
 10
0.0
 20
0.0
 30
0.0
  9
$EXTMIN
 10
7.3856805519204531
 20
2.5098782390506731
 30
0.0
  9
$EXTMAX
 10
37.4078442311740034
 20
21.9130572249601911
 30
0.0
  9
$LIMMIN
 10
0.0
 20
0.0
  9
$LIMMAX
 10
12.0
 20
9.0
  9
$ORTHOMODE
 70
     0
  9
$REGENMODE
 70
     1
  9
$FILLMODE
 70
     1
  9
$QTEXTMODE
 70
     0
  9
$MIRRTEXT
 70
     0
  9
$DRAGMODE
 70
     2
  9
$LTSCALE
 40
1.0
  9
$OSMODE
 70
   695
  9
$ATTMODE
 70
     1
  9
$TEXTSIZE
 40
0.2
  9
$TRACEWID
 40
0.05
  9
$TEXTSTYLE
  7
STANDARD
  9
$CLAYER
  8
0
  9
$CELTYPE
  6
BYLAYER
  9
$CECOLOR
 62
   256
  9
$DIMSCALE
 40
1.0
  9
$DIMASZ
 40
0.18
  9
$DIMEXO
 40
0.0625
  9
$DIMDLI
 40
0.38
  9
$DIMRND
 40
0.0
  9
$DIMDLE
 40
0.0
  9
$DIMEXE
 40
0.18
  9
$DIMTP
 40
0.0
  9
$DIMTM
 40
0.0
  9
$DIMTXT
 40
0.18
  9
$DIMCEN
 40
0.09
  9
$DIMTSZ
 40
0.0
  9
$DIMTOL
 70
     0
  9
$DIMLIM
 70
     0
  9
$DIMTIH
 70
     1
  9
$DIMTOH
 70
     1
  9
$DIMSE1
 70
     0
  9
$DIMSE2
 70
     0
  9
$DIMTAD
 70
     0
  9
$DIMZIN
 70
     0
  9
$DIMBLK
  1

  9
$DIMASO
 70
     1
  9
$DIMSHO
 70
     1
  9
$DIMPOST
  1

  9
$DIMAPOST
  1

  9
$DIMALT
 70
     0
  9
$DIMALTD
 70
     2
  9
$DIMALTF
 40
25.3999999999999986
  9
$DIMLFAC
 40
1.0
  9
$DIMTOFL
 70
     0
  9
$DIMTVP
 40
0.0
  9
$DIMTIX
 70
     0
  9
$DIMSOXD
 70
     0
  9
$DIMSAH
 70
     0
  9
$DIMBLK1
  1

  9
$DIMBLK2
  1

  9
$DIMSTYLE
  2
STANDARD
  9
$DIMCLRD
 70
     0
  9
$DIMCLRE
 70
     0
  9
$DIMCLRT
 70
     0
  9
$DIMTFAC
 40
1.0
  9
$DIMGAP
 40
0.09
  9
$LUNITS
 70
     2
  9
$LUPREC
 70
     4
  9
$SKETCHINC
 40
0.1
  9
$FILLETRAD
 40
0.0
  9
$AUNITS
 70
     0
  9
$AUPREC
 70
     0
  9
$MENU
  1
.
  9
$ELEVATION
 40
0.0
  9
$PELEVATION
 40
0.0
  9
$THICKNESS
 40
0.0
  9
$LIMCHECK
 70
     0
  9
$BLIPMODE
 70
     0
  9
$CHAMFERA
 40
0.0
  9
$CHAMFERB
 40
0.0
  9
$SKPOLY
 70
     0
  9
$TDCREATE
 40
2459084.6123958327807486
  9
$TDUPDATE
 40
2459084.6155671300366521
  9
$TDINDWG
 40
0.0031712963
  9
$TDUSRTIMER
 40
0.0031712963
  9
$USRTIMER
 70
     1
  9
$ANGBASE
 50
0.0
  9
$ANGDIR
 70
     0
  9
$PDMODE
 70
     0
  9
$PDSIZE
 40
0.0
  9
$PLINEWID
 40
0.0
  9
$COORDS
 70
     1
  9
$SPLFRAME
 70
     0
  9
$SPLINETYPE
 70
     6
  9
$SPLINESEGS
 70
     8
  9
$ATTDIA
 70
     1
  9
$ATTREQ
 70
     1
  9
$HANDLING
 70
     1
  9
$HANDSEED
  5
E17
  9
$SURFTAB1
 70
     6
  9
$SURFTAB2
 70
     6
  9
$SURFTYPE
 70
     6
  9
$SURFU
 70
     6
  9
$SURFV
 70
     6
  9
$UCSNAME
  2

  9
$UCSORG
 10
0.0
 20
0.0
 30
0.0
  9
$UCSXDIR
 10
1.0
 20
0.0
 30
0.0
  9
$UCSYDIR
 10
0.0
 20
1.0
 30
0.0
  9
$PUCSNAME
  2

  9
$PUCSORG
 10
0.0
 20
0.0
 30
0.0
  9
$PUCSXDIR
 10
1.0
 20
0.0
 30
0.0
  9
$PUCSYDIR
 10
0.0
 20
1.0
 30
0.0
  9
$USERI1
 70
     0
  9
$USERI2
 70
     0
  9
$USERI3
 70
     0
  9
$USERI4
 70
     0
  9
$USERI5
 70
     0
  9
$USERR1
 40
0.0
  9
$USERR2
 40
0.0
  9
$USERR3
 40
0.0
  9
$USERR4
 40
0.0
  9
$USERR5
 40
0.0
  9
$WORLDVIEW
 70
     1
  9
$SHADEDGE
 70
     3
  9
$SHADEDIF
 70
    70
  9
$TILEMODE
 70
     1
  9
$MAXACTVP
 70
    64
  9
$PLIMCHECK
 70
     0
  9
$PEXTMIN
 10
-8.2322222896020119
 20
-4.5765036308860712
 30
0.0
  9
$PEXTMAX
 10
21.7899413896515313
 20
14.8266753550234398
 30
0.0
  9
$PLIMMIN
 10
0.0
 20
0.0
  9
$PLIMMAX
 10
12.0
 20
9.0
  9
$UNITMODE
 70
     0
  9
$VISRETAIN
 70
     1
  9
$PLINEGEN
 70
     0
  9
$PSLTSCALE
 70
     1
  0
ENDSEC
  0
SECTION
  2
TABLES
  0
TABLE
  2
VPORT
 70
     1
  0
VPORT
  2
*ACTIVE
 70
     0
 10
0.0
 20
0.0
 11
1.0
 21
1.0
 12
21.5294568883543
 22
11.2728723887677091
 13
0.0
 23
0.0
 14
0.5
 24
0.5
 15
0.5
 25
0.5
 16
0.0
 26
0.0
 36
1.0
 17
0.0
 27
0.0
 37
0.0
 40
37.1294804036362294
 41
2.3744292237442921
 42
50.0
 43
0.0
 44
0.0
 50
0.0
 51
0.0
 71
     0
 72
  1000
 73
     1
 74
     3
 75
     0
 76
     0
 77
     0
 78
     0
  0
ENDTAB
  0
TABLE
  2
LTYPE
 70
     2
  0
LTYPE
  2
CONTINUOUS
 70
     0
  3
Solid line
 72
    65
 73
     0
 40
0.0
  0
LTYPE
  2
DASHED
 70
     0
  3
Dashed __ __ __ __ __ __ __ __ __ __ __ __ __ _
 72
    65
 73
     2
 40
0.2068
 49
0.1655
 49
-0.0413
  0
ENDTAB
  0
TABLE
  2
LAYER
 70
     4
  0
LAYER
  2
0
 70
     0
 62
     7
  6
CONTINUOUS
  0
LAYER
  2
SKETCH_GEOMETRY__ISO_
 70
     0
 62
     7
  6
CONTINUOUS
  0
LAYER
  2
VISIBLE__ISO_
 70
     0
 62
     7
  6
CONTINUOUS
  0
LAYER
  2
VISIBLE_NARROW__ISO_
 70
     0
 62
     7
  6
CONTINUOUS
  0
ENDTAB
  0
TABLE
  2
STYLE
 70
     3
  0
STYLE
  2
STANDARD
 70
     0
 40
0.0
 41
1.0
 50
0.0
 71
     0
 42
0.2
  3
txt
  4

  0
STYLE
  2
ANNOTATIVE
 70
     0
 40
0.0
 41
1.0
 50
0.0
 71
     0
 42
0.2
  3
txt
  4

  0
STYLE
  2
TEXT_3_5MM
 70
     0
 40
0.0
 41
0.899999976158142
 50
0.0
 71
     0
 42
0.2
  3
txt
  4

  0
ENDTAB
  0
TABLE
  2
VIEW
 70
     5
  0
ENDTAB
  0
TABLE
  2
UCS
 70
     0
  0
ENDTAB
  0
TABLE
  2
APPID
 70
     5
  0
APPID
  2
ACAD
 70
     0
  0
APPID
  2
ACADANNOTATIVE
 70
     0
  0
APPID
  2
ACAD_NAV_VCDISPLAY
 70
     0
  0
APPID
  2
ACAD_PSEXT
 70
     0
  0
APPID
  2
ACAD_MLEADERVER
 70
     0
  0
ENDTAB
  0
TABLE
  2
DIMSTYLE
 70
     3
  0
DIMSTYLE
  2
STANDARD
 70
     0
  3

  4

  5

  6

  7

 40
1.0
 41
0.18
 42
0.0625
 43
0.38
 44
0.18
 45
0.0
 46
0.0
 47
0.0
 48
0.0
140
0.18
141
0.09
142
0.0
143
25.3999999999999986
144
1.0
145
0.0
146
1.0
147
0.09
 71
     0
 72
     0
 73
     1
 74
     1
 75
     0
 76
     0
 77
     0
 78
     0
170
     0
171
     2
172
     0
173
     0
174
     0
175
     0
176
     0
177
     0
178
     0
  0
DIMSTYLE
  2
ANNOTATIVE
 70
     0
  3

  4

  5

  6

  7

 40
1.0
 41
0.18
 42
0.0625
 43
0.38
 44
0.18
 45
0.0
 46
0.0
 47
0.0
 48
0.0
140
0.18
141
0.09
142
0.0
143
25.3999999999999986
144
1.0
145
0.0
146
1.0
147
0.09
 71
     0
 72
     0
 73
     1
 74
     1
 75
     0
 76
     0
 77
     0
 78
     0
170
     0
171
     2
172
     0
173
     0
174
     0
175
     0
176
     0
177
     0
178
     0
  0
DIMSTYLE
  2
KS-STANDARD
 70
     0
  3

  4

  5

  6

  7

 40
5.0
 41
2.5
 42
1.0
 43
12.0
 44
2.0
 45
0.00000001
 46
10.0
 47
0.0
 48
0.0
140
2.5
141
0.09
142
0.0
143
0.03937
144
1.0
145
0.0
146
1.0
147
0.8
 71
     0
 72
     0
 73
     0
 74
     0
 75
     0
 76
     0
 77
     1
 78
     8
170
     0
171
     3
172
     1
173
     0
174
     0
175
     0
176
     7
177
     7
178
     7
  0
ENDTAB
  0
ENDSEC
  0
SECTION
  2
BLOCKS
  0
BLOCK
  8
0
  2
$MODEL_SPACE
 70
     0
 10
0.0
 20
0.0
 30
0.0
  3
$MODEL_SPACE
  1

  0
ENDBLK
  5
72
  8
0
  0
BLOCK
 67
     1
  8
0
  2
$PAPER_SPACE
 70
     0
 10
0.0
 20
0.0
 30
0.0
  3
$PAPER_SPACE
  1

  0
ENDBLK
  5
6E
 67
     1
  8
0
  0
ENDSEC
  0
SECTION
  2
ENTITIES
  0
ARC
  5
99
  8
VISIBLE__ISO_
 10
26.3731405248501396
 20
21.1630572249601911
 30
0.0
 40
0.7500000000000031
 50
90.0
 51
270.0
  0
POLYLINE
  8
VISIBLE_NARROW__ISO_
  5
20B
  66
     1
 10
0.000000
 20
0.000000
 30
0.000000
  70
     8
  0
VERTEX
  8
VISIBLE_NARROW__ISO_
  5
20C
 10
8.71941
 20
20.1312
 30
0.000000
  70
    32
  0
VERTEX
  8
VISIBLE_NARROW__ISO_
  5
20D
 10
8.71531
 20
20.1312
 30
0.000000
  70
    32
  0
VERTEX
  8
VISIBLE_NARROW__ISO_
  5
20E
 10
8.71121
 20
20.1312
 30
0.000000
  70
    32
  0
VERTEX
  8
VISIBLE_NARROW__ISO_
  5
20F
 10
8.70711
 20
20.1311
 30
0.000000
  70
    32
  0
VERTEX
  8
VISIBLE_NARROW__ISO_
  5
210
 10
8.70301
 20
20.1311
 30
0.000000
  70
    32
  0
VERTEX
  8
VISIBLE_NARROW__ISO_
  5
211
 10
8.69891
 20
20.1310
 30
0.000000
  70
    32
  0
VERTEX
  8
VISIBLE_NARROW__ISO_
  5
212
 10
8.69482
 20
20.1310
 30
0.000000
  70
    32
  0
VERTEX
  8
VISIBLE_NARROW__ISO_
  5
213
 10
8.69072
 20
20.1309
 30
0.000000
  70
    32
  0
VERTEX
  8
VISIBLE_NARROW__ISO_
  5
214
 10
8.68662
 20
20.1308
 30
0.000000
  70
    32
  0
VERTEX
  8
VISIBLE_NARROW__ISO_
  5
215
 10
8.68252
 20
20.1307
 30
0.000000
  70
    32
  0
VERTEX
  8
VISIBLE_NARROW__ISO_
  5
216
 10
8.67842
 20
20.1306
 30
0.000000
  70
    32
  0
VERTEX
  8
VISIBLE_NARROW__ISO_
  5
217
 10
8.67432
 20
20.1304
 30
0.000000
  70
    32
  0
VERTEX
  8
VISIBLE_NARROW__ISO_
  5
218
 10
8.67023
 20
20.1303
 30
0.000000
  70
    32
  0
VERTEX
  8
VISIBLE_NARROW__ISO_
  5
219
 10
8.66613
 20
20.1301
 30
0.000000
  70
    32
  0
VERTEX
  8
VISIBLE_NARROW__ISO_
  5
21A
 10
8.66203
 20
20.1300
 30
0.000000
  70
    32
  0
VERTEX
  8
VISIBLE_NARROW__ISO_
  5
21B
 10
8.65794
 20
20.1298
 30
0.000000
  70
    32
  0
VERTEX
  8
VISIBLE_NARROW__ISO_
  5
21C
 10
8.65384
 20
20.1296
 30
0.000000
  70
    32
  0
VERTEX
  8
VISIBLE_NARROW__ISO_
  5
21D
 10
8.64975
 20
20.1294
 30
0.000000
  70
    32
  0
VERTEX
  8
VISIBLE_NARROW__ISO_
  5
21E
 10
8.64566
 20
20.1292
 30
0.000000
  70
    32
  0
VERTEX
  8
VISIBLE_NARROW__ISO_
  5
21F
 10
8.64156
 20
20.1289
 30
0.000000
  70
    32
  0
VERTEX
  8
VISIBLE_NARROW__ISO_
  5
220
 10
8.63747
 20
20.1287
 30
0.000000
  70
    32
  0
VERTEX
  8
VISIBLE_NARROW__ISO_
  5
221
 10
8.63338
 20
20.1284
 30
0.000000
  70
    32
  0
VERTEX
  8
VISIBLE_NARROW__ISO_
  5
222
 10
8.62929
 20
20.1282
 30
0.000000
  70
    32
  0
VERTEX
  8
VISIBLE_NARROW__ISO_
  5
223
 10
8.62520
 20
20.1279
 30
0.000000
  70
    32
  0
VERTEX
  8
VISIBLE_NARROW__ISO_
  5
224
 10
8.62111
 20
20.1276
 30
0.000000
  70
    32
  0
VERTEX
  8
VISIBLE_NARROW__ISO_
  5
225
 10
8.61702
 20
20.1273
 30
0.000000
  70
    32
  0
VERTEX
  8
VISIBLE_NARROW__ISO_
  5
226
 10
8.61293
 20
20.1270
 30
0.000000
  70
    32
  0
VERTEX
  8
VISIBLE_NARROW__ISO_
  5
227
 10
8.60885
 20
20.1266
 30
0.000000
  70
    32
  0
VERTEX
  8
VISIBLE_NARROW__ISO_
  5
228
 10
8.60476
 20
20.1263
 30
0.000000
  70
    32
  0
VERTEX
  8
VISIBLE_NARROW__ISO_
  5
229
 10
8.60068
 20
20.1259
 30
0.000000
  70
    32
  0
VERTEX
  8
VISIBLE_NARROW__ISO_
  5
22A
 10
8.59659
 20
20.1256
 30
0.000000
  70
    32
  0
VERTEX
  8
VISIBLE_NARROW__ISO_
  5
22B
 10
8.59251
 20
20.1252
 30
0.000000
  70
    32
  0
VERTEX
  8
VISIBLE_NARROW__ISO_
  5
22C
 10
8.58843
 20
20.1248
 30
0.000000
  70
    32
  0
VERTEX
  8
VISIBLE_NARROW__ISO_
  5
22D
 10
8.58435
 20
20.1244
 30
0.000000
  70
    32
  0
VERTEX
  8
VISIBLE_NARROW__ISO_
  5
22E
 10
8.58027
 20
20.1240
 30
0.000000
  70
    32
  0
VERTEX
  8
VISIBLE_NARROW__ISO_
  5
22F
 10
8.57620
 20
20.1235
 30
0.000000
  70
    32
  0
VERTEX
  8
VISIBLE_NARROW__ISO_
  5
230
 10
8.57212
 20
20.1231
 30
0.000000
  70
    32
  0
VERTEX
  8
VISIBLE_NARROW__ISO_
  5
231
 10
8.56805
 20
20.1226
 30
0.000000
  70
    32
  0
VERTEX
  8
VISIBLE_NARROW__ISO_
  5
232
 10
8.56397
 20
20.1222
 30
0.000000
  70
    32
  0
VERTEX
  8
VISIBLE_NARROW__ISO_
  5
233
 10
8.55990
 20
20.1217
 30
0.000000
  70
    32
  0
VERTEX
  8
VISIBLE_NARROW__ISO_
  5
234
 10
8.55583
 20
20.1212
 30
0.000000
  70
    32
  0
VERTEX
  8
VISIBLE_NARROW__ISO_
  5
235
 10
8.55176
 20
20.1207
 30
0.000000
  70
    32
  0
VERTEX
  8
VISIBLE_NARROW__ISO_
  5
236
 10
8.54770
 20
20.1202
 30
0.000000
  70
    32
  0
VERTEX
  8
VISIBLE_NARROW__ISO_
  5
237
 10
8.54363
 20
20.1196
 30
0.000000
  70
    32
  0
VERTEX
  8
VISIBLE_NARROW__ISO_
  5
238
 10
8.53957
 20
20.1191
 30
0.000000
  70
    32
  0
VERTEX
  8
VISIBLE_NARROW__ISO_
  5
239
 10
8.53551
 20
20.1185
 30
0.000000
  70
    32
  0
VERTEX
  8
VISIBLE_NARROW__ISO_
  5
23A
 10
8.53145
 20
20.1180
 30
0.000000
  70
    32
  0
VERTEX
  8
VISIBLE_NARROW__ISO_
  5
23B
 10
8.52739
 20
20.1174
 30
0.000000
  70
    32
  0
VERTEX
  8
VISIBLE_NARROW__ISO_
  5
23C
 10
8.52333
 20
20.1168
 30
0.000000
  70
    32
  0
VERTEX
  8
VISIBLE_NARROW__ISO_
  5
23D
 10
8.51928
 20
20.1162
 30
0.000000
  70
    32
  0
VERTEX
  8
VISIBLE_NARROW__ISO_
  5
23E
 10
8.51522
 20
20.1156
 30
0.000000
  70
    32
  0
VERTEX
  8
VISIBLE_NARROW__ISO_
  5
23F
 10
8.51117
 20
20.1149
 30
0.000000
  70
    32
  0
VERTEX
  8
VISIBLE_NARROW__ISO_
  5
240
 10
8.50712
 20
20.1143
 30
0.000000
  70
    32
  0
VERTEX
  8
VISIBLE_NARROW__ISO_
  5
241
 10
8.50307
 20
20.1136
 30
0.000000
  70
    32
  0
VERTEX
  8
VISIBLE_NARROW__ISO_
  5
242
 10
8.49903
 20
20.1130
 30
0.000000
  70
    32
  0
VERTEX
  8
VISIBLE_NARROW__ISO_
  5
243
 10
8.49499
 20
20.1123
 30
0.000000
  70
    32
  0
VERTEX
  8
VISIBLE_NARROW__ISO_
  5
244
 10
8.49095
 20
20.1116
 30
0.000000
  70
    32
  0
VERTEX
  8
VISIBLE_NARROW__ISO_
  5
245
 10
8.48691
 20
20.1109
 30
0.000000
  70
    32
  0
VERTEX
  8
VISIBLE_NARROW__ISO_
  5
246
 10
8.48287
 20
20.1102
 30
0.000000
  70
    32
  0
VERTEX
  8
VISIBLE_NARROW__ISO_
  5
247
 10
8.47884
 20
20.1094
 30
0.000000
  70
    32
  0
VERTEX
  8
VISIBLE_NARROW__ISO_
  5
248
 10
8.47480
 20
20.1087
 30
0.000000
  70
    32
  0
VERTEX
  8
VISIBLE_NARROW__ISO_
  5
249
 10
8.47077
 20
20.1079
 30
0.000000
  70
    32
  0
VERTEX
  8
VISIBLE_NARROW__ISO_
  5
24A
 10
8.46675
 20
20.1072
 30
0.000000
  70
    32
  0
VERTEX
  8
VISIBLE_NARROW__ISO_
  5
24B
 10
8.46272
 20
20.1064
 30
0.000000
  70
    32
  0
VERTEX
  8
VISIBLE_NARROW__ISO_
  5
24C
 10
8.45870
 20
20.1056
 30
0.000000
  70
    32
  0
VERTEX
  8
VISIBLE_NARROW__ISO_
  5
24D
 10
8.45468
 20
20.1048
 30
0.000000
  70
    32
  0
VERTEX
  8
VISIBLE_NARROW__ISO_
  5
24E
 10
8.45066
 20
20.1040
 30
0.000000
  70
    32
  0
VERTEX
  8
VISIBLE_NARROW__ISO_
  5
24F
 10
8.44665
 20
20.1031
 30
0.000000
  70
    32
  0
VERTEX
  8
VISIBLE_NARROW__ISO_
  5
250
 10
8.44263
 20
20.1023
 30
0.000000
  70
    32
  0
VERTEX
  8
VISIBLE_NARROW__ISO_
  5
251
 10
8.43863
 20
20.1014
 30
0.000000
  70
    32
  0
VERTEX
  8
VISIBLE_NARROW__ISO_
  5
252
 10
8.43462
 20
20.1006
 30
0.000000
  70
    32
  0
VERTEX
  8
VISIBLE_NARROW__ISO_
  5
253
 10
8.43061
 20
20.0997
 30
0.000000
  70
    32
  0
VERTEX
  8
VISIBLE_NARROW__ISO_
  5
254
 10
8.42661
 20
20.0988
 30
0.000000
  70
    32
  0
VERTEX
  8
VISIBLE_NARROW__ISO_
  5
255
 10
8.42261
 20
20.0979
 30
0.000000
  70
    32
  0
VERTEX
  8
VISIBLE_NARROW__ISO_
  5
256
 10
8.41862
 20
20.0970
 30
0.000000
  70
    32
  0
VERTEX
  8
VISIBLE_NARROW__ISO_
  5
257
 10
8.41462
 20
20.0960
 30
0.000000
  70
    32
  0
VERTEX
  8
VISIBLE_NARROW__ISO_
  5
258
 10
8.41063
 20
20.0951
 30
0.000000
  70
    32
  0
VERTEX
  8
VISIBLE_NARROW__ISO_
  5
259
 10
8.40664
 20
20.0941
 30
0.000000
  70
    32
  0
VERTEX
  8
VISIBLE_NARROW__ISO_
  5
25A
 10
8.40266
 20
20.0932
 30
0.000000
  70
    32
  0
VERTEX
  8
VISIBLE_NARROW__ISO_
  5
25B
 10
8.39868
 20
20.0922
 30
0.000000
  70
    32
  0
VERTEX
  8
VISIBLE_NARROW__ISO_
  5
25C
 10
8.39470
 20
20.0912
 30
0.000000
  70
    32
  0
VERTEX
  8
VISIBLE_NARROW__ISO_
  5
25D
 10
8.39072
 20
20.0902
 30
0.000000
  70
    32
  0
VERTEX
  8
VISIBLE_NARROW__ISO_
  5
25E
 10
8.38675
 20
20.0892
 30
0.000000
  70
    32
  0
VERTEX
  8
VISIBLE_NARROW__ISO_
  5
25F
 10
8.38278
 20
20.0882
 30
0.000000
  70
    32
  0
VERTEX
  8
VISIBLE_NARROW__ISO_
  5
260
 10
8.37881
 20
20.0871
 30
0.000000
  70
    32
  0
VERTEX
  8
VISIBLE_NARROW__ISO_
  5
261
 10
8.37485
 20
20.0861
 30
0.000000
  70
    32
  0
VERTEX
  8
VISIBLE_NARROW__ISO_
  5
262
 10
8.37089
 20
20.0850
 30
0.000000
  70
    32
  0
VERTEX
  8
VISIBLE_NARROW__ISO_
  5
263
 10
8.36693
 20
20.0839
 30
0.000000
  70
    32
  0
VERTEX
  8
VISIBLE_NARROW__ISO_
  5
264
 10
8.36298
 20
20.0828
 30
0.000000
  70
    32
  0
VERTEX
  8
VISIBLE_NARROW__ISO_
  5
265
 10
8.35903
 20
20.0817
 30
0.000000
  70
    32
  0
VERTEX
  8
VISIBLE_NARROW__ISO_
  5
266
 10
8.35508
 20
20.0806
 30
0.000000
  70
    32
  0
VERTEX
  8
VISIBLE_NARROW__ISO_
  5
267
 10
8.35114
 20
20.0795
 30
0.000000
  70
    32
  0
VERTEX
  8
VISIBLE_NARROW__ISO_
  5
268
 10
8.34720
 20
20.0784
 30
0.000000
  70
    32
  0
VERTEX
  8
VISIBLE_NARROW__ISO_
  5
269
 10
8.34327
 20
20.0772
 30
0.000000
  70
    32
  0
VERTEX
  8
VISIBLE_NARROW__ISO_
  5
26A
 10
8.33933
 20
20.0761
 30
0.000000
  70
    32
  0
VERTEX
  8
VISIBLE_NARROW__ISO_
  5
26B
 10
8.33540
 20
20.0749
 30
0.000000
  70
    32
  0
VERTEX
  8
VISIBLE_NARROW__ISO_
  5
26C
 10
8.33148
 20
20.0737
 30
0.000000
  70
    32
  0
VERTEX
  8
VISIBLE_NARROW__ISO_
  5
26D
 10
8.32756
 20
20.0725
 30
0.000000
  70
    32
  0
VERTEX
  8
VISIBLE_NARROW__ISO_
  5
26E
 10
8.32364
 20
20.0713
 30
0.000000
  70
    32
  0
VERTEX
  8
VISIBLE_NARROW__ISO_
  5
26F
 10
8.31972
 20
20.0701
 30
0.000000
  70
    32
  0
VERTEX
  8
VISIBLE_NARROW__ISO_
  5
270
 10
8.31581
 20
20.0688
 30
0.000000
  70
    32
  0
VERTEX
  8
VISIBLE_NARROW__ISO_
  5
271
 10
8.31190
 20
20.0676
 30
0.000000
  70
    32
  0
VERTEX
  8
VISIBLE_NARROW__ISO_
  5
272
 10
8.30800
 20
20.0663
 30
0.000000
  70
    32
  0
VERTEX
  8
VISIBLE_NARROW__ISO_
  5
273
 10
8.30410
 20
20.0651
 30
0.000000
  70
    32
  0
VERTEX
  8
VISIBLE_NARROW__ISO_
  5
274
 10
8.30021
 20
20.0638
 30
0.000000
  70
    32
  0
VERTEX
  8
VISIBLE_NARROW__ISO_
  5
275
 10
8.29632
 20
20.0625
 30
0.000000
  70
    32
  0
VERTEX
  8
VISIBLE_NARROW__ISO_
  5
276
 10
8.29243
 20
20.0612
 30
0.000000
  70
    32
  0
VERTEX
  8
VISIBLE_NARROW__ISO_
  5
277
 10
8.28854
 20
20.0599
 30
0.000000
  70
    32
  0
VERTEX
  8
VISIBLE_NARROW__ISO_
  5
278
 10
8.28467
 20
20.0586
 30
0.000000
  70
    32
  0
VERTEX
  8
VISIBLE_NARROW__ISO_
  5
279
 10
8.28079
 20
20.0572
 30
0.000000
  70
    32
  0
VERTEX
  8
VISIBLE_NARROW__ISO_
  5
27A
 10
8.27692
 20
20.0559
 30
0.000000
  70
    32
  0
VERTEX
  8
VISIBLE_NARROW__ISO_
  5
27B
 10
8.27305
 20
20.0545
 30
0.000000
  70
    32
  0
VERTEX
  8
VISIBLE_NARROW__ISO_
  5
27C
 10
8.26919
 20
20.0531
 30
0.000000
  70
    32
  0
VERTEX
  8
VISIBLE_NARROW__ISO_
  5
27D
 10
8.26533
 20
20.0517
 30
0.000000
  70
    32
  0
VERTEX
  8
VISIBLE_NARROW__ISO_
  5
27E
 10
8.26148
 20
20.0503
 30
0.000000
  70
    32
  0
VERTEX
  8
VISIBLE_NARROW__ISO_
  5
27F
 10
8.25763
 20
20.0489
 30
0.000000
  70
    32
  0
VERTEX
  8
VISIBLE_NARROW__ISO_
  5
280
 10
8.25378
 20
20.0475
 30
0.000000
  70
    32
  0
VERTEX
  8
VISIBLE_NARROW__ISO_
  5
281
 10
8.24994
 20
20.0461
 30
0.000000
  70
    32
  0
VERTEX
  8
VISIBLE_NARROW__ISO_
  5
282
 10
8.24610
 20
20.0446
 30
0.000000
  70
    32
  0
VERTEX
  8
VISIBLE_NARROW__ISO_
  5
283
 10
8.24227
 20
20.0432
 30
0.000000
  70
    32
  0
VERTEX
  8
VISIBLE_NARROW__ISO_
  5
284
 10
8.23844
 20
20.0417
 30
0.000000
  70
    32
  0
VERTEX
  8
VISIBLE_NARROW__ISO_
  5
285
 10
8.23462
 20
20.0402
 30
0.000000
  70
    32
  0
VERTEX
  8
VISIBLE_NARROW__ISO_
  5
286
 10
8.23080
 20
20.0387
 30
0.000000
  70
    32
  0
VERTEX
  8
VISIBLE_NARROW__ISO_
  5
287
 10
8.22698
 20
20.0372
 30
0.000000
  70
    32
  0
VERTEX
  8
VISIBLE_NARROW__ISO_
  5
288
 10
8.22318
 20
20.0357
 30
0.000000
  70
    32
  0
VERTEX
  8
VISIBLE_NARROW__ISO_
  5
289
 10
8.21937
 20
20.0342
 30
0.000000
  70
    32
  0
VERTEX
  8
VISIBLE_NARROW__ISO_
  5
28A
 10
8.21557
 20
20.0326
 30
0.000000
  70
    32
  0
VERTEX
  8
VISIBLE_NARROW__ISO_
  5
28B
 10
8.21177
 20
20.0311
 30
0.000000
  70
    32
  0
VERTEX
  8
VISIBLE_NARROW__ISO_
  5
28C
 10
8.20798
 20
20.0295
 30
0.000000
  70
    32
  0
VERTEX
  8
VISIBLE_NARROW__ISO_
  5
28D
 10
8.20420
 20
20.0279
 30
0.000000
  70
    32
  0
VERTEX
  8
VISIBLE_NARROW__ISO_
  5
28E
 10
8.20042
 20
20.0263
 30
0.000000
  70
    32
  0
VERTEX
  8
VISIBLE_NARROW__ISO_
  5
28F
 10
8.19664
 20
20.0247
 30
0.000000
  70
    32
  0
VERTEX
  8
VISIBLE_NARROW__ISO_
  5
290
 10
8.19287
 20
20.0231
 30
0.000000
  70
    32
  0
VERTEX
  8
VISIBLE_NARROW__ISO_
  5
291
 10
8.18910
 20
20.0215
 30
0.000000
  70
    32
  0
VERTEX
  8
VISIBLE_NARROW__ISO_
  5
292
 10
8.18534
 20
20.0199
 30
0.000000
  70
    32
  0
VERTEX
  8
VISIBLE_NARROW__ISO_
  5
293
 10
8.18159
 20
20.0182
 30
0.000000
  70
    32
  0
VERTEX
  8
VISIBLE_NARROW__ISO_
  5
294
 10
8.17784
 20
20.0166
 30
0.000000
  70
    32
  0
VERTEX
  8
VISIBLE_NARROW__ISO_
  5
295
 10
8.17409
 20
20.0149
 30
0.000000
  70
    32
  0
VERTEX
  8
VISIBLE_NARROW__ISO_
  5
296
 10
8.17035
 20
20.0132
 30
0.000000
  70
    32
  0
VERTEX
  8
VISIBLE_NARROW__ISO_
  5
297
 10
8.16661
 20
20.0115
 30
0.000000
  70
    32
  0
VERTEX
  8
VISIBLE_NARROW__ISO_
  5
298
 10
8.16288
 20
20.0098
 30
0.000000
  70
    32
  0
VERTEX
  8
VISIBLE_NARROW__ISO_
  5
299
 10
8.15916
 20
20.0081
 30
0.000000
  70
    32
  0
VERTEX
  8
VISIBLE_NARROW__ISO_
  5
29A
 10
8.15544
 20
20.0064
 30
0.000000
  70
    32
  0
VERTEX
  8
VISIBLE_NARROW__ISO_
  5
29B
 10
8.15172
 20
20.0047
 30
0.000000
  70
    32
  0
VERTEX
  8
VISIBLE_NARROW__ISO_
  5
29C
 10
8.14801
 20
20.0029
 30
0.000000
  70
    32
  0
VERTEX
  8
VISIBLE_NARROW__ISO_
  5
29D
 10
8.14431
 20
20.0011
 30
0.000000
  70
    32
  0
VERTEX
  8
VISIBLE_NARROW__ISO_
  5
29E
 10
8.14061
 20
19.9994
 30
0.000000
  70
    32
  0
VERTEX
  8
VISIBLE_NARROW__ISO_
  5
29F
 10
8.13692
 20
19.9976
 30
0.000000
  70
    32
  0
VERTEX
  8
VISIBLE_NARROW__ISO_
  5
2A0
 10
8.13323
 20
19.9958
 30
0.000000
  70
    32
  0
VERTEX
  8
VISIBLE_NARROW__ISO_
  5
2A1
 10
8.12955
 20
19.9940
 30
0.000000
  70
    32
  0
VERTEX
  8
VISIBLE_NARROW__ISO_
  5
2A2
 10
8.12588
 20
19.9922
 30
0.000000
  70
    32
  0
VERTEX
  8
VISIBLE_NARROW__ISO_
  5
2A3
 10
8.12221
 20
19.9903
 30
0.000000
  70
    32
  0
VERTEX
  8
VISIBLE_NARROW__ISO_
  5
2A4
 10
8.11854
 20
19.9885
 30
0.000000
  70
    32
  0
VERTEX
  8
VISIBLE_NARROW__ISO_
  5
2A5
 10
8.11488
 20
19.9866
 30
0.000000
  70
    32
  0
VERTEX
  8
VISIBLE_NARROW__ISO_
  5
2A6
 10
8.11123
 20
19.9848
 30
0.000000
  70
    32
  0
VERTEX
  8
VISIBLE_NARROW__ISO_
  5
2A7
 10
8.10758
 20
19.9829
 30
0.000000
  70
    32
  0
VERTEX
  8
VISIBLE_NARROW__ISO_
  5
2A8
 10
8.10394
 20
19.9810
 30
0.000000
  70
    32
  0
VERTEX
  8
VISIBLE_NARROW__ISO_
  5
2A9
 10
8.10030
 20
19.9791
 30
0.000000
  70
    32
  0
VERTEX
  8
VISIBLE_NARROW__ISO_
  5
2AA
 10
8.09667
 20
19.9772
 30
0.000000
  70
    32
  0
VERTEX
  8
VISIBLE_NARROW__ISO_
  5
2AB
 10
8.09305
 20
19.9753
 30
0.000000
  70
    32
  0
VERTEX
  8
VISIBLE_NARROW__ISO_
  5
2AC
 10
8.08943
 20
19.9734
 30
0.000000
  70
    32
  0
VERTEX
  8
VISIBLE_NARROW__ISO_
  5
2AD
 10
8.08582
 20
19.9714
 30
0.000000
  70
    32
  0
VERTEX
  8
VISIBLE_NARROW__ISO_
  5
2AE
 10
8.08221
 20
19.9695
 30
0.000000
  70
    32
  0
VERTEX
  8
VISIBLE_NARROW__ISO_
  5
2AF
 10
8.07861
 20
19.9675
 30
0.000000
  70
    32
  0
VERTEX
  8
VISIBLE_NARROW__ISO_
  5
2B0
 10
8.07502
 20
19.9655
 30
0.000000
  70
    32
  0
VERTEX
  8
VISIBLE_NARROW__ISO_
  5
2B1
 10
8.07143
 20
19.9636
 30
0.000000
  70
    32
  0
VERTEX
  8
VISIBLE_NARROW__ISO_
  5
2B2
 10
8.06785
 20
19.9616
 30
0.000000
  70
    32
  0
VERTEX
  8
VISIBLE_NARROW__ISO_
  5
2B3
 10
8.06427
 20
19.9596
 30
0.000000
  70
    32
  0
VERTEX
  8
VISIBLE_NARROW__ISO_
  5
2B4
 10
8.06070
 20
19.9575
 30
0.000000
  70
    32
  0
VERTEX
  8
VISIBLE_NARROW__ISO_
  5
2B5
 10
8.05714
 20
19.9555
 30
0.000000
  70
    32
  0
VERTEX
  8
VISIBLE_NARROW__ISO_
  5
2B6
 10
8.05358
 20
19.9535
 30
0.000000
  70
    32
  0
VERTEX
  8
VISIBLE_NARROW__ISO_
  5
2B7
 10
8.05003
 20
19.9514
 30
0.000000
  70
    32
  0
VERTEX
  8
VISIBLE_NARROW__ISO_
  5
2B8
 10
8.04649
 20
19.9493
 30
0.000000
  70
    32
  0
VERTEX
  8
VISIBLE_NARROW__ISO_
  5
2B9
 10
8.04295
 20
19.9473
 30
0.000000
  70
    32
  0
VERTEX
  8
VISIBLE_NARROW__ISO_
  5
2BA
 10
8.03942
 20
19.9452
 30
0.000000
  70
    32
  0
VERTEX
  8
VISIBLE_NARROW__ISO_
  5
2BB
 10
8.03589
 20
19.9431
 30
0.000000
  70
    32
  0
VERTEX
  8
VISIBLE_NARROW__ISO_
  5
2BC
 10
8.03237
 20
19.9410
 30
0.000000
  70
    32
  0
VERTEX
  8
VISIBLE_NARROW__ISO_
  5
2BD
 10
8.02886
 20
19.9389
 30
0.000000
  70
    32
  0
VERTEX
  8
VISIBLE_NARROW__ISO_
  5
2BE
 10
8.02535
 20
19.9367
 30
0.000000
  70
    32
  0
VERTEX
  8
VISIBLE_NARROW__ISO_
  5
2BF
 10
8.02185
 20
19.9346
 30
0.000000
  70
    32
  0
VERTEX
  8
VISIBLE_NARROW__ISO_
  5
2C0
 10
8.01836
 20
19.9325
 30
0.000000
  70
    32
  0
VERTEX
  8
VISIBLE_NARROW__ISO_
  5
2C1
 10
8.01488
 20
19.9303
 30
0.000000
  70
    32
  0
VERTEX
  8
VISIBLE_NARROW__ISO_
  5
2C2
 10
8.01140
 20
19.9281
 30
0.000000
  70
    32
  0
VERTEX
  8
VISIBLE_NARROW__ISO_
  5
2C3
 10
8.00792
 20
19.9260
 30
0.000000
  70
    32
  0
VERTEX
  8
VISIBLE_NARROW__ISO_
  5
2C4
 10
8.00446
 20
19.9238
 30
0.000000
  70
    32
  0
VERTEX
  8
VISIBLE_NARROW__ISO_
  5
2C5
 10
8.00100
 20
19.9216
 30
0.000000
  70
    32
  0
VERTEX
  8
VISIBLE_NARROW__ISO_
  5
2C6
 10
7.99754
 20
19.9193
 30
0.000000
  70
    32
  0
VERTEX
  8
VISIBLE_NARROW__ISO_
  5
2C7
 10
7.99410
 20
19.9171
 30
0.000000
  70
    32
  0
VERTEX
  8
VISIBLE_NARROW__ISO_
  5
2C8
 10
7.99066
 20
19.9149
 30
0.000000
  70
    32
  0
VERTEX
  8
VISIBLE_NARROW__ISO_
  5
2C9
 10
7.98723
 20
19.9126
 30
0.000000
  70
    32
  0
VERTEX
  8
VISIBLE_NARROW__ISO_
  5
2CA
 10
7.98380
 20
19.9104
 30
0.000000
  70
    32
  0
VERTEX
  8
VISIBLE_NARROW__ISO_
  5
2CB
 10
7.98038
 20
19.9081
 30
0.000000
  70
    32
  0
VERTEX
  8
VISIBLE_NARROW__ISO_
  5
2CC
 10
7.97697
 20
19.9058
 30
0.000000
  70
    32
  0
VERTEX
  8
VISIBLE_NARROW__ISO_
  5
2CD
 10
7.97357
 20
19.9036
 30
0.000000
  70
    32
  0
VERTEX
  8
VISIBLE_NARROW__ISO_
  5
2CE
 10
7.97017
 20
19.9013
 30
0.000000
  70
    32
  0
VERTEX
  8
VISIBLE_NARROW__ISO_
  5
2CF
 10
7.96678
 20
19.8990
 30
0.000000
  70
    32
  0
VERTEX
  8
VISIBLE_NARROW__ISO_
  5
2D0
 10
7.96340
 20
19.8966
 30
0.000000
  70
    32
  0
VERTEX
  8
VISIBLE_NARROW__ISO_
  5
2D1
 10
7.96002
 20
19.8943
 30
0.000000
  70
    32
  0
VERTEX
  8
VISIBLE_NARROW__ISO_
  5
2D2
 10
7.95665
 20
19.8920
 30
0.000000
  70
    32
  0
VERTEX
  8
VISIBLE_NARROW__ISO_
  5
2D3
 10
7.95329
 20
19.8896
 30
0.000000
  70
    32
  0
VERTEX
  8
VISIBLE_NARROW__ISO_
  5
2D4
 10
7.94993
 20
19.8873
 30
0.000000
  70
    32
  0
VERTEX
  8
VISIBLE_NARROW__ISO_
  5
2D5
 10
7.94659
 20
19.8849
 30
0.000000
  70
    32
  0
VERTEX
  8
VISIBLE_NARROW__ISO_
  5
2D6
 10
7.94325
 20
19.8825
 30
0.000000
  70
    32
  0
VERTEX
  8
VISIBLE_NARROW__ISO_
  5
2D7
 10
7.93991
 20
19.8801
 30
0.000000
  70
    32
  0
VERTEX
  8
VISIBLE_NARROW__ISO_
  5
2D8
 10
7.93659
 20
19.8777
 30
0.000000
  70
    32
  0
VERTEX
  8
VISIBLE_NARROW__ISO_
  5
2D9
 10
7.93327
 20
19.8753
 30
0.000000
  70
    32
  0
VERTEX
  8
VISIBLE_NARROW__ISO_
  5
2DA
 10
7.92996
 20
19.8729
 30
0.000000
  70
    32
  0
VERTEX
  8
VISIBLE_NARROW__ISO_
  5
2DB
 10
7.92666
 20
19.8705
 30
0.000000
  70
    32
  0
VERTEX
  8
VISIBLE_NARROW__ISO_
  5
2DC
 10
7.92336
 20
19.8680
 30
0.000000
  70
    32
  0
VERTEX
  8
VISIBLE_NARROW__ISO_
  5
2DD
 10
7.92007
 20
19.8656
 30
0.000000
  70
    32
  0
VERTEX
  8
VISIBLE_NARROW__ISO_
  5
2DE
 10
7.91679
 20
19.8631
 30
0.000000
  70
    32
  0
VERTEX
  8
VISIBLE_NARROW__ISO_
  5
2DF
 10
7.91352
 20
19.8606
 30
0.000000
  70
    32
  0
VERTEX
  8
VISIBLE_NARROW__ISO_
  5
2E0
 10
7.91025
 20
19.8582
 30
0.000000
  70
    32
  0
VERTEX
  8
VISIBLE_NARROW__ISO_
  5
2E1
 10
7.90700
 20
19.8557
 30
0.000000
  70
    32
  0
VERTEX
  8
VISIBLE_NARROW__ISO_
  5
2E2
 10
7.90375
 20
19.8532
 30
0.000000
  70
    32
  0
VERTEX
  8
VISIBLE_NARROW__ISO_
  5
2E3
 10
7.90050
 20
19.8507
 30
0.000000
  70
    32
  0
VERTEX
  8
VISIBLE_NARROW__ISO_
  5
2E4
 10
7.89727
 20
19.8481
 30
0.000000
  70
    32
  0
VERTEX
  8
VISIBLE_NARROW__ISO_
  5
2E5
 10
7.89404
 20
19.8456
 30
0.000000
  70
    32
  0
VERTEX
  8
VISIBLE_NARROW__ISO_
  5
2E6
 10
7.89082
 20
19.8431
 30
0.000000
  70
    32
  0
VERTEX
  8
VISIBLE_NARROW__ISO_
  5
2E7
 10
7.88761
 20
19.8405
 30
0.000000
  70
    32
  0
VERTEX
  8
VISIBLE_NARROW__ISO_
  5
2E8
 10
7.88441
 20
19.8380
 30
0.000000
  70
    32
  0
VERTEX
  8
VISIBLE_NARROW__ISO_
  5
2E9
 10
7.88121
 20
19.8354
 30
0.000000
  70
    32
  0
VERTEX
  8
VISIBLE_NARROW__ISO_
  5
2EA
 10
7.87803
 20
19.8328
 30
0.000000
  70
    32
  0
VERTEX
  8
VISIBLE_NARROW__ISO_
  5
2EB
 10
7.87485
 20
19.8302
 30
0.000000
  70
    32
  0
VERTEX
  8
VISIBLE_NARROW__ISO_
  5
2EC
 10
7.87168
 20
19.8276
 30
0.000000
  70
    32
  0
VERTEX
  8
VISIBLE_NARROW__ISO_
  5
2ED
 10
7.86851
 20
19.8250
 30
0.000000
  70
    32
  0
VERTEX
  8
VISIBLE_NARROW__ISO_
  5
2EE
 10
7.86536
 20
19.8224
 30
0.000000
  70
    32
  0
VERTEX
  8
VISIBLE_NARROW__ISO_
  5
2EF
 10
7.86221
 20
19.8197
 30
0.000000
  70
    32
  0
VERTEX
  8
VISIBLE_NARROW__ISO_
  5
2F0
 10
7.85907
 20
19.8171
 30
0.000000
  70
    32
  0
VERTEX
  8
VISIBLE_NARROW__ISO_
  5
2F1
 10
7.85594
 20
19.8145
 30
0.000000
  70
    32
  0
VERTEX
  8
VISIBLE_NARROW__ISO_
  5
2F2
 10
7.85282
 20
19.8118
 30
0.000000
  70
    32
  0
VERTEX
  8
VISIBLE_NARROW__ISO_
  5
2F3
 10
7.84970
 20
19.8091
 30
0.000000
  70
    32
  0
VERTEX
  8
VISIBLE_NARROW__ISO_
  5
2F4
 10
7.84660
 20
19.8065
 30
0.000000
  70
    32
  0
VERTEX
  8
VISIBLE_NARROW__ISO_
  5
2F5
 10
7.84350
 20
19.8038
 30
0.000000
  70
    32
  0
VERTEX
  8
VISIBLE_NARROW__ISO_
  5
2F6
 10
7.84041
 20
19.8011
 30
0.000000
  70
    32
  0
VERTEX
  8
VISIBLE_NARROW__ISO_
  5
2F7
 10
7.83733
 20
19.7984
 30
0.000000
  70
    32
  0
VERTEX
  8
VISIBLE_NARROW__ISO_
  5
2F8
 10
7.83426
 20
19.7956
 30
0.000000
  70
    32
  0
VERTEX
  8
VISIBLE_NARROW__ISO_
  5
2F9
 10
7.83119
 20
19.7929
 30
0.000000
  70
    32
  0
VERTEX
  8
VISIBLE_NARROW__ISO_
  5
2FA
 10
7.82814
 20
19.7902
 30
0.000000
  70
    32
  0
VERTEX
  8
VISIBLE_NARROW__ISO_
  5
2FB
 10
7.82509
 20
19.7874
 30
0.000000
  70
    32
  0
VERTEX
  8
VISIBLE_NARROW__ISO_
  5
2FC
 10
7.82205
 20
19.7847
 30
0.000000
  70
    32
  0
VERTEX
  8
VISIBLE_NARROW__ISO_
  5
2FD
 10
7.81902
 20
19.7819
 30
0.000000
  70
    32
  0
VERTEX
  8
VISIBLE_NARROW__ISO_
  5
2FE
 10
7.81600
 20
19.7792
 30
0.000000
  70
    32
  0
VERTEX
  8
VISIBLE_NARROW__ISO_
  5
2FF
 10
7.81299
 20
19.7764
 30
0.000000
  70
    32
  0
VERTEX
  8
VISIBLE_NARROW__ISO_
  5
300
 10
7.80998
 20
19.7736
 30
0.000000
  70
    32
  0
VERTEX
  8
VISIBLE_NARROW__ISO_
  5
301
 10
7.80699
 20
19.7708
 30
0.000000
  70
    32
  0
VERTEX
  8
VISIBLE_NARROW__ISO_
  5
302
 10
7.80400
 20
19.7680
 30
0.000000
  70
    32
  0
VERTEX
  8
VISIBLE_NARROW__ISO_
  5
303
 10
7.80102
 20
19.7652
 30
0.000000
  70
    32
  0
VERTEX
  8
VISIBLE_NARROW__ISO_
  5
304
 10
7.79805
 20
19.7623
 30
0.000000
  70
    32
  0
VERTEX
  8
VISIBLE_NARROW__ISO_
  5
305
 10
7.79509
 20
19.7595
 30
0.000000
  70
    32
  0
VERTEX
  8
VISIBLE_NARROW__ISO_
  5
306
 10
7.79214
 20
19.7566
 30
0.000000
  70
    32
  0
VERTEX
  8
VISIBLE_NARROW__ISO_
  5
307
 10
7.78919
 20
19.7538
 30
0.000000
  70
    32
  0
VERTEX
  8
VISIBLE_NARROW__ISO_
  5
308
 10
7.78626
 20
19.7509
 30
0.000000
  70
    32
  0
VERTEX
  8
VISIBLE_NARROW__ISO_
  5
309
 10
7.78333
 20
19.7480
 30
0.000000
  70
    32
  0
VERTEX
  8
VISIBLE_NARROW__ISO_
  5
30A
 10
7.78041
 20
19.7452
 30
0.000000
  70
    32
  0
VERTEX
  8
VISIBLE_NARROW__ISO_
  5
30B
 10
7.77751
 20
19.7423
 30
0.000000
  70
    32
  0
VERTEX
  8
VISIBLE_NARROW__ISO_
  5
30C
 10
7.77461
 20
19.7394
 30
0.000000
  70
    32
  0
VERTEX
  8
VISIBLE_NARROW__ISO_
  5
30D
 10
7.77172
 20
19.7365
 30
0.000000
  70
    32
  0
VERTEX
  8
VISIBLE_NARROW__ISO_
  5
30E
 10
7.76883
 20
19.7335
 30
0.000000
  70
    32
  0
VERTEX
  8
VISIBLE_NARROW__ISO_
  5
30F
 10
7.76596
 20
19.7306
 30
0.000000
  70
    32
  0
VERTEX
  8
VISIBLE_NARROW__ISO_
  5
310
 10
7.76310
 20
19.7277
 30
0.000000
  70
    32
  0
VERTEX
  8
VISIBLE_NARROW__ISO_
  5
311
 10
7.76024
 20
19.7247
 30
0.000000
  70
    32
  0
VERTEX
  8
VISIBLE_NARROW__ISO_
  5
312
 10
7.75740
 20
19.7218
 30
0.000000
  70
    32
  0
VERTEX
  8
VISIBLE_NARROW__ISO_
  5
313
 10
7.75456
 20
19.7188
 30
0.000000
  70
    32
  0
VERTEX
  8
VISIBLE_NARROW__ISO_
  5
314
 10
7.75173
 20
19.7159
 30
0.000000
  70
    32
  0
VERTEX
  8
VISIBLE_NARROW__ISO_
  5
315
 10
7.74892
 20
19.7129
 30
0.000000
  70
    32
  0
VERTEX
  8
VISIBLE_NARROW__ISO_
  5
316
 10
7.74611
 20
19.7099
 30
0.000000
  70
    32
  0
VERTEX
  8
VISIBLE_NARROW__ISO_
  5
317
 10
7.74331
 20
19.7069
 30
0.000000
  70
    32
  0
VERTEX
  8
VISIBLE_NARROW__ISO_
  5
318
 10
7.74052
 20
19.7039
 30
0.000000
  70
    32
  0
VERTEX
  8
VISIBLE_NARROW__ISO_
  5
319
 10
7.73774
 20
19.7009
 30
0.000000
  70
    32
  0
VERTEX
  8
VISIBLE_NARROW__ISO_
  5
31A
 10
7.73496
 20
19.6978
 30
0.000000
  70
    32
  0
VERTEX
  8
VISIBLE_NARROW__ISO_
  5
31B
 10
7.73220
 20
19.6948
 30
0.000000
  70
    32
  0
VERTEX
  8
VISIBLE_NARROW__ISO_
  5
31C
 10
7.72945
 20
19.6918
 30
0.000000
  70
    32
  0
VERTEX
  8
VISIBLE_NARROW__ISO_
  5
31D
 10
7.72670
 20
19.6887
 30
0.000000
  70
    32
  0
VERTEX
  8
VISIBLE_NARROW__ISO_
  5
31E
 10
7.72397
 20
19.6857
 30
0.000000
  70
    32
  0
VERTEX
  8
VISIBLE_NARROW__ISO_
  5
31F
 10
7.72124
 20
19.6826
 30
0.000000
  70
    32
  0
VERTEX
  8
VISIBLE_NARROW__ISO_
  5
320
 10
7.71853
 20
19.6795
 30
0.000000
  70
    32
  0
VERTEX
  8
VISIBLE_NARROW__ISO_
  5
321
 10
7.71582
 20
19.6765
 30
0.000000
  70
    32
  0
VERTEX
  8
VISIBLE_NARROW__ISO_
  5
322
 10
7.71312
 20
19.6734
 30
0.000000
  70
    32
  0
VERTEX
  8
VISIBLE_NARROW__ISO_
  5
323
 10
7.71044
 20
19.6703
 30
0.000000
  70
    32
  0
VERTEX
  8
VISIBLE_NARROW__ISO_
  5
324
 10
7.70776
 20
19.6672
 30
0.000000
  70
    32
  0
VERTEX
  8
VISIBLE_NARROW__ISO_
  5
325
 10
7.70509
 20
19.6640
 30
0.000000
  70
    32
  0
VERTEX
  8
VISIBLE_NARROW__ISO_
  5
326
 10
7.70243
 20
19.6609
 30
0.000000
  70
    32
  0
VERTEX
  8
VISIBLE_NARROW__ISO_
  5
327
 10
7.69978
 20
19.6578
 30
0.000000
  70
    32
  0
VERTEX
  8
VISIBLE_NARROW__ISO_
  5
328
 10
7.69714
 20
19.6547
 30
0.000000
  70
    32
  0
VERTEX
  8
VISIBLE_NARROW__ISO_
  5
329
 10
7.69451
 20
19.6515
 30
0.000000
  70
    32
  0
VERTEX
  8
VISIBLE_NARROW__ISO_
  5
32A
 10
7.69189
 20
19.6484
 30
0.000000
  70
    32
  0
VERTEX
  8
VISIBLE_NARROW__ISO_
  5
32B
 10
7.68928
 20
19.6452
 30
0.000000
  70
    32
  0
VERTEX
  8
VISIBLE_NARROW__ISO_
  5
32C
 10
7.68668
 20
19.6420
 30
0.000000
  70
    32
  0
VERTEX
  8
VISIBLE_NARROW__ISO_
  5
32D
 10
7.68409
 20
19.6388
 30
0.000000
  70
    32
  0
VERTEX
  8
VISIBLE_NARROW__ISO_
  5
32E
 10
7.68151
 20
19.6357
 30
0.000000
  70
    32
  0
VERTEX
  8
VISIBLE_NARROW__ISO_
  5
32F
 10
7.67893
 20
19.6325
 30
0.000000
  70
    32
  0
VERTEX
  8
VISIBLE_NARROW__ISO_
  5
330
 10
7.67637
 20
19.6293
 30
0.000000
  70
    32
  0
VERTEX
  8
VISIBLE_NARROW__ISO_
  5
331
 10
7.67382
 20
19.6260
 30
0.000000
  70
    32
  0
VERTEX
  8
VISIBLE_NARROW__ISO_
  5
332
 10
7.67128
 20
19.6228
 30
0.000000
  70
    32
  0
VERTEX
  8
VISIBLE_NARROW__ISO_
  5
333
 10
7.66875
 20
19.6196
 30
0.000000
  70
    32
  0
VERTEX
  8
VISIBLE_NARROW__ISO_
  5
334
 10
7.66622
 20
19.6164
 30
0.000000
  70
    32
  0
VERTEX
  8
VISIBLE_NARROW__ISO_
  5
335
 10
7.66371
 20
19.6131
 30
0.000000
  70
    32
  0
VERTEX
  8
VISIBLE_NARROW__ISO_
  5
336
 10
7.66121
 20
19.6099
 30
0.000000
  70
    32
  0
VERTEX
  8
VISIBLE_NARROW__ISO_
  5
337
 10
7.65872
 20
19.6066
 30
0.000000
  70
    32
  0
VERTEX
  8
VISIBLE_NARROW__ISO_
  5
338
 10
7.65624
 20
19.6034
 30
0.000000
  70
    32
  0
VERTEX
  8
VISIBLE_NARROW__ISO_
  5
339
 10
7.65376
 20
19.6001
 30
0.000000
  70
    32
  0
VERTEX
  8
VISIBLE_NARROW__ISO_
  5
33A
 10
7.65130
 20
19.5968
 30
0.000000
  70
    32
  0
VERTEX
  8
VISIBLE_NARROW__ISO_
  5
33B
 10
7.64885
 20
19.5935
 30
0.000000
  70
    32
  0
VERTEX
  8
VISIBLE_NARROW__ISO_
  5
33C
 10
7.64641
 20
19.5902
 30
0.000000
  70
    32
  0
VERTEX
  8
VISIBLE_NARROW__ISO_
  5
33D
 10
7.64398
 20
19.5869
 30
0.000000
  70
    32
  0
VERTEX
  8
VISIBLE_NARROW__ISO_
  5
33E
 10
7.64155
 20
19.5836
 30
0.000000
  70
    32
  0
VERTEX
  8
VISIBLE_NARROW__ISO_
  5
33F
 10
7.63914
 20
19.5803
 30
0.000000
  70
    32
  0
VERTEX
  8
VISIBLE_NARROW__ISO_
  5
340
 10
7.63674
 20
19.5770
 30
0.000000
  70
    32
  0
VERTEX
  8
VISIBLE_NARROW__ISO_
  5
341
 10
7.63435
 20
19.5736
 30
0.000000
  70
    32
  0
VERTEX
  8
VISIBLE_NARROW__ISO_
  5
342
 10
7.63197
 20
19.5703
 30
0.000000
  70
    32
  0
VERTEX
  8
VISIBLE_NARROW__ISO_
  5
343
 10
7.62960
 20
19.5670
 30
0.000000
  70
    32
  0
VERTEX
  8
VISIBLE_NARROW__ISO_
  5
344
 10
7.62724
 20
19.5636
 30
0.000000
  70
    32
  0
VERTEX
  8
VISIBLE_NARROW__ISO_
  5
345
 10
7.62489
 20
19.5602
 30
0.000000
  70
    32
  0
VERTEX
  8
VISIBLE_NARROW__ISO_
  5
346
 10
7.62255
 20
19.5569
 30
0.000000
  70
    32
  0
VERTEX
  8
VISIBLE_NARROW__ISO_
  5
347
 10
7.62022
 20
19.5535
 30
0.000000
  70
    32
  0
VERTEX
  8
VISIBLE_NARROW__ISO_
  5
348
 10
7.61791
 20
19.5501
 30
0.000000
  70
    32
  0
VERTEX
  8
VISIBLE_NARROW__ISO_
  5
349
 10
7.61560
 20
19.5467
 30
0.000000
  70
    32
  0
VERTEX
  8
VISIBLE_NARROW__ISO_
  5
34A
 10
7.61330
 20
19.5433
 30
0.000000
  70
    32
  0
VERTEX
  8
VISIBLE_NARROW__ISO_
  5
34B
 10
7.61101
 20
19.5399
 30
0.000000
  70
    32
  0
VERTEX
  8
VISIBLE_NARROW__ISO_
  5
34C
 10
7.60874
 20
19.5365
 30
0.000000
  70
    32
  0
VERTEX
  8
VISIBLE_NARROW__ISO_
  5
34D
 10
7.60647
 20
19.5331
 30
0.000000
  70
    32
  0
VERTEX
  8
VISIBLE_NARROW__ISO_
  5
34E
 10
7.60422
 20
19.5297
 30
0.000000
  70
    32
  0
VERTEX
  8
VISIBLE_NARROW__ISO_
  5
34F
 10
7.60197
 20
19.5262
 30
0.000000
  70
    32
  0
VERTEX
  8
VISIBLE_NARROW__ISO_
  5
350
 10
7.59974
 20
19.5228
 30
0.000000
  70
    32
  0
VERTEX
  8
VISIBLE_NARROW__ISO_
  5
351
 10
7.59752
 20
19.5193
 30
0.000000
  70
    32
  0
VERTEX
  8
VISIBLE_NARROW__ISO_
  5
352
 10
7.59530
 20
19.5159
 30
0.000000
  70
    32
  0
VERTEX
  8
VISIBLE_NARROW__ISO_
  5
353
 10
7.59310
 20
19.5124
 30
0.000000
  70
    32
  0
VERTEX
  8
VISIBLE_NARROW__ISO_
  5
354
 10
7.59091
 20
19.5090
 30
0.000000
  70
    32
  0
VERTEX
  8
VISIBLE_NARROW__ISO_
  5
355
 10
7.58873
 20
19.5055
 30
0.000000
  70
    32
  0
VERTEX
  8
VISIBLE_NARROW__ISO_
  5
356
 10
7.58656
 20
19.5020
 30
0.000000
  70
    32
  0
VERTEX
  8
VISIBLE_NARROW__ISO_
  5
357
 10
7.58440
 20
19.4985
 30
0.000000
  70
    32
  0
VERTEX
  8
VISIBLE_NARROW__ISO_
  5
358
 10
7.58226
 20
19.4950
 30
0.000000
  70
    32
  0
VERTEX
  8
VISIBLE_NARROW__ISO_
  5
359
 10
7.58012
 20
19.4915
 30
0.000000
  70
    32
  0
VERTEX
  8
VISIBLE_NARROW__ISO_
  5
35A
 10
7.57799
 20
19.4880
 30
0.000000
  70
    32
  0
VERTEX
  8
VISIBLE_NARROW__ISO_
  5
35B
 10
7.57588
 20
19.4845
 30
0.000000
  70
    32
  0
VERTEX
  8
VISIBLE_NARROW__ISO_
  5
35C
 10
7.57377
 20
19.4810
 30
0.000000
  70
    32
  0
VERTEX
  8
VISIBLE_NARROW__ISO_
  5
35D
 10
7.57168
 20
19.4775
 30
0.000000
  70
    32
  0
VERTEX
  8
VISIBLE_NARROW__ISO_
  5
35E
 10
7.56959
 20
19.4739
 30
0.000000
  70
    32
  0
VERTEX
  8
VISIBLE_NARROW__ISO_
  5
35F
 10
7.56752
 20
19.4704
 30
0.000000
  70
    32
  0
VERTEX
  8
VISIBLE_NARROW__ISO_
  5
360
 10
7.56546
 20
19.4668
 30
0.000000
  70
    32
  0
VERTEX
  8
VISIBLE_NARROW__ISO_
  5
361
 10
7.56341
 20
19.4633
 30
0.000000
  70
    32
  0
VERTEX
  8
VISIBLE_NARROW__ISO_
  5
362
 10
7.56137
 20
19.4597
 30
0.000000
  70
    32
  0
VERTEX
  8
VISIBLE_NARROW__ISO_
  5
363
 10
7.55934
 20
19.4562
 30
0.000000
  70
    32
  0
VERTEX
  8
VISIBLE_NARROW__ISO_
  5
364
 10
7.55733
 20
19.4526
 30
0.000000
  70
    32
  0
VERTEX
  8
VISIBLE_NARROW__ISO_
  5
365
 10
7.55532
 20
19.4490
 30
0.000000
  70
    32
  0
VERTEX
  8
VISIBLE_NARROW__ISO_
  5
366
 10
7.55332
 20
19.4454
 30
0.000000
  70
    32
  0
VERTEX
  8
VISIBLE_NARROW__ISO_
  5
367
 10
7.55134
 20
19.4419
 30
0.000000
  70
    32
  0
VERTEX
  8
VISIBLE_NARROW__ISO_
  5
368
 10
7.54937
 20
19.4383
 30
0.000000
  70
    32
  0
VERTEX
  8
VISIBLE_NARROW__ISO_
  5
369
 10
7.54740
 20
19.4347
 30
0.000000
  70
    32
  0
VERTEX
  8
VISIBLE_NARROW__ISO_
  5
36A
 10
7.54545
 20
19.4311
 30
0.000000
  70
    32
  0
VERTEX
  8
VISIBLE_NARROW__ISO_
  5
36B
 10
7.54351
 20
19.4274
 30
0.000000
  70
    32
  0
VERTEX
  8
VISIBLE_NARROW__ISO_
  5
36C
 10
7.54158
 20
19.4238
 30
0.000000
  70
    32
  0
VERTEX
  8
VISIBLE_NARROW__ISO_
  5
36D
 10
7.53967
 20
19.4202
 30
0.000000
  70
    32
  0
VERTEX
  8
VISIBLE_NARROW__ISO_
  5
36E
 10
7.53776
 20
19.4166
 30
0.000000
  70
    32
  0
VERTEX
  8
VISIBLE_NARROW__ISO_
  5
36F
 10
7.53586
 20
19.4129
 30
0.000000
  70
    32
  0
VERTEX
  8
VISIBLE_NARROW__ISO_
  5
370
 10
7.53398
 20
19.4093
 30
0.000000
  70
    32
  0
VERTEX
  8
VISIBLE_NARROW__ISO_
  5
371
 10
7.53210
 20
19.4056
 30
0.000000
  70
    32
  0
VERTEX
  8
VISIBLE_NARROW__ISO_
  5
372
 10
7.53024
 20
19.4020
 30
0.000000
  70
    32
  0
VERTEX
  8
VISIBLE_NARROW__ISO_
  5
373
 10
7.52839
 20
19.3983
 30
0.000000
  70
    32
  0
VERTEX
  8
VISIBLE_NARROW__ISO_
  5
374
 10
7.52655
 20
19.3947
 30
0.000000
  70
    32
  0
VERTEX
  8
VISIBLE_NARROW__ISO_
  5
375
 10
7.52472
 20
19.3910
 30
0.000000
  70
    32
  0
VERTEX
  8
VISIBLE_NARROW__ISO_
  5
376
 10
7.52291
 20
19.3873
 30
0.000000
  70
    32
  0
VERTEX
  8
VISIBLE_NARROW__ISO_
  5
377
 10
7.52110
 20
19.3836
 30
0.000000
  70
    32
  0
VERTEX
  8
VISIBLE_NARROW__ISO_
  5
378
 10
7.51931
 20
19.3799
 30
0.000000
  70
    32
  0
VERTEX
  8
VISIBLE_NARROW__ISO_
  5
379
 10
7.51752
 20
19.3763
 30
0.000000
  70
    32
  0
VERTEX
  8
VISIBLE_NARROW__ISO_
  5
37A
 10
7.51575
 20
19.3726
 30
0.000000
  70
    32
  0
VERTEX
  8
VISIBLE_NARROW__ISO_
  5
37B
 10
7.51399
 20
19.3689
 30
0.000000
  70
    32
  0
VERTEX
  8
VISIBLE_NARROW__ISO_
  5
37C
 10
7.51224
 20
19.3651
 30
0.000000
  70
    32
  0
VERTEX
  8
VISIBLE_NARROW__ISO_
  5
37D
 10
7.51050
 20
19.3614
 30
0.000000
  70
    32
  0
VERTEX
  8
VISIBLE_NARROW__ISO_
  5
37E
 10
7.50878
 20
19.3577
 30
0.000000
  70
    32
  0
VERTEX
  8
VISIBLE_NARROW__ISO_
  5
37F
 10
7.50706
 20
19.3540
 30
0.000000
  70
    32
  0
VERTEX
  8
VISIBLE_NARROW__ISO_
  5
380
 10
7.50536
 20
19.3503
 30
0.000000
  70
    32
  0
VERTEX
  8
VISIBLE_NARROW__ISO_
  5
381
 10
7.50367
 20
19.3465
 30
0.000000
  70
    32
  0
VERTEX
  8
VISIBLE_NARROW__ISO_
  5
382
 10
7.50199
 20
19.3428
 30
0.000000
  70
    32
  0
VERTEX
  8
VISIBLE_NARROW__ISO_
  5
383
 10
7.50032
 20
19.3390
 30
0.000000
  70
    32
  0
VERTEX
  8
VISIBLE_NARROW__ISO_
  5
384
 10
7.49866
 20
19.3353
 30
0.000000
  70
    32
  0
VERTEX
  8
VISIBLE_NARROW__ISO_
  5
385
 10
7.49701
 20
19.3315
 30
0.000000
  70
    32
  0
VERTEX
  8
VISIBLE_NARROW__ISO_
  5
386
 10
7.49538
 20
19.3278
 30
0.000000
  70
    32
  0
VERTEX
  8
VISIBLE_NARROW__ISO_
  5
387
 10
7.49376
 20
19.3240
 30
0.000000
  70
    32
  0
VERTEX
  8
VISIBLE_NARROW__ISO_
  5
388
 10
7.49214
 20
19.3202
 30
0.000000
  70
    32
  0
VERTEX
  8
VISIBLE_NARROW__ISO_
  5
389
 10
7.49054
 20
19.3165
 30
0.000000
  70
    32
  0
VERTEX
  8
VISIBLE_NARROW__ISO_
  5
38A
 10
7.48896
 20
19.3127
 30
0.000000
  70
    32
  0
VERTEX
  8
VISIBLE_NARROW__ISO_
  5
38B
 10
7.48738
 20
19.3089
 30
0.000000
  70
    32
  0
VERTEX
  8
VISIBLE_NARROW__ISO_
  5
38C
 10
7.48581
 20
19.3051
 30
0.000000
  70
    32
  0
VERTEX
  8
VISIBLE_NARROW__ISO_
  5
38D
 10
7.48426
 20
19.3013
 30
0.000000
  70
    32
  0
VERTEX
  8
VISIBLE_NARROW__ISO_
  5
38E
 10
7.48272
 20
19.2975
 30
0.000000
  70
    32
  0
VERTEX
  8
VISIBLE_NARROW__ISO_
  5
38F
 10
7.48119
 20
19.2937
 30
0.000000
  70
    32
  0
VERTEX
  8
VISIBLE_NARROW__ISO_
  5
390
 10
7.47967
 20
19.2899
 30
0.000000
  70
    32
  0
VERTEX
  8
VISIBLE_NARROW__ISO_
  5
391
 10
7.47816
 20
19.2861
 30
0.000000
  70
    32
  0
VERTEX
  8
VISIBLE_NARROW__ISO_
  5
392
 10
7.47667
 20
19.2823
 30
0.000000
  70
    32
  0
VERTEX
  8
VISIBLE_NARROW__ISO_
  5
393
 10
7.47519
 20
19.2784
 30
0.000000
  70
    32
  0
VERTEX
  8
VISIBLE_NARROW__ISO_
  5
394
 10
7.47371
 20
19.2746
 30
0.000000
  70
    32
  0
VERTEX
  8
VISIBLE_NARROW__ISO_
  5
395
 10
7.47226
 20
19.2708
 30
0.000000
  70
    32
  0
VERTEX
  8
VISIBLE_NARROW__ISO_
  5
396
 10
7.47081
 20
19.2669
 30
0.000000
  70
    32
  0
VERTEX
  8
VISIBLE_NARROW__ISO_
  5
397
 10
7.46937
 20
19.2631
 30
0.000000
  70
    32
  0
VERTEX
  8
VISIBLE_NARROW__ISO_
  5
398
 10
7.46795
 20
19.2593
 30
0.000000
  70
    32
  0
VERTEX
  8
VISIBLE_NARROW__ISO_
  5
399
 10
7.46654
 20
19.2554
 30
0.000000
  70
    32
  0
VERTEX
  8
VISIBLE_NARROW__ISO_
  5
39A
 10
7.46513
 20
19.2516
 30
0.000000
  70
    32
  0
VERTEX
  8
VISIBLE_NARROW__ISO_
  5
39B
 10
7.46375
 20
19.2477
 30
0.000000
  70
    32
  0
VERTEX
  8
VISIBLE_NARROW__ISO_
  5
39C
 10
7.46237
 20
19.2438
 30
0.000000
  70
    32
  0
VERTEX
  8
VISIBLE_NARROW__ISO_
  5
39D
 10
7.46101
 20
19.2400
 30
0.000000
  70
    32
  0
VERTEX
  8
VISIBLE_NARROW__ISO_
  5
39E
 10
7.45965
 20
19.2361
 30
0.000000
  70
    32
  0
VERTEX
  8
VISIBLE_NARROW__ISO_
  5
39F
 10
7.45831
 20
19.2322
 30
0.000000
  70
    32
  0
VERTEX
  8
VISIBLE_NARROW__ISO_
  5
3A0
 10
7.45698
 20
19.2283
 30
0.000000
  70
    32
  0
VERTEX
  8
VISIBLE_NARROW__ISO_
  5
3A1
 10
7.45567
 20
19.2245
 30
0.000000
  70
    32
  0
VERTEX
  8
VISIBLE_NARROW__ISO_
  5
3A2
 10
7.45436
 20
19.2206
 30
0.000000
  70
    32
  0
VERTEX
  8
VISIBLE_NARROW__ISO_
  5
3A3
 10
7.45307
 20
19.2167
 30
0.000000
  70
    32
  0
VERTEX
  8
VISIBLE_NARROW__ISO_
  5
3A4
 10
7.45179
 20
19.2128
 30
0.000000
  70
    32
  0
VERTEX
  8
VISIBLE_NARROW__ISO_
  5
3A5
 10
7.45052
 20
19.2089
 30
0.000000
  70
    32
  0
VERTEX
  8
VISIBLE_NARROW__ISO_
  5
3A6
 10
7.44926
 20
19.2050
 30
0.000000
  70
    32
  0
VERTEX
  8
VISIBLE_NARROW__ISO_
  5
3A7
 10
7.44802
 20
19.2011
 30
0.000000
  70
    32
  0
VERTEX
  8
VISIBLE_NARROW__ISO_
  5
3A8
 10
7.44679
 20
19.1972
 30
0.000000
  70
    32
  0
VERTEX
  8
VISIBLE_NARROW__ISO_
  5
3A9
 10
7.44556
 20
19.1932
 30
0.000000
  70
    32
  0
VERTEX
  8
VISIBLE_NARROW__ISO_
  5
3AA
 10
7.44436
 20
19.1893
 30
0.000000
  70
    32
  0
VERTEX
  8
VISIBLE_NARROW__ISO_
  5
3AB
 10
7.44316
 20
19.1854
 30
0.000000
  70
    32
  0
VERTEX
  8
VISIBLE_NARROW__ISO_
  5
3AC
 10
7.44198
 20
19.1815
 30
0.000000
  70
    32
  0
VERTEX
  8
VISIBLE_NARROW__ISO_
  5
3AD
 10
7.44080
 20
19.1776
 30
0.000000
  70
    32
  0
VERTEX
  8
VISIBLE_NARROW__ISO_
  5
3AE
 10
7.43964
 20
19.1736
 30
0.000000
  70
    32
  0
VERTEX
  8
VISIBLE_NARROW__ISO_
  5
3AF
 10
7.43850
 20
19.1697
 30
0.000000
  70
    32
  0
VERTEX
  8
VISIBLE_NARROW__ISO_
  5
3B0
 10
7.43736
 20
19.1657
 30
0.000000
  70
    32
  0
VERTEX
  8
VISIBLE_NARROW__ISO_
  5
3B1
 10
7.43624
 20
19.1618
 30
0.000000
  70
    32
  0
VERTEX
  8
VISIBLE_NARROW__ISO_
  5
3B2
 10
7.43513
 20
19.1579
 30
0.000000
  70
    32
  0
VERTEX
  8
VISIBLE_NARROW__ISO_
  5
3B3
 10
7.43403
 20
19.1539
 30
0.000000
  70
    32
  0
VERTEX
  8
VISIBLE_NARROW__ISO_
  5
3B4
 10
7.43294
 20
19.1499
 30
0.000000
  70
    32
  0
VERTEX
  8
VISIBLE_NARROW__ISO_
  5
3B5
 10
7.43187
 20
19.1460
 30
0.000000
  70
    32
  0
VERTEX
  8
VISIBLE_NARROW__ISO_
  5
3B6
 10
7.43080
 20
19.1420
 30
0.000000
  70
    32
  0
VERTEX
  8
VISIBLE_NARROW__ISO_
  5
3B7
 10
7.42975
 20
19.1381
 30
0.000000
  70
    32
  0
VERTEX
  8
VISIBLE_NARROW__ISO_
  5
3B8
 10
7.42872
 20
19.1341
 30
0.000000
  70
    32
  0
VERTEX
  8
VISIBLE_NARROW__ISO_
  5
3B9
 10
7.42769
 20
19.1301
 30
0.000000
  70
    32
  0
VERTEX
  8
VISIBLE_NARROW__ISO_
  5
3BA
 10
7.42668
 20
19.1262
 30
0.000000
  70
    32
  0
VERTEX
  8
VISIBLE_NARROW__ISO_
  5
3BB
 10
7.42567
 20
19.1222
 30
0.000000
  70
    32
  0
VERTEX
  8
VISIBLE_NARROW__ISO_
  5
3BC
 10
7.42468
 20
19.1182
 30
0.000000
  70
    32
  0
VERTEX
  8
VISIBLE_NARROW__ISO_
  5
3BD
 10
7.42371
 20
19.1142
 30
0.000000
  70
    32
  0
VERTEX
  8
VISIBLE_NARROW__ISO_
  5
3BE
 10
7.42274
 20
19.1102
 30
0.000000
  70
    32
  0
VERTEX
  8
VISIBLE_NARROW__ISO_
  5
3BF
 10
7.42179
 20
19.1062
 30
0.000000
  70
    32
  0
VERTEX
  8
VISIBLE_NARROW__ISO_
  5
3C0
 10
7.42085
 20
19.1023
 30
0.000000
  70
    32
  0
VERTEX
  8
VISIBLE_NARROW__ISO_
  5
3C1
 10
7.41992
 20
19.0983
 30
0.000000
  70
    32
  0
VERTEX
  8
VISIBLE_NARROW__ISO_
  5
3C2
 10
7.41901
 20
19.0943
 30
0.000000
  70
    32
  0
VERTEX
  8
VISIBLE_NARROW__ISO_
  5
3C3
 10
7.41810
 20
19.0903
 30
0.000000
  70
    32
  0
VERTEX
  8
VISIBLE_NARROW__ISO_
  5
3C4
 10
7.41721
 20
19.0863
 30
0.000000
  70
    32
  0
VERTEX
  8
VISIBLE_NARROW__ISO_
  5
3C5
 10
7.41633
 20
19.0823
 30
0.000000
  70
    32
  0
VERTEX
  8
VISIBLE_NARROW__ISO_
  5
3C6
 10
7.41547
 20
19.0783
 30
0.000000
  70
    32
  0
VERTEX
  8
VISIBLE_NARROW__ISO_
  5
3C7
 10
7.41461
 20
19.0742
 30
0.000000
  70
    32
  0
VERTEX
  8
VISIBLE_NARROW__ISO_
  5
3C8
 10
7.41377
 20
19.0702
 30
0.000000
  70
    32
  0
VERTEX
  8
VISIBLE_NARROW__ISO_
  5
3C9
 10
7.41294
 20
19.0662
 30
0.000000
  70
    32
  0
VERTEX
  8
VISIBLE_NARROW__ISO_
  5
3CA
 10
7.41212
 20
19.0622
 30
0.000000
  70
    32
  0
VERTEX
  8
VISIBLE_NARROW__ISO_
  5
3CB
 10
7.41132
 20
19.0582
 30
0.000000
  70
    32
  0
VERTEX
  8
VISIBLE_NARROW__ISO_
  5
3CC
 10
7.41052
 20
19.0542
 30
0.000000
  70
    32
  0
VERTEX
  8
VISIBLE_NARROW__ISO_
  5
3CD
 10
7.40974
 20
19.0501
 30
0.000000
  70
    32
  0
VERTEX
  8
VISIBLE_NARROW__ISO_
  5
3CE
 10
7.40897
 20
19.0461
 30
0.000000
  70
    32
  0
VERTEX
  8
VISIBLE_NARROW__ISO_
  5
3CF
 10
7.40822
 20
19.0421
 30
0.000000
  70
    32
  0
VERTEX
  8
VISIBLE_NARROW__ISO_
  5
3D0
 10
7.40747
 20
19.0380
 30
0.000000
  70
    32
  0
VERTEX
  8
VISIBLE_NARROW__ISO_
  5
3D1
 10
7.40674
 20
19.0340
 30
0.000000
  70
    32
  0
VERTEX
  8
VISIBLE_NARROW__ISO_
  5
3D2
 10
7.40602
 20
19.0300
 30
0.000000
  70
    32
  0
VERTEX
  8
VISIBLE_NARROW__ISO_
  5
3D3
 10
7.40532
 20
19.0259
 30
0.000000
  70
    32
  0
VERTEX
  8
VISIBLE_NARROW__ISO_
  5
3D4
 10
7.40462
 20
19.0219
 30
0.000000
  70
    32
  0
VERTEX
  8
VISIBLE_NARROW__ISO_
  5
3D5
 10
7.40394
 20
19.0178
 30
0.000000
  70
    32
  0
VERTEX
  8
VISIBLE_NARROW__ISO_
  5
3D6
 10
7.40327
 20
19.0138
 30
0.000000
  70
    32
  0
VERTEX
  8
VISIBLE_NARROW__ISO_
  5
3D7
 10
7.40262
 20
19.0098
 30
0.000000
  70
    32
  0
VERTEX
  8
VISIBLE_NARROW__ISO_
  5
3D8
 10
7.40197
 20
19.0057
 30
0.000000
  70
    32
  0
VERTEX
  8
VISIBLE_NARROW__ISO_
  5
3D9
 10
7.40134
 20
19.0017
 30
0.000000
  70
    32
  0
VERTEX
  8
VISIBLE_NARROW__ISO_
  5
3DA
 10
7.40072
 20
18.9976
 30
0.000000
  70
    32
  0
VERTEX
  8
VISIBLE_NARROW__ISO_
  5
3DB
 10
7.40011
 20
18.9935
 30
0.000000
  70
    32
  0
VERTEX
  8
VISIBLE_NARROW__ISO_
  5
3DC
 10
7.39952
 20
18.9895
 30
0.000000
  70
    32
  0
VERTEX
  8
VISIBLE_NARROW__ISO_
  5
3DD
 10
7.39893
 20
18.9854
 30
0.000000
  70
    32
  0
VERTEX
  8
VISIBLE_NARROW__ISO_
  5
3DE
 10
7.39836
 20
18.9814
 30
0.000000
  70
    32
  0
VERTEX
  8
VISIBLE_NARROW__ISO_
  5
3DF
 10
7.39781
 20
18.9773
 30
0.000000
  70
    32
  0
VERTEX
  8
VISIBLE_NARROW__ISO_
  5
3E0
 10
7.39726
 20
18.9732
 30
0.000000
  70
    32
  0
VERTEX
  8
VISIBLE_NARROW__ISO_
  5
3E1
 10
7.39673
 20
18.9692
 30
0.000000
  70
    32
  0
VERTEX
  8
VISIBLE_NARROW__ISO_
  5
3E2
 10
7.39621
 20
18.9651
 30
0.000000
  70
    32
  0
VERTEX
  8
VISIBLE_NARROW__ISO_
  5
3E3
 10
7.39570
 20
18.9610
 30
0.000000
  70
    32
  0
VERTEX
  8
VISIBLE_NARROW__ISO_
  5
3E4
 10
7.39521
 20
18.9570
 30
0.000000
  70
    32
  0
VERTEX
  8
VISIBLE_NARROW__ISO_
  5
3E5
 10
7.39472
 20
18.9529
 30
0.000000
  70
    32
  0
VERTEX
  8
VISIBLE_NARROW__ISO_
  5
3E6
 10
7.39425
 20
18.9488
 30
0.000000
  70
    32
  0
VERTEX
  8
VISIBLE_NARROW__ISO_
  5
3E7
 10
7.39379
 20
18.9448
 30
0.000000
  70
    32
  0
VERTEX
  8
VISIBLE_NARROW__ISO_
  5
3E8
 10
7.39335
 20
18.9407
 30
0.000000
  70
    32
  0
VERTEX
  8
VISIBLE_NARROW__ISO_
  5
3E9
 10
7.39292
 20
18.9366
 30
0.000000
  70
    32
  0
VERTEX
  8
VISIBLE_NARROW__ISO_
  5
3EA
 10
7.39250
 20
18.9325
 30
0.000000
  70
    32
  0
VERTEX
  8
VISIBLE_NARROW__ISO_
  5
3EB
 10
7.39209
 20
18.9284
 30
0.000000
  70
    32
  0
VERTEX
  8
VISIBLE_NARROW__ISO_
  5
3EC
 10
7.39169
 20
18.9244
 30
0.000000
  70
    32
  0
VERTEX
  8
VISIBLE_NARROW__ISO_
  5
3ED
 10
7.39131
 20
18.9203
 30
0.000000
  70
    32
  0
VERTEX
  8
VISIBLE_NARROW__ISO_
  5
3EE
 10
7.39094
 20
18.9162
 30
0.000000
  70
    32
  0
VERTEX
  8
VISIBLE_NARROW__ISO_
  5
3EF
 10
7.39058
 20
18.9121
 30
0.000000
  70
    32
  0
VERTEX
  8
VISIBLE_NARROW__ISO_
  5
3F0
 10
7.39024
 20
18.9080
 30
0.000000
  70
    32
  0
VERTEX
  8
VISIBLE_NARROW__ISO_
  5
3F1
 10
7.38990
 20
18.9039
 30
0.000000
  70
    32
  0
VERTEX
  8
VISIBLE_NARROW__ISO_
  5
3F2
 10
7.38958
 20
18.8999
 30
0.000000
  70
    32
  0
VERTEX
  8
VISIBLE_NARROW__ISO_
  5
3F3
 10
7.38928
 20
18.8958
 30
0.000000
  70
    32
  0
VERTEX
  8
VISIBLE_NARROW__ISO_
  5
3F4
 10
7.38898
 20
18.8917
 30
0.000000
  70
    32
  0
VERTEX
  8
VISIBLE_NARROW__ISO_
  5
3F5
 10
7.38870
 20
18.8876
 30
0.000000
  70
    32
  0
VERTEX
  8
VISIBLE_NARROW__ISO_
  5
3F6
 10
7.38843
 20
18.8835
 30
0.000000
  70
    32
  0
VERTEX
  8
VISIBLE_NARROW__ISO_
  5
3F7
 10
7.38817
 20
18.8794
 30
0.000000
  70
    32
  0
VERTEX
  8
VISIBLE_NARROW__ISO_
  5
3F8
 10
7.38793
 20
18.8753
 30
0.000000
  70
    32
  0
VERTEX
  8
VISIBLE_NARROW__ISO_
  5
3F9
 10
7.38770
 20
18.8712
 30
0.000000
  70
    32
  0
VERTEX
  8
VISIBLE_NARROW__ISO_
  5
3FA
 10
7.38748
 20
18.8671
 30
0.000000
  70
    32
  0
VERTEX
  8
VISIBLE_NARROW__ISO_
  5
3FB
 10
7.38727
 20
18.8630
 30
0.000000
  70
    32
  0
VERTEX
  8
VISIBLE_NARROW__ISO_
  5
3FC
 10
7.38708
 20
18.8589
 30
0.000000
  70
    32
  0
VERTEX
  8
VISIBLE_NARROW__ISO_
  5
3FD
 10
7.38690
 20
18.8548
 30
0.000000
  70
    32
  0
VERTEX
  8
VISIBLE_NARROW__ISO_
  5
3FE
 10
7.38673
 20
18.8507
 30
0.000000
  70
    32
  0
VERTEX
  8
VISIBLE_NARROW__ISO_
  5
3FF
 10
7.38657
 20
18.8466
 30
0.000000
  70
    32
  0
VERTEX
  8
VISIBLE_NARROW__ISO_
  5
400
 10
7.38643
 20
18.8426
 30
0.000000
  70
    32
  0
VERTEX
  8
VISIBLE_NARROW__ISO_
  5
401
 10
7.38630
 20
18.8385
 30
0.000000
  70
    32
  0
VERTEX
  8
VISIBLE_NARROW__ISO_
  5
402
 10
7.38618
 20
18.8344
 30
0.000000
  70
    32
  0
VERTEX
  8
VISIBLE_NARROW__ISO_
  5
403
 10
7.38607
 20
18.8303
 30
0.000000
  70
    32
  0
VERTEX
  8
VISIBLE_NARROW__ISO_
  5
404
 10
7.38598
 20
18.8262
 30
0.000000
  70
    32
  0
VERTEX
  8
VISIBLE_NARROW__ISO_
  5
405
 10
7.38590
 20
18.8221
 30
0.000000
  70
    32
  0
VERTEX
  8
VISIBLE_NARROW__ISO_
  5
406
 10
7.38583
 20
18.8180
 30
0.000000
  70
    32
  0
VERTEX
  8
VISIBLE_NARROW__ISO_
  5
407
 10
7.38578
 20
18.8139
 30
0.000000
  70
    32
  0
VERTEX
  8
VISIBLE_NARROW__ISO_
  5
408
 10
7.38573
 20
18.8098
 30
0.000000
  70
    32
  0
VERTEX
  8
VISIBLE_NARROW__ISO_
  5
409
 10
7.38570
 20
18.8057
 30
0.000000
  70
    32
  0
VERTEX
  8
VISIBLE_NARROW__ISO_
  5
40A
 10
7.38569
 20
18.8016
 30
0.000000
  70
    32
  0
VERTEX
  8
VISIBLE_NARROW__ISO_
  5
40B
 10
7.38568
 20
18.7975
 30
0.000000
  70
    32
  0
SEQEND
  8
VISIBLE_NARROW__ISO_
  5
40C
  0
LINE
  5
9C
  8
VISIBLE_NARROW__ISO_
 10
7.3856809130144683
 20
3.843445162943552
 30
0.0
 11
7.3856809130144683
 21
18.7976299168980603
 31
0.0
  0
LINE
  5
9D
  8
VISIBLE_NARROW__ISO_
 10
36.0741132858403688
 20
2.5098786248335472
 30
0.0
 11
8.7192474758132192
 21
2.5098786001446882
 31
0.0
  0
ARC
  5
9F
  8
VISIBLE__ISO_
 10
26.3731405248501396
 20
21.1630572249601911
 30
0.0
 40
0.7500000000000009
 50
270.0
 51
90.0
  0
LINE
  5
A1
  8
VISIBLE_NARROW__ISO_
 10
8.7194118583480957
 20
20.1311964550081193
 30
0.0
 11
36.0742776683752382
 21
20.1311964796968716
 31
0.0
  0
POLYLINE
  8
VISIBLE_NARROW__ISO_
  5
40D
  66
     1
 10
0.000000
 20
0.000000
 30
0.000000
  70
     8
  0
VERTEX
  8
VISIBLE_NARROW__ISO_
  5
40E
 10
37.4078
 20
18.7975
 30
0.000000
  70
    32
  0
VERTEX
  8
VISIBLE_NARROW__ISO_
  5
40F
 10
37.4078
 20
18.8016
 30
0.000000
  70
    32
  0
VERTEX
  8
VISIBLE_NARROW__ISO_
  5
410
 10
37.4078
 20
18.8057
 30
0.000000
  70
    32
  0
VERTEX
  8
VISIBLE_NARROW__ISO_
  5
411
 10
37.4078
 20
18.8098
 30
0.000000
  70
    32
  0
VERTEX
  8
VISIBLE_NARROW__ISO_
  5
412
 10
37.4077
 20
18.8139
 30
0.000000
  70
    32
  0
VERTEX
  8
VISIBLE_NARROW__ISO_
  5
413
 10
37.4077
 20
18.8180
 30
0.000000
  70
    32
  0
VERTEX
  8
VISIBLE_NARROW__ISO_
  5
414
 10
37.4076
 20
18.8221
 30
0.000000
  70
    32
  0
VERTEX
  8
VISIBLE_NARROW__ISO_
  5
415
 10
37.4075
 20
18.8262
 30
0.000000
  70
    32
  0
VERTEX
  8
VISIBLE_NARROW__ISO_
  5
416
 10
37.4075
 20
18.8303
 30
0.000000
  70
    32
  0
VERTEX
  8
VISIBLE_NARROW__ISO_
  5
417
 10
37.4073
 20
18.8344
 30
0.000000
  70
    32
  0
VERTEX
  8
VISIBLE_NARROW__ISO_
  5
418
 10
37.4072
 20
18.8385
 30
0.000000
  70
    32
  0
VERTEX
  8
VISIBLE_NARROW__ISO_
  5
419
 10
37.4071
 20
18.8426
 30
0.000000
  70
    32
  0
VERTEX
  8
VISIBLE_NARROW__ISO_
  5
41A
 10
37.4070
 20
18.8466
 30
0.000000
  70
    32
  0
VERTEX
  8
VISIBLE_NARROW__ISO_
  5
41B
 10
37.4068
 20
18.8507
 30
0.000000
  70
    32
  0
VERTEX
  8
VISIBLE_NARROW__ISO_
  5
41C
 10
37.4066
 20
18.8548
 30
0.000000
  70
    32
  0
VERTEX
  8
VISIBLE_NARROW__ISO_
  5
41D
 10
37.4064
 20
18.8589
 30
0.000000
  70
    32
  0
VERTEX
  8
VISIBLE_NARROW__ISO_
  5
41E
 10
37.4063
 20
18.8630
 30
0.000000
  70
    32
  0
VERTEX
  8
VISIBLE_NARROW__ISO_
  5
41F
 10
37.4060
 20
18.8671
 30
0.000000
  70
    32
  0
VERTEX
  8
VISIBLE_NARROW__ISO_
  5
420
 10
37.4058
 20
18.8712
 30
0.000000
  70
    32
  0
VERTEX
  8
VISIBLE_NARROW__ISO_
  5
421
 10
37.4056
 20
18.8753
 30
0.000000
  70
    32
  0
VERTEX
  8
VISIBLE_NARROW__ISO_
  5
422
 10
37.4054
 20
18.8794
 30
0.000000
  70
    32
  0
VERTEX
  8
VISIBLE_NARROW__ISO_
  5
423
 10
37.4051
 20
18.8835
 30
0.000000
  70
    32
  0
VERTEX
  8
VISIBLE_NARROW__ISO_
  5
424
 10
37.4048
 20
18.8876
 30
0.000000
  70
    32
  0
VERTEX
  8
VISIBLE_NARROW__ISO_
  5
425
 10
37.4045
 20
18.8917
 30
0.000000
  70
    32
  0
VERTEX
  8
VISIBLE_NARROW__ISO_
  5
426
 10
37.4042
 20
18.8958
 30
0.000000
  70
    32
  0
VERTEX
  8
VISIBLE_NARROW__ISO_
  5
427
 10
37.4039
 20
18.8999
 30
0.000000
  70
    32
  0
VERTEX
  8
VISIBLE_NARROW__ISO_
  5
428
 10
37.4036
 20
18.9039
 30
0.000000
  70
    32
  0
VERTEX
  8
VISIBLE_NARROW__ISO_
  5
429
 10
37.4033
 20
18.9080
 30
0.000000
  70
    32
  0
VERTEX
  8
VISIBLE_NARROW__ISO_
  5
42A
 10
37.4029
 20
18.9121
 30
0.000000
  70
    32
  0
VERTEX
  8
VISIBLE_NARROW__ISO_
  5
42B
 10
37.4026
 20
18.9162
 30
0.000000
  70
    32
  0
VERTEX
  8
VISIBLE_NARROW__ISO_
  5
42C
 10
37.4022
 20
18.9203
 30
0.000000
  70
    32
  0
VERTEX
  8
VISIBLE_NARROW__ISO_
  5
42D
 10
37.4018
 20
18.9244
 30
0.000000
  70
    32
  0
VERTEX
  8
VISIBLE_NARROW__ISO_
  5
42E
 10
37.4014
 20
18.9284
 30
0.000000
  70
    32
  0
VERTEX
  8
VISIBLE_NARROW__ISO_
  5
42F
 10
37.4010
 20
18.9325
 30
0.000000
  70
    32
  0
VERTEX
  8
VISIBLE_NARROW__ISO_
  5
430
 10
37.4006
 20
18.9366
 30
0.000000
  70
    32
  0
VERTEX
  8
VISIBLE_NARROW__ISO_
  5
431
 10
37.4002
 20
18.9407
 30
0.000000
  70
    32
  0
VERTEX
  8
VISIBLE_NARROW__ISO_
  5
432
 10
37.3997
 20
18.9448
 30
0.000000
  70
    32
  0
VERTEX
  8
VISIBLE_NARROW__ISO_
  5
433
 10
37.3993
 20
18.9488
 30
0.000000
  70
    32
  0
VERTEX
  8
VISIBLE_NARROW__ISO_
  5
434
 10
37.3988
 20
18.9529
 30
0.000000
  70
    32
  0
VERTEX
  8
VISIBLE_NARROW__ISO_
  5
435
 10
37.3983
 20
18.9570
 30
0.000000
  70
    32
  0
VERTEX
  8
VISIBLE_NARROW__ISO_
  5
436
 10
37.3978
 20
18.9610
 30
0.000000
  70
    32
  0
VERTEX
  8
VISIBLE_NARROW__ISO_
  5
437
 10
37.3973
 20
18.9651
 30
0.000000
  70
    32
  0
VERTEX
  8
VISIBLE_NARROW__ISO_
  5
438
 10
37.3968
 20
18.9692
 30
0.000000
  70
    32
  0
VERTEX
  8
VISIBLE_NARROW__ISO_
  5
439
 10
37.3963
 20
18.9732
 30
0.000000
  70
    32
  0
VERTEX
  8
VISIBLE_NARROW__ISO_
  5
43A
 10
37.3957
 20
18.9773
 30
0.000000
  70
    32
  0
VERTEX
  8
VISIBLE_NARROW__ISO_
  5
43B
 10
37.3952
 20
18.9814
 30
0.000000
  70
    32
  0
VERTEX
  8
VISIBLE_NARROW__ISO_
  5
43C
 10
37.3946
 20
18.9854
 30
0.000000
  70
    32
  0
VERTEX
  8
VISIBLE_NARROW__ISO_
  5
43D
 10
37.3940
 20
18.9895
 30
0.000000
  70
    32
  0
VERTEX
  8
VISIBLE_NARROW__ISO_
  5
43E
 10
37.3934
 20
18.9935
 30
0.000000
  70
    32
  0
VERTEX
  8
VISIBLE_NARROW__ISO_
  5
43F
 10
37.3928
 20
18.9976
 30
0.000000
  70
    32
  0
VERTEX
  8
VISIBLE_NARROW__ISO_
  5
440
 10
37.3922
 20
19.0017
 30
0.000000
  70
    32
  0
VERTEX
  8
VISIBLE_NARROW__ISO_
  5
441
 10
37.3916
 20
19.0057
 30
0.000000
  70
    32
  0
VERTEX
  8
VISIBLE_NARROW__ISO_
  5
442
 10
37.3909
 20
19.0098
 30
0.000000
  70
    32
  0
VERTEX
  8
VISIBLE_NARROW__ISO_
  5
443
 10
37.3903
 20
19.0138
 30
0.000000
  70
    32
  0
VERTEX
  8
VISIBLE_NARROW__ISO_
  5
444
 10
37.3896
 20
19.0178
 30
0.000000
  70
    32
  0
VERTEX
  8
VISIBLE_NARROW__ISO_
  5
445
 10
37.3889
 20
19.0219
 30
0.000000
  70
    32
  0
VERTEX
  8
VISIBLE_NARROW__ISO_
  5
446
 10
37.3882
 20
19.0259
 30
0.000000
  70
    32
  0
VERTEX
  8
VISIBLE_NARROW__ISO_
  5
447
 10
37.3875
 20
19.0300
 30
0.000000
  70
    32
  0
VERTEX
  8
VISIBLE_NARROW__ISO_
  5
448
 10
37.3868
 20
19.0340
 30
0.000000
  70
    32
  0
VERTEX
  8
VISIBLE_NARROW__ISO_
  5
449
 10
37.3861
 20
19.0380
 30
0.000000
  70
    32
  0
VERTEX
  8
VISIBLE_NARROW__ISO_
  5
44A
 10
37.3853
 20
19.0421
 30
0.000000
  70
    32
  0
VERTEX
  8
VISIBLE_NARROW__ISO_
  5
44B
 10
37.3846
 20
19.0461
 30
0.000000
  70
    32
  0
VERTEX
  8
VISIBLE_NARROW__ISO_
  5
44C
 10
37.3838
 20
19.0501
 30
0.000000
  70
    32
  0
VERTEX
  8
VISIBLE_NARROW__ISO_
  5
44D
 10
37.3830
 20
19.0542
 30
0.000000
  70
    32
  0
VERTEX
  8
VISIBLE_NARROW__ISO_
  5
44E
 10
37.3822
 20
19.0582
 30
0.000000
  70
    32
  0
VERTEX
  8
VISIBLE_NARROW__ISO_
  5
44F
 10
37.3814
 20
19.0622
 30
0.000000
  70
    32
  0
VERTEX
  8
VISIBLE_NARROW__ISO_
  5
450
 10
37.3806
 20
19.0662
 30
0.000000
  70
    32
  0
VERTEX
  8
VISIBLE_NARROW__ISO_
  5
451
 10
37.3798
 20
19.0702
 30
0.000000
  70
    32
  0
VERTEX
  8
VISIBLE_NARROW__ISO_
  5
452
 10
37.3789
 20
19.0742
 30
0.000000
  70
    32
  0
VERTEX
  8
VISIBLE_NARROW__ISO_
  5
453
 10
37.3781
 20
19.0783
 30
0.000000
  70
    32
  0
VERTEX
  8
VISIBLE_NARROW__ISO_
  5
454
 10
37.3772
 20
19.0823
 30
0.000000
  70
    32
  0
VERTEX
  8
VISIBLE_NARROW__ISO_
  5
455
 10
37.3763
 20
19.0863
 30
0.000000
  70
    32
  0
VERTEX
  8
VISIBLE_NARROW__ISO_
  5
456
 10
37.3754
 20
19.0903
 30
0.000000
  70
    32
  0
VERTEX
  8
VISIBLE_NARROW__ISO_
  5
457
 10
37.3745
 20
19.0943
 30
0.000000
  70
    32
  0
VERTEX
  8
VISIBLE_NARROW__ISO_
  5
458
 10
37.3736
 20
19.0983
 30
0.000000
  70
    32
  0
VERTEX
  8
VISIBLE_NARROW__ISO_
  5
459
 10
37.3727
 20
19.1023
 30
0.000000
  70
    32
  0
VERTEX
  8
VISIBLE_NARROW__ISO_
  5
45A
 10
37.3717
 20
19.1062
 30
0.000000
  70
    32
  0
VERTEX
  8
VISIBLE_NARROW__ISO_
  5
45B
 10
37.3708
 20
19.1102
 30
0.000000
  70
    32
  0
VERTEX
  8
VISIBLE_NARROW__ISO_
  5
45C
 10
37.3698
 20
19.1142
 30
0.000000
  70
    32
  0
VERTEX
  8
VISIBLE_NARROW__ISO_
  5
45D
 10
37.3688
 20
19.1182
 30
0.000000
  70
    32
  0
VERTEX
  8
VISIBLE_NARROW__ISO_
  5
45E
 10
37.3678
 20
19.1222
 30
0.000000
  70
    32
  0
VERTEX
  8
VISIBLE_NARROW__ISO_
  5
45F
 10
37.3668
 20
19.1262
 30
0.000000
  70
    32
  0
VERTEX
  8
VISIBLE_NARROW__ISO_
  5
460
 10
37.3658
 20
19.1301
 30
0.000000
  70
    32
  0
VERTEX
  8
VISIBLE_NARROW__ISO_
  5
461
 10
37.3648
 20
19.1341
 30
0.000000
  70
    32
  0
VERTEX
  8
VISIBLE_NARROW__ISO_
  5
462
 10
37.3638
 20
19.1381
 30
0.000000
  70
    32
  0
VERTEX
  8
VISIBLE_NARROW__ISO_
  5
463
 10
37.3627
 20
19.1420
 30
0.000000
  70
    32
  0
VERTEX
  8
VISIBLE_NARROW__ISO_
  5
464
 10
37.3616
 20
19.1460
 30
0.000000
  70
    32
  0
VERTEX
  8
VISIBLE_NARROW__ISO_
  5
465
 10
37.3606
 20
19.1499
 30
0.000000
  70
    32
  0
VERTEX
  8
VISIBLE_NARROW__ISO_
  5
466
 10
37.3595
 20
19.1539
 30
0.000000
  70
    32
  0
VERTEX
  8
VISIBLE_NARROW__ISO_
  5
467
 10
37.3584
 20
19.1578
 30
0.000000
  70
    32
  0
VERTEX
  8
VISIBLE_NARROW__ISO_
  5
468
 10
37.3573
 20
19.1618
 30
0.000000
  70
    32
  0
VERTEX
  8
VISIBLE_NARROW__ISO_
  5
469
 10
37.3561
 20
19.1657
 30
0.000000
  70
    32
  0
VERTEX
  8
VISIBLE_NARROW__ISO_
  5
46A
 10
37.3550
 20
19.1697
 30
0.000000
  70
    32
  0
VERTEX
  8
VISIBLE_NARROW__ISO_
  5
46B
 10
37.3539
 20
19.1736
 30
0.000000
  70
    32
  0
VERTEX
  8
VISIBLE_NARROW__ISO_
  5
46C
 10
37.3527
 20
19.1775
 30
0.000000
  70
    32
  0
VERTEX
  8
VISIBLE_NARROW__ISO_
  5
46D
 10
37.3515
 20
19.1815
 30
0.000000
  70
    32
  0
VERTEX
  8
VISIBLE_NARROW__ISO_
  5
46E
 10
37.3503
 20
19.1854
 30
0.000000
  70
    32
  0
VERTEX
  8
VISIBLE_NARROW__ISO_
  5
46F
 10
37.3492
 20
19.1893
 30
0.000000
  70
    32
  0
VERTEX
  8
VISIBLE_NARROW__ISO_
  5
470
 10
37.3479
 20
19.1932
 30
0.000000
  70
    32
  0
VERTEX
  8
VISIBLE_NARROW__ISO_
  5
471
 10
37.3467
 20
19.1972
 30
0.000000
  70
    32
  0
VERTEX
  8
VISIBLE_NARROW__ISO_
  5
472
 10
37.3455
 20
19.2011
 30
0.000000
  70
    32
  0
VERTEX
  8
VISIBLE_NARROW__ISO_
  5
473
 10
37.3442
 20
19.2050
 30
0.000000
  70
    32
  0
VERTEX
  8
VISIBLE_NARROW__ISO_
  5
474
 10
37.3430
 20
19.2089
 30
0.000000
  70
    32
  0
VERTEX
  8
VISIBLE_NARROW__ISO_
  5
475
 10
37.3417
 20
19.2128
 30
0.000000
  70
    32
  0
VERTEX
  8
VISIBLE_NARROW__ISO_
  5
476
 10
37.3404
 20
19.2167
 30
0.000000
  70
    32
  0
VERTEX
  8
VISIBLE_NARROW__ISO_
  5
477
 10
37.3391
 20
19.2206
 30
0.000000
  70
    32
  0
VERTEX
  8
VISIBLE_NARROW__ISO_
  5
478
 10
37.3378
 20
19.2244
 30
0.000000
  70
    32
  0
VERTEX
  8
VISIBLE_NARROW__ISO_
  5
479
 10
37.3365
 20
19.2283
 30
0.000000
  70
    32
  0
VERTEX
  8
VISIBLE_NARROW__ISO_
  5
47A
 10
37.3352
 20
19.2322
 30
0.000000
  70
    32
  0
VERTEX
  8
VISIBLE_NARROW__ISO_
  5
47B
 10
37.3339
 20
19.2361
 30
0.000000
  70
    32
  0
VERTEX
  8
VISIBLE_NARROW__ISO_
  5
47C
 10
37.3325
 20
19.2400
 30
0.000000
  70
    32
  0
VERTEX
  8
VISIBLE_NARROW__ISO_
  5
47D
 10
37.3311
 20
19.2438
 30
0.000000
  70
    32
  0
VERTEX
  8
VISIBLE_NARROW__ISO_
  5
47E
 10
37.3298
 20
19.2477
 30
0.000000
  70
    32
  0
VERTEX
  8
VISIBLE_NARROW__ISO_
  5
47F
 10
37.3284
 20
19.2515
 30
0.000000
  70
    32
  0
VERTEX
  8
VISIBLE_NARROW__ISO_
  5
480
 10
37.3270
 20
19.2554
 30
0.000000
  70
    32
  0
VERTEX
  8
VISIBLE_NARROW__ISO_
  5
481
 10
37.3256
 20
19.2593
 30
0.000000
  70
    32
  0
VERTEX
  8
VISIBLE_NARROW__ISO_
  5
482
 10
37.3241
 20
19.2631
 30
0.000000
  70
    32
  0
VERTEX
  8
VISIBLE_NARROW__ISO_
  5
483
 10
37.3227
 20
19.2669
 30
0.000000
  70
    32
  0
VERTEX
  8
VISIBLE_NARROW__ISO_
  5
484
 10
37.3213
 20
19.2708
 30
0.000000
  70
    32
  0
VERTEX
  8
VISIBLE_NARROW__ISO_
  5
485
 10
37.3198
 20
19.2746
 30
0.000000
  70
    32
  0
VERTEX
  8
VISIBLE_NARROW__ISO_
  5
486
 10
37.3183
 20
19.2784
 30
0.000000
  70
    32
  0
VERTEX
  8
VISIBLE_NARROW__ISO_
  5
487
 10
37.3169
 20
19.2823
 30
0.000000
  70
    32
  0
VERTEX
  8
VISIBLE_NARROW__ISO_
  5
488
 10
37.3154
 20
19.2861
 30
0.000000
  70
    32
  0
VERTEX
  8
VISIBLE_NARROW__ISO_
  5
489
 10
37.3139
 20
19.2899
 30
0.000000
  70
    32
  0
VERTEX
  8
VISIBLE_NARROW__ISO_
  5
48A
 10
37.3123
 20
19.2937
 30
0.000000
  70
    32
  0
VERTEX
  8
VISIBLE_NARROW__ISO_
  5
48B
 10
37.3108
 20
19.2975
 30
0.000000
  70
    32
  0
VERTEX
  8
VISIBLE_NARROW__ISO_
  5
48C
 10
37.3093
 20
19.3013
 30
0.000000
  70
    32
  0
VERTEX
  8
VISIBLE_NARROW__ISO_
  5
48D
 10
37.3077
 20
19.3051
 30
0.000000
  70
    32
  0
VERTEX
  8
VISIBLE_NARROW__ISO_
  5
48E
 10
37.3062
 20
19.3089
 30
0.000000
  70
    32
  0
VERTEX
  8
VISIBLE_NARROW__ISO_
  5
48F
 10
37.3046
 20
19.3127
 30
0.000000
  70
    32
  0
VERTEX
  8
VISIBLE_NARROW__ISO_
  5
490
 10
37.3030
 20
19.3165
 30
0.000000
  70
    32
  0
VERTEX
  8
VISIBLE_NARROW__ISO_
  5
491
 10
37.3014
 20
19.3202
 30
0.000000
  70
    32
  0
VERTEX
  8
VISIBLE_NARROW__ISO_
  5
492
 10
37.2998
 20
19.3240
 30
0.000000
  70
    32
  0
VERTEX
  8
VISIBLE_NARROW__ISO_
  5
493
 10
37.2982
 20
19.3278
 30
0.000000
  70
    32
  0
VERTEX
  8
VISIBLE_NARROW__ISO_
  5
494
 10
37.2965
 20
19.3315
 30
0.000000
  70
    32
  0
VERTEX
  8
VISIBLE_NARROW__ISO_
  5
495
 10
37.2949
 20
19.3353
 30
0.000000
  70
    32
  0
VERTEX
  8
VISIBLE_NARROW__ISO_
  5
496
 10
37.2932
 20
19.3390
 30
0.000000
  70
    32
  0
VERTEX
  8
VISIBLE_NARROW__ISO_
  5
497
 10
37.2916
 20
19.3428
 30
0.000000
  70
    32
  0
VERTEX
  8
VISIBLE_NARROW__ISO_
  5
498
 10
37.2899
 20
19.3465
 30
0.000000
  70
    32
  0
VERTEX
  8
VISIBLE_NARROW__ISO_
  5
499
 10
37.2882
 20
19.3503
 30
0.000000
  70
    32
  0
VERTEX
  8
VISIBLE_NARROW__ISO_
  5
49A
 10
37.2865
 20
19.3540
 30
0.000000
  70
    32
  0
VERTEX
  8
VISIBLE_NARROW__ISO_
  5
49B
 10
37.2848
 20
19.3577
 30
0.000000
  70
    32
  0
VERTEX
  8
VISIBLE_NARROW__ISO_
  5
49C
 10
37.2830
 20
19.3614
 30
0.000000
  70
    32
  0
VERTEX
  8
VISIBLE_NARROW__ISO_
  5
49D
 10
37.2813
 20
19.3652
 30
0.000000
  70
    32
  0
VERTEX
  8
VISIBLE_NARROW__ISO_
  5
49E
 10
37.2796
 20
19.3689
 30
0.000000
  70
    32
  0
VERTEX
  8
VISIBLE_NARROW__ISO_
  5
49F
 10
37.2778
 20
19.3726
 30
0.000000
  70
    32
  0
VERTEX
  8
VISIBLE_NARROW__ISO_
  5
4A0
 10
37.2760
 20
19.3763
 30
0.000000
  70
    32
  0
VERTEX
  8
VISIBLE_NARROW__ISO_
  5
4A1
 10
37.2742
 20
19.3800
 30
0.000000
  70
    32
  0
VERTEX
  8
VISIBLE_NARROW__ISO_
  5
4A2
 10
37.2724
 20
19.3836
 30
0.000000
  70
    32
  0
VERTEX
  8
VISIBLE_NARROW__ISO_
  5
4A3
 10
37.2706
 20
19.3873
 30
0.000000
  70
    32
  0
VERTEX
  8
VISIBLE_NARROW__ISO_
  5
4A4
 10
37.2688
 20
19.3910
 30
0.000000
  70
    32
  0
VERTEX
  8
VISIBLE_NARROW__ISO_
  5
4A5
 10
37.2670
 20
19.3947
 30
0.000000
  70
    32
  0
VERTEX
  8
VISIBLE_NARROW__ISO_
  5
4A6
 10
37.2651
 20
19.3983
 30
0.000000
  70
    32
  0
VERTEX
  8
VISIBLE_NARROW__ISO_
  5
4A7
 10
37.2633
 20
19.4020
 30
0.000000
  70
    32
  0
VERTEX
  8
VISIBLE_NARROW__ISO_
  5
4A8
 10
37.2614
 20
19.4056
 30
0.000000
  70
    32
  0
VERTEX
  8
VISIBLE_NARROW__ISO_
  5
4A9
 10
37.2596
 20
19.4093
 30
0.000000
  70
    32
  0
VERTEX
  8
VISIBLE_NARROW__ISO_
  5
4AA
 10
37.2577
 20
19.4129
 30
0.000000
  70
    32
  0
VERTEX
  8
VISIBLE_NARROW__ISO_
  5
4AB
 10
37.2558
 20
19.4166
 30
0.000000
  70
    32
  0
VERTEX
  8
VISIBLE_NARROW__ISO_
  5
4AC
 10
37.2539
 20
19.4202
 30
0.000000
  70
    32
  0
VERTEX
  8
VISIBLE_NARROW__ISO_
  5
4AD
 10
37.2520
 20
19.4238
 30
0.000000
  70
    32
  0
VERTEX
  8
VISIBLE_NARROW__ISO_
  5
4AE
 10
37.2500
 20
19.4274
 30
0.000000
  70
    32
  0
VERTEX
  8
VISIBLE_NARROW__ISO_
  5
4AF
 10
37.2481
 20
19.4311
 30
0.000000
  70
    32
  0
VERTEX
  8
VISIBLE_NARROW__ISO_
  5
4B0
 10
37.2461
 20
19.4347
 30
0.000000
  70
    32
  0
VERTEX
  8
VISIBLE_NARROW__ISO_
  5
4B1
 10
37.2442
 20
19.4383
 30
0.000000
  70
    32
  0
VERTEX
  8
VISIBLE_NARROW__ISO_
  5
4B2
 10
37.2422
 20
19.4419
 30
0.000000
  70
    32
  0
VERTEX
  8
VISIBLE_NARROW__ISO_
  5
4B3
 10
37.2402
 20
19.4454
 30
0.000000
  70
    32
  0
VERTEX
  8
VISIBLE_NARROW__ISO_
  5
4B4
 10
37.2382
 20
19.4490
 30
0.000000
  70
    32
  0
VERTEX
  8
VISIBLE_NARROW__ISO_
  5
4B5
 10
37.2362
 20
19.4526
 30
0.000000
  70
    32
  0
VERTEX
  8
VISIBLE_NARROW__ISO_
  5
4B6
 10
37.2342
 20
19.4562
 30
0.000000
  70
    32
  0
VERTEX
  8
VISIBLE_NARROW__ISO_
  5
4B7
 10
37.2322
 20
19.4597
 30
0.000000
  70
    32
  0
VERTEX
  8
VISIBLE_NARROW__ISO_
  5
4B8
 10
37.2301
 20
19.4633
 30
0.000000
  70
    32
  0
VERTEX
  8
VISIBLE_NARROW__ISO_
  5
4B9
 10
37.2281
 20
19.4668
 30
0.000000
  70
    32
  0
VERTEX
  8
VISIBLE_NARROW__ISO_
  5
4BA
 10
37.2260
 20
19.4704
 30
0.000000
  70
    32
  0
VERTEX
  8
VISIBLE_NARROW__ISO_
  5
4BB
 10
37.2239
 20
19.4739
 30
0.000000
  70
    32
  0
VERTEX
  8
VISIBLE_NARROW__ISO_
  5
4BC
 10
37.2218
 20
19.4775
 30
0.000000
  70
    32
  0
VERTEX
  8
VISIBLE_NARROW__ISO_
  5
4BD
 10
37.2197
 20
19.4810
 30
0.000000
  70
    32
  0
VERTEX
  8
VISIBLE_NARROW__ISO_
  5
4BE
 10
37.2176
 20
19.4845
 30
0.000000
  70
    32
  0
VERTEX
  8
VISIBLE_NARROW__ISO_
  5
4BF
 10
37.2155
 20
19.4880
 30
0.000000
  70
    32
  0
VERTEX
  8
VISIBLE_NARROW__ISO_
  5
4C0
 10
37.2134
 20
19.4915
 30
0.000000
  70
    32
  0
VERTEX
  8
VISIBLE_NARROW__ISO_
  5
4C1
 10
37.2113
 20
19.4950
 30
0.000000
  70
    32
  0
VERTEX
  8
VISIBLE_NARROW__ISO_
  5
4C2
 10
37.2091
 20
19.4985
 30
0.000000
  70
    32
  0
VERTEX
  8
VISIBLE_NARROW__ISO_
  5
4C3
 10
37.2069
 20
19.5020
 30
0.000000
  70
    32
  0
VERTEX
  8
VISIBLE_NARROW__ISO_
  5
4C4
 10
37.2048
 20
19.5055
 30
0.000000
  70
    32
  0
VERTEX
  8
VISIBLE_NARROW__ISO_
  5
4C5
 10
37.2026
 20
19.5090
 30
0.000000
  70
    32
  0
VERTEX
  8
VISIBLE_NARROW__ISO_
  5
4C6
 10
37.2004
 20
19.5124
 30
0.000000
  70
    32
  0
VERTEX
  8
VISIBLE_NARROW__ISO_
  5
4C7
 10
37.1982
 20
19.5159
 30
0.000000
  70
    32
  0
VERTEX
  8
VISIBLE_NARROW__ISO_
  5
4C8
 10
37.1960
 20
19.5193
 30
0.000000
  70
    32
  0
VERTEX
  8
VISIBLE_NARROW__ISO_
  5
4C9
 10
37.1938
 20
19.5228
 30
0.000000
  70
    32
  0
VERTEX
  8
VISIBLE_NARROW__ISO_
  5
4CA
 10
37.1915
 20
19.5262
 30
0.000000
  70
    32
  0
VERTEX
  8
VISIBLE_NARROW__ISO_
  5
4CB
 10
37.1893
 20
19.5297
 30
0.000000
  70
    32
  0
VERTEX
  8
VISIBLE_NARROW__ISO_
  5
4CC
 10
37.1870
 20
19.5331
 30
0.000000
  70
    32
  0
VERTEX
  8
VISIBLE_NARROW__ISO_
  5
4CD
 10
37.1848
 20
19.5365
 30
0.000000
  70
    32
  0
VERTEX
  8
VISIBLE_NARROW__ISO_
  5
4CE
 10
37.1825
 20
19.5399
 30
0.000000
  70
    32
  0
VERTEX
  8
VISIBLE_NARROW__ISO_
  5
4CF
 10
37.1802
 20
19.5433
 30
0.000000
  70
    32
  0
VERTEX
  8
VISIBLE_NARROW__ISO_
  5
4D0
 10
37.1779
 20
19.5467
 30
0.000000
  70
    32
  0
VERTEX
  8
VISIBLE_NARROW__ISO_
  5
4D1
 10
37.1756
 20
19.5501
 30
0.000000
  70
    32
  0
VERTEX
  8
VISIBLE_NARROW__ISO_
  5
4D2
 10
37.1733
 20
19.5535
 30
0.000000
  70
    32
  0
VERTEX
  8
VISIBLE_NARROW__ISO_
  5
4D3
 10
37.1710
 20
19.5569
 30
0.000000
  70
    32
  0
VERTEX
  8
VISIBLE_NARROW__ISO_
  5
4D4
 10
37.1686
 20
19.5602
 30
0.000000
  70
    32
  0
VERTEX
  8
VISIBLE_NARROW__ISO_
  5
4D5
 10
37.1663
 20
19.5636
 30
0.000000
  70
    32
  0
VERTEX
  8
VISIBLE_NARROW__ISO_
  5
4D6
 10
37.1639
 20
19.5669
 30
0.000000
  70
    32
  0
VERTEX
  8
VISIBLE_NARROW__ISO_
  5
4D7
 10
37.1615
 20
19.5703
 30
0.000000
  70
    32
  0
VERTEX
  8
VISIBLE_NARROW__ISO_
  5
4D8
 10
37.1592
 20
19.5736
 30
0.000000
  70
    32
  0
VERTEX
  8
VISIBLE_NARROW__ISO_
  5
4D9
 10
37.1568
 20
19.5770
 30
0.000000
  70
    32
  0
VERTEX
  8
VISIBLE_NARROW__ISO_
  5
4DA
 10
37.1544
 20
19.5803
 30
0.000000
  70
    32
  0
VERTEX
  8
VISIBLE_NARROW__ISO_
  5
4DB
 10
37.1520
 20
19.5836
 30
0.000000
  70
    32
  0
VERTEX
  8
VISIBLE_NARROW__ISO_
  5
4DC
 10
37.1495
 20
19.5869
 30
0.000000
  70
    32
  0
VERTEX
  8
VISIBLE_NARROW__ISO_
  5
4DD
 10
37.1471
 20
19.5902
 30
0.000000
  70
    32
  0
VERTEX
  8
VISIBLE_NARROW__ISO_
  5
4DE
 10
37.1447
 20
19.5935
 30
0.000000
  70
    32
  0
VERTEX
  8
VISIBLE_NARROW__ISO_
  5
4DF
 10
37.1422
 20
19.5968
 30
0.000000
  70
    32
  0
VERTEX
  8
VISIBLE_NARROW__ISO_
  5
4E0
 10
37.1398
 20
19.6001
 30
0.000000
  70
    32
  0
VERTEX
  8
VISIBLE_NARROW__ISO_
  5
4E1
 10
37.1373
 20
19.6034
 30
0.000000
  70
    32
  0
VERTEX
  8
VISIBLE_NARROW__ISO_
  5
4E2
 10
37.1348
 20
19.6066
 30
0.000000
  70
    32
  0
VERTEX
  8
VISIBLE_NARROW__ISO_
  5
4E3
 10
37.1323
 20
19.6099
 30
0.000000
  70
    32
  0
VERTEX
  8
VISIBLE_NARROW__ISO_
  5
4E4
 10
37.1298
 20
19.6131
 30
0.000000
  70
    32
  0
VERTEX
  8
VISIBLE_NARROW__ISO_
  5
4E5
 10
37.1273
 20
19.6164
 30
0.000000
  70
    32
  0
VERTEX
  8
VISIBLE_NARROW__ISO_
  5
4E6
 10
37.1248
 20
19.6196
 30
0.000000
  70
    32
  0
VERTEX
  8
VISIBLE_NARROW__ISO_
  5
4E7
 10
37.1223
 20
19.6228
 30
0.000000
  70
    32
  0
VERTEX
  8
VISIBLE_NARROW__ISO_
  5
4E8
 10
37.1197
 20
19.6261
 30
0.000000
  70
    32
  0
VERTEX
  8
VISIBLE_NARROW__ISO_
  5
4E9
 10
37.1172
 20
19.6293
 30
0.000000
  70
    32
  0
VERTEX
  8
VISIBLE_NARROW__ISO_
  5
4EA
 10
37.1146
 20
19.6325
 30
0.000000
  70
    32
  0
VERTEX
  8
VISIBLE_NARROW__ISO_
  5
4EB
 10
37.1120
 20
19.6357
 30
0.000000
  70
    32
  0
VERTEX
  8
VISIBLE_NARROW__ISO_
  5
4EC
 10
37.1094
 20
19.6389
 30
0.000000
  70
    32
  0
VERTEX
  8
VISIBLE_NARROW__ISO_
  5
4ED
 10
37.1069
 20
19.6420
 30
0.000000
  70
    32
  0
VERTEX
  8
VISIBLE_NARROW__ISO_
  5
4EE
 10
37.1043
 20
19.6452
 30
0.000000
  70
    32
  0
VERTEX
  8
VISIBLE_NARROW__ISO_
  5
4EF
 10
37.1016
 20
19.6484
 30
0.000000
  70
    32
  0
VERTEX
  8
VISIBLE_NARROW__ISO_
  5
4F0
 10
37.0990
 20
19.6515
 30
0.000000
  70
    32
  0
VERTEX
  8
VISIBLE_NARROW__ISO_
  5
4F1
 10
37.0964
 20
19.6547
 30
0.000000
  70
    32
  0
VERTEX
  8
VISIBLE_NARROW__ISO_
  5
4F2
 10
37.0938
 20
19.6578
 30
0.000000
  70
    32
  0
VERTEX
  8
VISIBLE_NARROW__ISO_
  5
4F3
 10
37.0911
 20
19.6609
 30
0.000000
  70
    32
  0
VERTEX
  8
VISIBLE_NARROW__ISO_
  5
4F4
 10
37.0885
 20
19.6641
 30
0.000000
  70
    32
  0
VERTEX
  8
VISIBLE_NARROW__ISO_
  5
4F5
 10
37.0858
 20
19.6672
 30
0.000000
  70
    32
  0
VERTEX
  8
VISIBLE_NARROW__ISO_
  5
4F6
 10
37.0831
 20
19.6703
 30
0.000000
  70
    32
  0
VERTEX
  8
VISIBLE_NARROW__ISO_
  5
4F7
 10
37.0804
 20
19.6734
 30
0.000000
  70
    32
  0
VERTEX
  8
VISIBLE_NARROW__ISO_
  5
4F8
 10
37.0777
 20
19.6765
 30
0.000000
  70
    32
  0
VERTEX
  8
VISIBLE_NARROW__ISO_
  5
4F9
 10
37.0750
 20
19.6795
 30
0.000000
  70
    32
  0
VERTEX
  8
VISIBLE_NARROW__ISO_
  5
4FA
 10
37.0723
 20
19.6826
 30
0.000000
  70
    32
  0
VERTEX
  8
VISIBLE_NARROW__ISO_
  5
4FB
 10
37.0696
 20
19.6857
 30
0.000000
  70
    32
  0
VERTEX
  8
VISIBLE_NARROW__ISO_
  5
4FC
 10
37.0668
 20
19.6887
 30
0.000000
  70
    32
  0
VERTEX
  8
VISIBLE_NARROW__ISO_
  5
4FD
 10
37.0641
 20
19.6918
 30
0.000000
  70
    32
  0
VERTEX
  8
VISIBLE_NARROW__ISO_
  5
4FE
 10
37.0613
 20
19.6948
 30
0.000000
  70
    32
  0
VERTEX
  8
VISIBLE_NARROW__ISO_
  5
4FF
 10
37.0586
 20
19.6979
 30
0.000000
  70
    32
  0
VERTEX
  8
VISIBLE_NARROW__ISO_
  5
500
 10
37.0558
 20
19.7009
 30
0.000000
  70
    32
  0
VERTEX
  8
VISIBLE_NARROW__ISO_
  5
501
 10
37.0530
 20
19.7039
 30
0.000000
  70
    32
  0
VERTEX
  8
VISIBLE_NARROW__ISO_
  5
502
 10
37.0502
 20
19.7069
 30
0.000000
  70
    32
  0
VERTEX
  8
VISIBLE_NARROW__ISO_
  5
503
 10
37.0474
 20
19.7099
 30
0.000000
  70
    32
  0
VERTEX
  8
VISIBLE_NARROW__ISO_
  5
504
 10
37.0446
 20
19.7129
 30
0.000000
  70
    32
  0
VERTEX
  8
VISIBLE_NARROW__ISO_
  5
505
 10
37.0418
 20
19.7159
 30
0.000000
  70
    32
  0
VERTEX
  8
VISIBLE_NARROW__ISO_
  5
506
 10
37.0390
 20
19.7188
 30
0.000000
  70
    32
  0
VERTEX
  8
VISIBLE_NARROW__ISO_
  5
507
 10
37.0361
 20
19.7218
 30
0.000000
  70
    32
  0
VERTEX
  8
VISIBLE_NARROW__ISO_
  5
508
 10
37.0333
 20
19.7247
 30
0.000000
  70
    32
  0
VERTEX
  8
VISIBLE_NARROW__ISO_
  5
509
 10
37.0304
 20
19.7277
 30
0.000000
  70
    32
  0
VERTEX
  8
VISIBLE_NARROW__ISO_
  5
50A
 10
37.0276
 20
19.7306
 30
0.000000
  70
    32
  0
VERTEX
  8
VISIBLE_NARROW__ISO_
  5
50B
 10
37.0247
 20
19.7335
 30
0.000000
  70
    32
  0
VERTEX
  8
VISIBLE_NARROW__ISO_
  5
50C
 10
37.0218
 20
19.7365
 30
0.000000
  70
    32
  0
VERTEX
  8
VISIBLE_NARROW__ISO_
  5
50D
 10
37.0189
 20
19.7394
 30
0.000000
  70
    32
  0
VERTEX
  8
VISIBLE_NARROW__ISO_
  5
50E
 10
37.0160
 20
19.7423
 30
0.000000
  70
    32
  0
VERTEX
  8
VISIBLE_NARROW__ISO_
  5
50F
 10
37.0131
 20
19.7452
 30
0.000000
  70
    32
  0
VERTEX
  8
VISIBLE_NARROW__ISO_
  5
510
 10
37.0102
 20
19.7480
 30
0.000000
  70
    32
  0
VERTEX
  8
VISIBLE_NARROW__ISO_
  5
511
 10
37.0073
 20
19.7509
 30
0.000000
  70
    32
  0
VERTEX
  8
VISIBLE_NARROW__ISO_
  5
512
 10
37.0043
 20
19.7538
 30
0.000000
  70
    32
  0
VERTEX
  8
VISIBLE_NARROW__ISO_
  5
513
 10
37.0014
 20
19.7566
 30
0.000000
  70
    32
  0
VERTEX
  8
VISIBLE_NARROW__ISO_
  5
514
 10
36.9984
 20
19.7595
 30
0.000000
  70
    32
  0
VERTEX
  8
VISIBLE_NARROW__ISO_
  5
515
 10
36.9955
 20
19.7623
 30
0.000000
  70
    32
  0
VERTEX
  8
VISIBLE_NARROW__ISO_
  5
516
 10
36.9925
 20
19.7651
 30
0.000000
  70
    32
  0
VERTEX
  8
VISIBLE_NARROW__ISO_
  5
517
 10
36.9895
 20
19.7680
 30
0.000000
  70
    32
  0
VERTEX
  8
VISIBLE_NARROW__ISO_
  5
518
 10
36.9865
 20
19.7708
 30
0.000000
  70
    32
  0
VERTEX
  8
VISIBLE_NARROW__ISO_
  5
519
 10
36.9835
 20
19.7736
 30
0.000000
  70
    32
  0
VERTEX
  8
VISIBLE_NARROW__ISO_
  5
51A
 10
36.9805
 20
19.7764
 30
0.000000
  70
    32
  0
VERTEX
  8
VISIBLE_NARROW__ISO_
  5
51B
 10
36.9775
 20
19.7791
 30
0.000000
  70
    32
  0
VERTEX
  8
VISIBLE_NARROW__ISO_
  5
51C
 10
36.9745
 20
19.7819
 30
0.000000
  70
    32
  0
VERTEX
  8
VISIBLE_NARROW__ISO_
  5
51D
 10
36.9715
 20
19.7847
 30
0.000000
  70
    32
  0
VERTEX
  8
VISIBLE_NARROW__ISO_
  5
51E
 10
36.9684
 20
19.7874
 30
0.000000
  70
    32
  0
VERTEX
  8
VISIBLE_NARROW__ISO_
  5
51F
 10
36.9654
 20
19.7902
 30
0.000000
  70
    32
  0
VERTEX
  8
VISIBLE_NARROW__ISO_
  5
520
 10
36.9623
 20
19.7929
 30
0.000000
  70
    32
  0
VERTEX
  8
VISIBLE_NARROW__ISO_
  5
521
 10
36.9593
 20
19.7956
 30
0.000000
  70
    32
  0
VERTEX
  8
VISIBLE_NARROW__ISO_
  5
522
 10
36.9562
 20
19.7984
 30
0.000000
  70
    32
  0
VERTEX
  8
VISIBLE_NARROW__ISO_
  5
523
 10
36.9531
 20
19.8011
 30
0.000000
  70
    32
  0
VERTEX
  8
VISIBLE_NARROW__ISO_
  5
524
 10
36.9500
 20
19.8038
 30
0.000000
  70
    32
  0
VERTEX
  8
VISIBLE_NARROW__ISO_
  5
525
 10
36.9469
 20
19.8064
 30
0.000000
  70
    32
  0
VERTEX
  8
VISIBLE_NARROW__ISO_
  5
526
 10
36.9438
 20
19.8091
 30
0.000000
  70
    32
  0
VERTEX
  8
VISIBLE_NARROW__ISO_
  5
527
 10
36.9407
 20
19.8118
 30
0.000000
  70
    32
  0
VERTEX
  8
VISIBLE_NARROW__ISO_
  5
528
 10
36.9376
 20
19.8144
 30
0.000000
  70
    32
  0
VERTEX
  8
VISIBLE_NARROW__ISO_
  5
529
 10
36.9344
 20
19.8171
 30
0.000000
  70
    32
  0
VERTEX
  8
VISIBLE_NARROW__ISO_
  5
52A
 10
36.9313
 20
19.8197
 30
0.000000
  70
    32
  0
VERTEX
  8
VISIBLE_NARROW__ISO_
  5
52B
 10
36.9282
 20
19.8224
 30
0.000000
  70
    32
  0
VERTEX
  8
VISIBLE_NARROW__ISO_
  5
52C
 10
36.9250
 20
19.8250
 30
0.000000
  70
    32
  0
VERTEX
  8
VISIBLE_NARROW__ISO_
  5
52D
 10
36.9218
 20
19.8276
 30
0.000000
  70
    32
  0
VERTEX
  8
VISIBLE_NARROW__ISO_
  5
52E
 10
36.9187
 20
19.8302
 30
0.000000
  70
    32
  0
VERTEX
  8
VISIBLE_NARROW__ISO_
  5
52F
 10
36.9155
 20
19.8328
 30
0.000000
  70
    32
  0
VERTEX
  8
VISIBLE_NARROW__ISO_
  5
530
 10
36.9123
 20
19.8354
 30
0.000000
  70
    32
  0
VERTEX
  8
VISIBLE_NARROW__ISO_
  5
531
 10
36.9091
 20
19.8379
 30
0.000000
  70
    32
  0
VERTEX
  8
VISIBLE_NARROW__ISO_
  5
532
 10
36.9059
 20
19.8405
 30
0.000000
  70
    32
  0
VERTEX
  8
VISIBLE_NARROW__ISO_
  5
533
 10
36.9027
 20
19.8431
 30
0.000000
  70
    32
  0
VERTEX
  8
VISIBLE_NARROW__ISO_
  5
534
 10
36.8995
 20
19.8456
 30
0.000000
  70
    32
  0
VERTEX
  8
VISIBLE_NARROW__ISO_
  5
535
 10
36.8963
 20
19.8481
 30
0.000000
  70
    32
  0
VERTEX
  8
VISIBLE_NARROW__ISO_
  5
536
 10
36.8930
 20
19.8507
 30
0.000000
  70
    32
  0
VERTEX
  8
VISIBLE_NARROW__ISO_
  5
537
 10
36.8898
 20
19.8532
 30
0.000000
  70
    32
  0
VERTEX
  8
VISIBLE_NARROW__ISO_
  5
538
 10
36.8865
 20
19.8557
 30
0.000000
  70
    32
  0
VERTEX
  8
VISIBLE_NARROW__ISO_
  5
539
 10
36.8833
 20
19.8582
 30
0.000000
  70
    32
  0
VERTEX
  8
VISIBLE_NARROW__ISO_
  5
53A
 10
36.8800
 20
19.8606
 30
0.000000
  70
    32
  0
VERTEX
  8
VISIBLE_NARROW__ISO_
  5
53B
 10
36.8767
 20
19.8631
 30
0.000000
  70
    32
  0
VERTEX
  8
VISIBLE_NARROW__ISO_
  5
53C
 10
36.8735
 20
19.8656
 30
0.000000
  70
    32
  0
VERTEX
  8
VISIBLE_NARROW__ISO_
  5
53D
 10
36.8702
 20
19.8680
 30
0.000000
  70
    32
  0
VERTEX
  8
VISIBLE_NARROW__ISO_
  5
53E
 10
36.8669
 20
19.8705
 30
0.000000
  70
    32
  0
VERTEX
  8
VISIBLE_NARROW__ISO_
  5
53F
 10
36.8636
 20
19.8729
 30
0.000000
  70
    32
  0
VERTEX
  8
VISIBLE_NARROW__ISO_
  5
540
 10
36.8603
 20
19.8753
 30
0.000000
  70
    32
  0
VERTEX
  8
VISIBLE_NARROW__ISO_
  5
541
 10
36.8569
 20
19.8777
 30
0.000000
  70
    32
  0
VERTEX
  8
VISIBLE_NARROW__ISO_
  5
542
 10
36.8536
 20
19.8801
 30
0.000000
  70
    32
  0
VERTEX
  8
VISIBLE_NARROW__ISO_
  5
543
 10
36.8503
 20
19.8825
 30
0.000000
  70
    32
  0
VERTEX
  8
VISIBLE_NARROW__ISO_
  5
544
 10
36.8469
 20
19.8849
 30
0.000000
  70
    32
  0
VERTEX
  8
VISIBLE_NARROW__ISO_
  5
545
 10
36.8436
 20
19.8873
 30
0.000000
  70
    32
  0
VERTEX
  8
VISIBLE_NARROW__ISO_
  5
546
 10
36.8402
 20
19.8896
 30
0.000000
  70
    32
  0
VERTEX
  8
VISIBLE_NARROW__ISO_
  5
547
 10
36.8369
 20
19.8920
 30
0.000000
  70
    32
  0
VERTEX
  8
VISIBLE_NARROW__ISO_
  5
548
 10
36.8335
 20
19.8943
 30
0.000000
  70
    32
  0
VERTEX
  8
VISIBLE_NARROW__ISO_
  5
549
 10
36.8301
 20
19.8967
 30
0.000000
  70
    32
  0
VERTEX
  8
VISIBLE_NARROW__ISO_
  5
54A
 10
36.8268
 20
19.8990
 30
0.000000
  70
    32
  0
VERTEX
  8
VISIBLE_NARROW__ISO_
  5
54B
 10
36.8234
 20
19.9013
 30
0.000000
  70
    32
  0
VERTEX
  8
VISIBLE_NARROW__ISO_
  5
54C
 10
36.8200
 20
19.9036
 30
0.000000
  70
    32
  0
VERTEX
  8
VISIBLE_NARROW__ISO_
  5
54D
 10
36.8166
 20
19.9059
 30
0.000000
  70
    32
  0
VERTEX
  8
VISIBLE_NARROW__ISO_
  5
54E
 10
36.8132
 20
19.9081
 30
0.000000
  70
    32
  0
VERTEX
  8
VISIBLE_NARROW__ISO_
  5
54F
 10
36.8097
 20
19.9104
 30
0.000000
  70
    32
  0
VERTEX
  8
VISIBLE_NARROW__ISO_
  5
550
 10
36.8063
 20
19.9127
 30
0.000000
  70
    32
  0
VERTEX
  8
VISIBLE_NARROW__ISO_
  5
551
 10
36.8029
 20
19.9149
 30
0.000000
  70
    32
  0
VERTEX
  8
VISIBLE_NARROW__ISO_
  5
552
 10
36.7994
 20
19.9171
 30
0.000000
  70
    32
  0
VERTEX
  8
VISIBLE_NARROW__ISO_
  5
553
 10
36.7960
 20
19.9194
 30
0.000000
  70
    32
  0
VERTEX
  8
VISIBLE_NARROW__ISO_
  5
554
 10
36.7925
 20
19.9216
 30
0.000000
  70
    32
  0
VERTEX
  8
VISIBLE_NARROW__ISO_
  5
555
 10
36.7891
 20
19.9238
 30
0.000000
  70
    32
  0
VERTEX
  8
VISIBLE_NARROW__ISO_
  5
556
 10
36.7856
 20
19.9260
 30
0.000000
  70
    32
  0
VERTEX
  8
VISIBLE_NARROW__ISO_
  5
557
 10
36.7821
 20
19.9281
 30
0.000000
  70
    32
  0
VERTEX
  8
VISIBLE_NARROW__ISO_
  5
558
 10
36.7787
 20
19.9303
 30
0.000000
  70
    32
  0
VERTEX
  8
VISIBLE_NARROW__ISO_
  5
559
 10
36.7752
 20
19.9325
 30
0.000000
  70
    32
  0
VERTEX
  8
VISIBLE_NARROW__ISO_
  5
55A
 10
36.7717
 20
19.9346
 30
0.000000
  70
    32
  0
VERTEX
  8
VISIBLE_NARROW__ISO_
  5
55B
 10
36.7682
 20
19.9368
 30
0.000000
  70
    32
  0
VERTEX
  8
VISIBLE_NARROW__ISO_
  5
55C
 10
36.7647
 20
19.9389
 30
0.000000
  70
    32
  0
VERTEX
  8
VISIBLE_NARROW__ISO_
  5
55D
 10
36.7612
 20
19.9410
 30
0.000000
  70
    32
  0
VERTEX
  8
VISIBLE_NARROW__ISO_
  5
55E
 10
36.7576
 20
19.9431
 30
0.000000
  70
    32
  0
VERTEX
  8
VISIBLE_NARROW__ISO_
  5
55F
 10
36.7541
 20
19.9452
 30
0.000000
  70
    32
  0
VERTEX
  8
VISIBLE_NARROW__ISO_
  5
560
 10
36.7506
 20
19.9473
 30
0.000000
  70
    32
  0
VERTEX
  8
VISIBLE_NARROW__ISO_
  5
561
 10
36.7470
 20
19.9494
 30
0.000000
  70
    32
  0
VERTEX
  8
VISIBLE_NARROW__ISO_
  5
562
 10
36.7435
 20
19.9514
 30
0.000000
  70
    32
  0
VERTEX
  8
VISIBLE_NARROW__ISO_
  5
563
 10
36.7399
 20
19.9535
 30
0.000000
  70
    32
  0
VERTEX
  8
VISIBLE_NARROW__ISO_
  5
564
 10
36.7364
 20
19.9555
 30
0.000000
  70
    32
  0
VERTEX
  8
VISIBLE_NARROW__ISO_
  5
565
 10
36.7328
 20
19.9575
 30
0.000000
  70
    32
  0
VERTEX
  8
VISIBLE_NARROW__ISO_
  5
566
 10
36.7293
 20
19.9596
 30
0.000000
  70
    32
  0
VERTEX
  8
VISIBLE_NARROW__ISO_
  5
567
 10
36.7257
 20
19.9616
 30
0.000000
  70
    32
  0
VERTEX
  8
VISIBLE_NARROW__ISO_
  5
568
 10
36.7221
 20
19.9636
 30
0.000000
  70
    32
  0
VERTEX
  8
VISIBLE_NARROW__ISO_
  5
569
 10
36.7185
 20
19.9655
 30
0.000000
  70
    32
  0
VERTEX
  8
VISIBLE_NARROW__ISO_
  5
56A
 10
36.7149
 20
19.9675
 30
0.000000
  70
    32
  0
VERTEX
  8
VISIBLE_NARROW__ISO_
  5
56B
 10
36.7113
 20
19.9695
 30
0.000000
  70
    32
  0
VERTEX
  8
VISIBLE_NARROW__ISO_
  5
56C
 10
36.7077
 20
19.9714
 30
0.000000
  70
    32
  0
VERTEX
  8
VISIBLE_NARROW__ISO_
  5
56D
 10
36.7041
 20
19.9734
 30
0.000000
  70
    32
  0
VERTEX
  8
VISIBLE_NARROW__ISO_
  5
56E
 10
36.7005
 20
19.9753
 30
0.000000
  70
    32
  0
VERTEX
  8
VISIBLE_NARROW__ISO_
  5
56F
 10
36.6968
 20
19.9772
 30
0.000000
  70
    32
  0
VERTEX
  8
VISIBLE_NARROW__ISO_
  5
570
 10
36.6932
 20
19.9791
 30
0.000000
  70
    32
  0
VERTEX
  8
VISIBLE_NARROW__ISO_
  5
571
 10
36.6896
 20
19.9810
 30
0.000000
  70
    32
  0
VERTEX
  8
VISIBLE_NARROW__ISO_
  5
572
 10
36.6859
 20
19.9829
 30
0.000000
  70
    32
  0
VERTEX
  8
VISIBLE_NARROW__ISO_
  5
573
 10
36.6823
 20
19.9848
 30
0.000000
  70
    32
  0
VERTEX
  8
VISIBLE_NARROW__ISO_
  5
574
 10
36.6786
 20
19.9866
 30
0.000000
  70
    32
  0
VERTEX
  8
VISIBLE_NARROW__ISO_
  5
575
 10
36.6750
 20
19.9885
 30
0.000000
  70
    32
  0
VERTEX
  8
VISIBLE_NARROW__ISO_
  5
576
 10
36.6713
 20
19.9903
 30
0.000000
  70
    32
  0
VERTEX
  8
VISIBLE_NARROW__ISO_
  5
577
 10
36.6676
 20
19.9922
 30
0.000000
  70
    32
  0
VERTEX
  8
VISIBLE_NARROW__ISO_
  5
578
 10
36.6640
 20
19.9940
 30
0.000000
  70
    32
  0
VERTEX
  8
VISIBLE_NARROW__ISO_
  5
579
 10
36.6603
 20
19.9958
 30
0.000000
  70
    32
  0
VERTEX
  8
VISIBLE_NARROW__ISO_
  5
57A
 10
36.6566
 20
19.9976
 30
0.000000
  70
    32
  0
VERTEX
  8
VISIBLE_NARROW__ISO_
  5
57B
 10
36.6529
 20
19.9994
 30
0.000000
  70
    32
  0
VERTEX
  8
VISIBLE_NARROW__ISO_
  5
57C
 10
36.6492
 20
20.0011
 30
0.000000
  70
    32
  0
VERTEX
  8
VISIBLE_NARROW__ISO_
  5
57D
 10
36.6455
 20
20.0029
 30
0.000000
  70
    32
  0
VERTEX
  8
VISIBLE_NARROW__ISO_
  5
57E
 10
36.6418
 20
20.0046
 30
0.000000
  70
    32
  0
VERTEX
  8
VISIBLE_NARROW__ISO_
  5
57F
 10
36.6381
 20
20.0064
 30
0.000000
  70
    32
  0
VERTEX
  8
VISIBLE_NARROW__ISO_
  5
580
 10
36.6344
 20
20.0081
 30
0.000000
  70
    32
  0
VERTEX
  8
VISIBLE_NARROW__ISO_
  5
581
 10
36.6306
 20
20.0098
 30
0.000000
  70
    32
  0
VERTEX
  8
VISIBLE_NARROW__ISO_
  5
582
 10
36.6269
 20
20.0115
 30
0.000000
  70
    32
  0
VERTEX
  8
VISIBLE_NARROW__ISO_
  5
583
 10
36.6232
 20
20.0132
 30
0.000000
  70
    32
  0
VERTEX
  8
VISIBLE_NARROW__ISO_
  5
584
 10
36.6194
 20
20.0149
 30
0.000000
  70
    32
  0
VERTEX
  8
VISIBLE_NARROW__ISO_
  5
585
 10
36.6157
 20
20.0166
 30
0.000000
  70
    32
  0
VERTEX
  8
VISIBLE_NARROW__ISO_
  5
586
 10
36.6119
 20
20.0182
 30
0.000000
  70
    32
  0
VERTEX
  8
VISIBLE_NARROW__ISO_
  5
587
 10
36.6082
 20
20.0199
 30
0.000000
  70
    32
  0
VERTEX
  8
VISIBLE_NARROW__ISO_
  5
588
 10
36.6044
 20
20.0215
 30
0.000000
  70
    32
  0
VERTEX
  8
VISIBLE_NARROW__ISO_
  5
589
 10
36.6006
 20
20.0231
 30
0.000000
  70
    32
  0
VERTEX
  8
VISIBLE_NARROW__ISO_
  5
58A
 10
36.5969
 20
20.0247
 30
0.000000
  70
    32
  0
VERTEX
  8
VISIBLE_NARROW__ISO_
  5
58B
 10
36.5931
 20
20.0263
 30
0.000000
  70
    32
  0
VERTEX
  8
VISIBLE_NARROW__ISO_
  5
58C
 10
36.5893
 20
20.0279
 30
0.000000
  70
    32
  0
VERTEX
  8
VISIBLE_NARROW__ISO_
  5
58D
 10
36.5855
 20
20.0295
 30
0.000000
  70
    32
  0
VERTEX
  8
VISIBLE_NARROW__ISO_
  5
58E
 10
36.5817
 20
20.0311
 30
0.000000
  70
    32
  0
VERTEX
  8
VISIBLE_NARROW__ISO_
  5
58F
 10
36.5780
 20
20.0326
 30
0.000000
  70
    32
  0
VERTEX
  8
VISIBLE_NARROW__ISO_
  5
590
 10
36.5742
 20
20.0342
 30
0.000000
  70
    32
  0
VERTEX
  8
VISIBLE_NARROW__ISO_
  5
591
 10
36.5703
 20
20.0357
 30
0.000000
  70
    32
  0
VERTEX
  8
VISIBLE_NARROW__ISO_
  5
592
 10
36.5665
 20
20.0372
 30
0.000000
  70
    32
  0
VERTEX
  8
VISIBLE_NARROW__ISO_
  5
593
 10
36.5627
 20
20.0387
 30
0.000000
  70
    32
  0
VERTEX
  8
VISIBLE_NARROW__ISO_
  5
594
 10
36.5589
 20
20.0402
 30
0.000000
  70
    32
  0
VERTEX
  8
VISIBLE_NARROW__ISO_
  5
595
 10
36.5551
 20
20.0417
 30
0.000000
  70
    32
  0
VERTEX
  8
VISIBLE_NARROW__ISO_
  5
596
 10
36.5513
 20
20.0432
 30
0.000000
  70
    32
  0
VERTEX
  8
VISIBLE_NARROW__ISO_
  5
597
 10
36.5474
 20
20.0446
 30
0.000000
  70
    32
  0
VERTEX
  8
VISIBLE_NARROW__ISO_
  5
598
 10
36.5436
 20
20.0461
 30
0.000000
  70
    32
  0
VERTEX
  8
VISIBLE_NARROW__ISO_
  5
599
 10
36.5397
 20
20.0475
 30
0.000000
  70
    32
  0
VERTEX
  8
VISIBLE_NARROW__ISO_
  5
59A
 10
36.5359
 20
20.0489
 30
0.000000
  70
    32
  0
VERTEX
  8
VISIBLE_NARROW__ISO_
  5
59B
 10
36.5321
 20
20.0503
 30
0.000000
  70
    32
  0
VERTEX
  8
VISIBLE_NARROW__ISO_
  5
59C
 10
36.5282
 20
20.0517
 30
0.000000
  70
    32
  0
VERTEX
  8
VISIBLE_NARROW__ISO_
  5
59D
 10
36.5243
 20
20.0531
 30
0.000000
  70
    32
  0
VERTEX
  8
VISIBLE_NARROW__ISO_
  5
59E
 10
36.5205
 20
20.0545
 30
0.000000
  70
    32
  0
VERTEX
  8
VISIBLE_NARROW__ISO_
  5
59F
 10
36.5166
 20
20.0559
 30
0.000000
  70
    32
  0
VERTEX
  8
VISIBLE_NARROW__ISO_
  5
5A0
 10
36.5127
 20
20.0572
 30
0.000000
  70
    32
  0
VERTEX
  8
VISIBLE_NARROW__ISO_
  5
5A1
 10
36.5089
 20
20.0586
 30
0.000000
  70
    32
  0
VERTEX
  8
VISIBLE_NARROW__ISO_
  5
5A2
 10
36.5050
 20
20.0599
 30
0.000000
  70
    32
  0
VERTEX
  8
VISIBLE_NARROW__ISO_
  5
5A3
 10
36.5011
 20
20.0612
 30
0.000000
  70
    32
  0
VERTEX
  8
VISIBLE_NARROW__ISO_
  5
5A4
 10
36.4972
 20
20.0625
 30
0.000000
  70
    32
  0
VERTEX
  8
VISIBLE_NARROW__ISO_
  5
5A5
 10
36.4933
 20
20.0638
 30
0.000000
  70
    32
  0
VERTEX
  8
VISIBLE_NARROW__ISO_
  5
5A6
 10
36.4894
 20
20.0651
 30
0.000000
  70
    32
  0
VERTEX
  8
VISIBLE_NARROW__ISO_
  5
5A7
 10
36.4855
 20
20.0664
 30
0.000000
  70
    32
  0
VERTEX
  8
VISIBLE_NARROW__ISO_
  5
5A8
 10
36.4816
 20
20.0676
 30
0.000000
  70
    32
  0
VERTEX
  8
VISIBLE_NARROW__ISO_
  5
5A9
 10
36.4777
 20
20.0689
 30
0.000000
  70
    32
  0
VERTEX
  8
VISIBLE_NARROW__ISO_
  5
5AA
 10
36.4738
 20
20.0701
 30
0.000000
  70
    32
  0
VERTEX
  8
VISIBLE_NARROW__ISO_
  5
5AB
 10
36.4699
 20
20.0713
 30
0.000000
  70
    32
  0
VERTEX
  8
VISIBLE_NARROW__ISO_
  5
5AC
 10
36.4660
 20
20.0725
 30
0.000000
  70
    32
  0
VERTEX
  8
VISIBLE_NARROW__ISO_
  5
5AD
 10
36.4621
 20
20.0737
 30
0.000000
  70
    32
  0
VERTEX
  8
VISIBLE_NARROW__ISO_
  5
5AE
 10
36.4581
 20
20.0749
 30
0.000000
  70
    32
  0
VERTEX
  8
VISIBLE_NARROW__ISO_
  5
5AF
 10
36.4542
 20
20.0761
 30
0.000000
  70
    32
  0
VERTEX
  8
VISIBLE_NARROW__ISO_
  5
5B0
 10
36.4503
 20
20.0772
 30
0.000000
  70
    32
  0
VERTEX
  8
VISIBLE_NARROW__ISO_
  5
5B1
 10
36.4463
 20
20.0784
 30
0.000000
  70
    32
  0
VERTEX
  8
VISIBLE_NARROW__ISO_
  5
5B2
 10
36.4424
 20
20.0795
 30
0.000000
  70
    32
  0
VERTEX
  8
VISIBLE_NARROW__ISO_
  5
5B3
 10
36.4384
 20
20.0806
 30
0.000000
  70
    32
  0
VERTEX
  8
VISIBLE_NARROW__ISO_
  5
5B4
 10
36.4345
 20
20.0818
 30
0.000000
  70
    32
  0
VERTEX
  8
VISIBLE_NARROW__ISO_
  5
5B5
 10
36.4305
 20
20.0828
 30
0.000000
  70
    32
  0
VERTEX
  8
VISIBLE_NARROW__ISO_
  5
5B6
 10
36.4266
 20
20.0839
 30
0.000000
  70
    32
  0
VERTEX
  8
VISIBLE_NARROW__ISO_
  5
5B7
 10
36.4226
 20
20.0850
 30
0.000000
  70
    32
  0
VERTEX
  8
VISIBLE_NARROW__ISO_
  5
5B8
 10
36.4187
 20
20.0861
 30
0.000000
  70
    32
  0
VERTEX
  8
VISIBLE_NARROW__ISO_
  5
5B9
 10
36.4147
 20
20.0871
 30
0.000000
  70
    32
  0
VERTEX
  8
VISIBLE_NARROW__ISO_
  5
5BA
 10
36.4107
 20
20.0882
 30
0.000000
  70
    32
  0
VERTEX
  8
VISIBLE_NARROW__ISO_
  5
5BB
 10
36.4068
 20
20.0892
 30
0.000000
  70
    32
  0
VERTEX
  8
VISIBLE_NARROW__ISO_
  5
5BC
 10
36.4028
 20
20.0902
 30
0.000000
  70
    32
  0
VERTEX
  8
VISIBLE_NARROW__ISO_
  5
5BD
 10
36.3988
 20
20.0912
 30
0.000000
  70
    32
  0
VERTEX
  8
VISIBLE_NARROW__ISO_
  5
5BE
 10
36.3948
 20
20.0922
 30
0.000000
  70
    32
  0
VERTEX
  8
VISIBLE_NARROW__ISO_
  5
5BF
 10
36.3909
 20
20.0932
 30
0.000000
  70
    32
  0
VERTEX
  8
VISIBLE_NARROW__ISO_
  5
5C0
 10
36.3869
 20
20.0941
 30
0.000000
  70
    32
  0
VERTEX
  8
VISIBLE_NARROW__ISO_
  5
5C1
 10
36.3829
 20
20.0951
 30
0.000000
  70
    32
  0
VERTEX
  8
VISIBLE_NARROW__ISO_
  5
5C2
 10
36.3789
 20
20.0960
 30
0.000000
  70
    32
  0
VERTEX
  8
VISIBLE_NARROW__ISO_
  5
5C3
 10
36.3749
 20
20.0970
 30
0.000000
  70
    32
  0
VERTEX
  8
VISIBLE_NARROW__ISO_
  5
5C4
 10
36.3709
 20
20.0979
 30
0.000000
  70
    32
  0
VERTEX
  8
VISIBLE_NARROW__ISO_
  5
5C5
 10
36.3669
 20
20.0988
 30
0.000000
  70
    32
  0
VERTEX
  8
VISIBLE_NARROW__ISO_
  5
5C6
 10
36.3629
 20
20.0997
 30
0.000000
  70
    32
  0
VERTEX
  8
VISIBLE_NARROW__ISO_
  5
5C7
 10
36.3589
 20
20.1005
 30
0.000000
  70
    32
  0
VERTEX
  8
VISIBLE_NARROW__ISO_
  5
5C8
 10
36.3549
 20
20.1014
 30
0.000000
  70
    32
  0
VERTEX
  8
VISIBLE_NARROW__ISO_
  5
5C9
 10
36.3509
 20
20.1023
 30
0.000000
  70
    32
  0
VERTEX
  8
VISIBLE_NARROW__ISO_
  5
5CA
 10
36.3469
 20
20.1031
 30
0.000000
  70
    32
  0
VERTEX
  8
VISIBLE_NARROW__ISO_
  5
5CB
 10
36.3429
 20
20.1039
 30
0.000000
  70
    32
  0
VERTEX
  8
VISIBLE_NARROW__ISO_
  5
5CC
 10
36.3388
 20
20.1048
 30
0.000000
  70
    32
  0
VERTEX
  8
VISIBLE_NARROW__ISO_
  5
5CD
 10
36.3348
 20
20.1056
 30
0.000000
  70
    32
  0
VERTEX
  8
VISIBLE_NARROW__ISO_
  5
5CE
 10
36.3308
 20
20.1064
 30
0.000000
  70
    32
  0
VERTEX
  8
VISIBLE_NARROW__ISO_
  5
5CF
 10
36.3268
 20
20.1071
 30
0.000000
  70
    32
  0
VERTEX
  8
VISIBLE_NARROW__ISO_
  5
5D0
 10
36.3227
 20
20.1079
 30
0.000000
  70
    32
  0
VERTEX
  8
VISIBLE_NARROW__ISO_
  5
5D1
 10
36.3187
 20
20.1087
 30
0.000000
  70
    32
  0
VERTEX
  8
VISIBLE_NARROW__ISO_
  5
5D2
 10
36.3147
 20
20.1094
 30
0.000000
  70
    32
  0
VERTEX
  8
VISIBLE_NARROW__ISO_
  5
5D3
 10
36.3107
 20
20.1101
 30
0.000000
  70
    32
  0
VERTEX
  8
VISIBLE_NARROW__ISO_
  5
5D4
 10
36.3066
 20
20.1109
 30
0.000000
  70
    32
  0
VERTEX
  8
VISIBLE_NARROW__ISO_
  5
5D5
 10
36.3026
 20
20.1116
 30
0.000000
  70
    32
  0
VERTEX
  8
VISIBLE_NARROW__ISO_
  5
5D6
 10
36.2985
 20
20.1123
 30
0.000000
  70
    32
  0
VERTEX
  8
VISIBLE_NARROW__ISO_
  5
5D7
 10
36.2945
 20
20.1129
 30
0.000000
  70
    32
  0
VERTEX
  8
VISIBLE_NARROW__ISO_
  5
5D8
 10
36.2904
 20
20.1136
 30
0.000000
  70
    32
  0
VERTEX
  8
VISIBLE_NARROW__ISO_
  5
5D9
 10
36.2864
 20
20.1143
 30
0.000000
  70
    32
  0
VERTEX
  8
VISIBLE_NARROW__ISO_
  5
5DA
 10
36.2824
 20
20.1149
 30
0.000000
  70
    32
  0
VERTEX
  8
VISIBLE_NARROW__ISO_
  5
5DB
 10
36.2783
 20
20.1155
 30
0.000000
  70
    32
  0
VERTEX
  8
VISIBLE_NARROW__ISO_
  5
5DC
 10
36.2742
 20
20.1162
 30
0.000000
  70
    32
  0
VERTEX
  8
VISIBLE_NARROW__ISO_
  5
5DD
 10
36.2702
 20
20.1168
 30
0.000000
  70
    32
  0
VERTEX
  8
VISIBLE_NARROW__ISO_
  5
5DE
 10
36.2661
 20
20.1174
 30
0.000000
  70
    32
  0
VERTEX
  8
VISIBLE_NARROW__ISO_
  5
5DF
 10
36.2621
 20
20.1179
 30
0.000000
  70
    32
  0
VERTEX
  8
VISIBLE_NARROW__ISO_
  5
5E0
 10
36.2580
 20
20.1185
 30
0.000000
  70
    32
  0
VERTEX
  8
VISIBLE_NARROW__ISO_
  5
5E1
 10
36.2540
 20
20.1191
 30
0.000000
  70
    32
  0
VERTEX
  8
VISIBLE_NARROW__ISO_
  5
5E2
 10
36.2499
 20
20.1196
 30
0.000000
  70
    32
  0
VERTEX
  8
VISIBLE_NARROW__ISO_
  5
5E3
 10
36.2458
 20
20.1201
 30
0.000000
  70
    32
  0
VERTEX
  8
VISIBLE_NARROW__ISO_
  5
5E4
 10
36.2418
 20
20.1207
 30
0.000000
  70
    32
  0
VERTEX
  8
VISIBLE_NARROW__ISO_
  5
5E5
 10
36.2377
 20
20.1212
 30
0.000000
  70
    32
  0
VERTEX
  8
VISIBLE_NARROW__ISO_
  5
5E6
 10
36.2336
 20
20.1217
 30
0.000000
  70
    32
  0
VERTEX
  8
VISIBLE_NARROW__ISO_
  5
5E7
 10
36.2296
 20
20.1222
 30
0.000000
  70
    32
  0
VERTEX
  8
VISIBLE_NARROW__ISO_
  5
5E8
 10
36.2255
 20
20.1226
 30
0.000000
  70
    32
  0
VERTEX
  8
VISIBLE_NARROW__ISO_
  5
5E9
 10
36.2214
 20
20.1231
 30
0.000000
  70
    32
  0
VERTEX
  8
VISIBLE_NARROW__ISO_
  5
5EA
 10
36.2173
 20
20.1235
 30
0.000000
  70
    32
  0
VERTEX
  8
VISIBLE_NARROW__ISO_
  5
5EB
 10
36.2133
 20
20.1240
 30
0.000000
  70
    32
  0
VERTEX
  8
VISIBLE_NARROW__ISO_
  5
5EC
 10
36.2092
 20
20.1244
 30
0.000000
  70
    32
  0
VERTEX
  8
VISIBLE_NARROW__ISO_
  5
5ED
 10
36.2051
 20
20.1248
 30
0.000000
  70
    32
  0
VERTEX
  8
VISIBLE_NARROW__ISO_
  5
5EE
 10
36.2010
 20
20.1252
 30
0.000000
  70
    32
  0
VERTEX
  8
VISIBLE_NARROW__ISO_
  5
5EF
 10
36.1969
 20
20.1256
 30
0.000000
  70
    32
  0
VERTEX
  8
VISIBLE_NARROW__ISO_
  5
5F0
 10
36.1928
 20
20.1259
 30
0.000000
  70
    32
  0
VERTEX
  8
VISIBLE_NARROW__ISO_
  5
5F1
 10
36.1888
 20
20.1263
 30
0.000000
  70
    32
  0
VERTEX
  8
VISIBLE_NARROW__ISO_
  5
5F2
 10
36.1847
 20
20.1266
 30
0.000000
  70
    32
  0
VERTEX
  8
VISIBLE_NARROW__ISO_
  5
5F3
 10
36.1806
 20
20.1270
 30
0.000000
  70
    32
  0
VERTEX
  8
VISIBLE_NARROW__ISO_
  5
5F4
 10
36.1765
 20
20.1273
 30
0.000000
  70
    32
  0
VERTEX
  8
VISIBLE_NARROW__ISO_
  5
5F5
 10
36.1724
 20
20.1276
 30
0.000000
  70
    32
  0
VERTEX
  8
VISIBLE_NARROW__ISO_
  5
5F6
 10
36.1683
 20
20.1279
 30
0.000000
  70
    32
  0
VERTEX
  8
VISIBLE_NARROW__ISO_
  5
5F7
 10
36.1642
 20
20.1282
 30
0.000000
  70
    32
  0
VERTEX
  8
VISIBLE_NARROW__ISO_
  5
5F8
 10
36.1601
 20
20.1284
 30
0.000000
  70
    32
  0
VERTEX
  8
VISIBLE_NARROW__ISO_
  5
5F9
 10
36.1561
 20
20.1287
 30
0.000000
  70
    32
  0
VERTEX
  8
VISIBLE_NARROW__ISO_
  5
5FA
 10
36.1520
 20
20.1289
 30
0.000000
  70
    32
  0
VERTEX
  8
VISIBLE_NARROW__ISO_
  5
5FB
 10
36.1479
 20
20.1292
 30
0.000000
  70
    32
  0
VERTEX
  8
VISIBLE_NARROW__ISO_
  5
5FC
 10
36.1438
 20
20.1294
 30
0.000000
  70
    32
  0
VERTEX
  8
VISIBLE_NARROW__ISO_
  5
5FD
 10
36.1397
 20
20.1296
 30
0.000000
  70
    32
  0
VERTEX
  8
VISIBLE_NARROW__ISO_
  5
5FE
 10
36.1356
 20
20.1298
 30
0.000000
  70
    32
  0
VERTEX
  8
VISIBLE_NARROW__ISO_
  5
5FF
 10
36.1315
 20
20.1300
 30
0.000000
  70
    32
  0
VERTEX
  8
VISIBLE_NARROW__ISO_
  5
600
 10
36.1274
 20
20.1301
 30
0.000000
  70
    32
  0
VERTEX
  8
VISIBLE_NARROW__ISO_
  5
601
 10
36.1233
 20
20.1303
 30
0.000000
  70
    32
  0
VERTEX
  8
VISIBLE_NARROW__ISO_
  5
602
 10
36.1192
 20
20.1304
 30
0.000000
  70
    32
  0
VERTEX
  8
VISIBLE_NARROW__ISO_
  5
603
 10
36.1151
 20
20.1306
 30
0.000000
  70
    32
  0
VERTEX
  8
VISIBLE_NARROW__ISO_
  5
604
 10
36.1110
 20
20.1307
 30
0.000000
  70
    32
  0
VERTEX
  8
VISIBLE_NARROW__ISO_
  5
605
 10
36.1069
 20
20.1308
 30
0.000000
  70
    32
  0
VERTEX
  8
VISIBLE_NARROW__ISO_
  5
606
 10
36.1028
 20
20.1309
 30
0.000000
  70
    32
  0
VERTEX
  8
VISIBLE_NARROW__ISO_
  5
607
 10
36.0987
 20
20.1310
 30
0.000000
  70
    32
  0
VERTEX
  8
VISIBLE_NARROW__ISO_
  5
608
 10
36.0946
 20
20.1310
 30
0.000000
  70
    32
  0
VERTEX
  8
VISIBLE_NARROW__ISO_
  5
609
 10
36.0905
 20
20.1311
 30
0.000000
  70
    32
  0
VERTEX
  8
VISIBLE_NARROW__ISO_
  5
60A
 10
36.0864
 20
20.1311
 30
0.000000
  70
    32
  0
VERTEX
  8
VISIBLE_NARROW__ISO_
  5
60B
 10
36.0823
 20
20.1312
 30
0.000000
  70
    32
  0
VERTEX
  8
VISIBLE_NARROW__ISO_
  5
60C
 10
36.0782
 20
20.1312
 30
0.000000
  70
    32
  0
VERTEX
  8
VISIBLE_NARROW__ISO_
  5
60D
 10
36.0741
 20
20.1312
 30
0.000000
  70
    32
  0
SEQEND
  8
VISIBLE_NARROW__ISO_
  5
60E
  0
POLYLINE
  8
VISIBLE_NARROW__ISO_
  5
60F
  66
     1
 10
0.000000
 20
0.000000
 30
0.000000
  70
     8
  0
VERTEX
  8
VISIBLE_NARROW__ISO_
  5
610
 10
36.0741
 20
2.50988
 30
0.000000
  70
    32
  0
VERTEX
  8
VISIBLE_NARROW__ISO_
  5
611
 10
36.0782
 20
2.50988
 30
0.000000
  70
    32
  0
VERTEX
  8
VISIBLE_NARROW__ISO_
  5
612
 10
36.0823
 20
2.50990
 30
0.000000
  70
    32
  0
VERTEX
  8
VISIBLE_NARROW__ISO_
  5
613
 10
36.0864
 20
2.50993
 30
0.000000
  70
    32
  0
VERTEX
  8
VISIBLE_NARROW__ISO_
  5
614
 10
36.0905
 20
2.50997
 30
0.000000
  70
    32
  0
VERTEX
  8
VISIBLE_NARROW__ISO_
  5
615
 10
36.0946
 20
2.51003
 30
0.000000
  70
    32
  0
VERTEX
  8
VISIBLE_NARROW__ISO_
  5
616
 10
36.0987
 20
2.51010
 30
0.000000
  70
    32
  0
VERTEX
  8
VISIBLE_NARROW__ISO_
  5
617
 10
36.1028
 20
2.51018
 30
0.000000
  70
    32
  0
VERTEX
  8
VISIBLE_NARROW__ISO_
  5
618
 10
36.1069
 20
2.51027
 30
0.000000
  70
    32
  0
VERTEX
  8
VISIBLE_NARROW__ISO_
  5
619
 10
36.1110
 20
2.51038
 30
0.000000
  70
    32
  0
VERTEX
  8
VISIBLE_NARROW__ISO_
  5
61A
 10
36.1151
 20
2.51050
 30
0.000000
  70
    32
  0
VERTEX
  8
VISIBLE_NARROW__ISO_
  5
61B
 10
36.1192
 20
2.51063
 30
0.000000
  70
    32
  0
VERTEX
  8
VISIBLE_NARROW__ISO_
  5
61C
 10
36.1233
 20
2.51077
 30
0.000000
  70
    32
  0
VERTEX
  8
VISIBLE_NARROW__ISO_
  5
61D
 10
36.1274
 20
2.51093
 30
0.000000
  70
    32
  0
VERTEX
  8
VISIBLE_NARROW__ISO_
  5
61E
 10
36.1315
 20
2.51110
 30
0.000000
  70
    32
  0
VERTEX
  8
VISIBLE_NARROW__ISO_
  5
61F
 10
36.1356
 20
2.51128
 30
0.000000
  70
    32
  0
VERTEX
  8
VISIBLE_NARROW__ISO_
  5
620
 10
36.1397
 20
2.51147
 30
0.000000
  70
    32
  0
VERTEX
  8
VISIBLE_NARROW__ISO_
  5
621
 10
36.1438
 20
2.51168
 30
0.000000
  70
    32
  0
VERTEX
  8
VISIBLE_NARROW__ISO_
  5
622
 10
36.1479
 20
2.51190
 30
0.000000
  70
    32
  0
VERTEX
  8
VISIBLE_NARROW__ISO_
  5
623
 10
36.1520
 20
2.51213
 30
0.000000
  70
    32
  0
VERTEX
  8
VISIBLE_NARROW__ISO_
  5
624
 10
36.1561
 20
2.51237
 30
0.000000
  70
    32
  0
VERTEX
  8
VISIBLE_NARROW__ISO_
  5
625
 10
36.1601
 20
2.51263
 30
0.000000
  70
    32
  0
VERTEX
  8
VISIBLE_NARROW__ISO_
  5
626
 10
36.1642
 20
2.51290
 30
0.000000
  70
    32
  0
VERTEX
  8
VISIBLE_NARROW__ISO_
  5
627
 10
36.1683
 20
2.51318
 30
0.000000
  70
    32
  0
VERTEX
  8
VISIBLE_NARROW__ISO_
  5
628
 10
36.1724
 20
2.51347
 30
0.000000
  70
    32
  0
VERTEX
  8
VISIBLE_NARROW__ISO_
  5
629
 10
36.1765
 20
2.51378
 30
0.000000
  70
    32
  0
VERTEX
  8
VISIBLE_NARROW__ISO_
  5
62A
 10
36.1806
 20
2.51410
 30
0.000000
  70
    32
  0
VERTEX
  8
VISIBLE_NARROW__ISO_
  5
62B
 10
36.1847
 20
2.51443
 30
0.000000
  70
    32
  0
VERTEX
  8
VISIBLE_NARROW__ISO_
  5
62C
 10
36.1888
 20
2.51478
 30
0.000000
  70
    32
  0
VERTEX
  8
VISIBLE_NARROW__ISO_
  5
62D
 10
36.1928
 20
2.51513
 30
0.000000
  70
    32
  0
VERTEX
  8
VISIBLE_NARROW__ISO_
  5
62E
 10
36.1969
 20
2.51550
 30
0.000000
  70
    32
  0
VERTEX
  8
VISIBLE_NARROW__ISO_
  5
62F
 10
36.2010
 20
2.51588
 30
0.000000
  70
    32
  0
VERTEX
  8
VISIBLE_NARROW__ISO_
  5
630
 10
36.2051
 20
2.51628
 30
0.000000
  70
    32
  0
VERTEX
  8
VISIBLE_NARROW__ISO_
  5
631
 10
36.2092
 20
2.51669
 30
0.000000
  70
    32
  0
VERTEX
  8
VISIBLE_NARROW__ISO_
  5
632
 10
36.2133
 20
2.51711
 30
0.000000
  70
    32
  0
VERTEX
  8
VISIBLE_NARROW__ISO_
  5
633
 10
36.2173
 20
2.51754
 30
0.000000
  70
    32
  0
VERTEX
  8
VISIBLE_NARROW__ISO_
  5
634
 10
36.2214
 20
2.51798
 30
0.000000
  70
    32
  0
VERTEX
  8
VISIBLE_NARROW__ISO_
  5
635
 10
36.2255
 20
2.51844
 30
0.000000
  70
    32
  0
VERTEX
  8
VISIBLE_NARROW__ISO_
  5
636
 10
36.2296
 20
2.51891
 30
0.000000
  70
    32
  0
VERTEX
  8
VISIBLE_NARROW__ISO_
  5
637
 10
36.2336
 20
2.51939
 30
0.000000
  70
    32
  0
VERTEX
  8
VISIBLE_NARROW__ISO_
  5
638
 10
36.2377
 20
2.51989
 30
0.000000
  70
    32
  0
VERTEX
  8
VISIBLE_NARROW__ISO_
  5
639
 10
36.2418
 20
2.52039
 30
0.000000
  70
    32
  0
VERTEX
  8
VISIBLE_NARROW__ISO_
  5
63A
 10
36.2458
 20
2.52091
 30
0.000000
  70
    32
  0
VERTEX
  8
VISIBLE_NARROW__ISO_
  5
63B
 10
36.2499
 20
2.52144
 30
0.000000
  70
    32
  0
VERTEX
  8
VISIBLE_NARROW__ISO_
  5
63C
 10
36.2540
 20
2.52199
 30
0.000000
  70
    32
  0
VERTEX
  8
VISIBLE_NARROW__ISO_
  5
63D
 10
36.2580
 20
2.52255
 30
0.000000
  70
    32
  0
VERTEX
  8
VISIBLE_NARROW__ISO_
  5
63E
 10
36.2621
 20
2.52312
 30
0.000000
  70
    32
  0
VERTEX
  8
VISIBLE_NARROW__ISO_
  5
63F
 10
36.2661
 20
2.52370
 30
0.000000
  70
    32
  0
VERTEX
  8
VISIBLE_NARROW__ISO_
  5
640
 10
36.2702
 20
2.52429
 30
0.000000
  70
    32
  0
VERTEX
  8
VISIBLE_NARROW__ISO_
  5
641
 10
36.2743
 20
2.52490
 30
0.000000
  70
    32
  0
VERTEX
  8
VISIBLE_NARROW__ISO_
  5
642
 10
36.2783
 20
2.52552
 30
0.000000
  70
    32
  0
VERTEX
  8
VISIBLE_NARROW__ISO_
  5
643
 10
36.2824
 20
2.52615
 30
0.000000
  70
    32
  0
VERTEX
  8
VISIBLE_NARROW__ISO_
  5
644
 10
36.2864
 20
2.52679
 30
0.000000
  70
    32
  0
VERTEX
  8
VISIBLE_NARROW__ISO_
  5
645
 10
36.2905
 20
2.52745
 30
0.000000
  70
    32
  0
VERTEX
  8
VISIBLE_NARROW__ISO_
  5
646
 10
36.2945
 20
2.52812
 30
0.000000
  70
    32
  0
VERTEX
  8
VISIBLE_NARROW__ISO_
  5
647
 10
36.2985
 20
2.52880
 30
0.000000
  70
    32
  0
VERTEX
  8
VISIBLE_NARROW__ISO_
  5
648
 10
36.3026
 20
2.52950
 30
0.000000
  70
    32
  0
VERTEX
  8
VISIBLE_NARROW__ISO_
  5
649
 10
36.3066
 20
2.53020
 30
0.000000
  70
    32
  0
VERTEX
  8
VISIBLE_NARROW__ISO_
  5
64A
 10
36.3107
 20
2.53092
 30
0.000000
  70
    32
  0
VERTEX
  8
VISIBLE_NARROW__ISO_
  5
64B
 10
36.3147
 20
2.53165
 30
0.000000
  70
    32
  0
VERTEX
  8
VISIBLE_NARROW__ISO_
  5
64C
 10
36.3187
 20
2.53240
 30
0.000000
  70
    32
  0
VERTEX
  8
VISIBLE_NARROW__ISO_
  5
64D
 10
36.3228
 20
2.53315
 30
0.000000
  70
    32
  0
VERTEX
  8
VISIBLE_NARROW__ISO_
  5
64E
 10
36.3268
 20
2.53392
 30
0.000000
  70
    32
  0
VERTEX
  8
VISIBLE_NARROW__ISO_
  5
64F
 10
36.3308
 20
2.53470
 30
0.000000
  70
    32
  0
VERTEX
  8
VISIBLE_NARROW__ISO_
  5
650
 10
36.3348
 20
2.53550
 30
0.000000
  70
    32
  0
VERTEX
  8
VISIBLE_NARROW__ISO_
  5
651
 10
36.3388
 20
2.53630
 30
0.000000
  70
    32
  0
VERTEX
  8
VISIBLE_NARROW__ISO_
  5
652
 10
36.3429
 20
2.53712
 30
0.000000
  70
    32
  0
VERTEX
  8
VISIBLE_NARROW__ISO_
  5
653
 10
36.3469
 20
2.53795
 30
0.000000
  70
    32
  0
VERTEX
  8
VISIBLE_NARROW__ISO_
  5
654
 10
36.3509
 20
2.53880
 30
0.000000
  70
    32
  0
VERTEX
  8
VISIBLE_NARROW__ISO_
  5
655
 10
36.3549
 20
2.53965
 30
0.000000
  70
    32
  0
VERTEX
  8
VISIBLE_NARROW__ISO_
  5
656
 10
36.3589
 20
2.54052
 30
0.000000
  70
    32
  0
VERTEX
  8
VISIBLE_NARROW__ISO_
  5
657
 10
36.3629
 20
2.54140
 30
0.000000
  70
    32
  0
VERTEX
  8
VISIBLE_NARROW__ISO_
  5
658
 10
36.3669
 20
2.54229
 30
0.000000
  70
    32
  0
VERTEX
  8
VISIBLE_NARROW__ISO_
  5
659
 10
36.3709
 20
2.54320
 30
0.000000
  70
    32
  0
VERTEX
  8
VISIBLE_NARROW__ISO_
  5
65A
 10
36.3749
 20
2.54411
 30
0.000000
  70
    32
  0
VERTEX
  8
VISIBLE_NARROW__ISO_
  5
65B
 10
36.3789
 20
2.54504
 30
0.000000
  70
    32
  0
VERTEX
  8
VISIBLE_NARROW__ISO_
  5
65C
 10
36.3829
 20
2.54599
 30
0.000000
  70
    32
  0
VERTEX
  8
VISIBLE_NARROW__ISO_
  5
65D
 10
36.3869
 20
2.54694
 30
0.000000
  70
    32
  0
VERTEX
  8
VISIBLE_NARROW__ISO_
  5
65E
 10
36.3909
 20
2.54791
 30
0.000000
  70
    32
  0
VERTEX
  8
VISIBLE_NARROW__ISO_
  5
65F
 10
36.3948
 20
2.54888
 30
0.000000
  70
    32
  0
VERTEX
  8
VISIBLE_NARROW__ISO_
  5
660
 10
36.3988
 20
2.54987
 30
0.000000
  70
    32
  0
VERTEX
  8
VISIBLE_NARROW__ISO_
  5
661
 10
36.4028
 20
2.55088
 30
0.000000
  70
    32
  0
VERTEX
  8
VISIBLE_NARROW__ISO_
  5
662
 10
36.4068
 20
2.55189
 30
0.000000
  70
    32
  0
VERTEX
  8
VISIBLE_NARROW__ISO_
  5
663
 10
36.4107
 20
2.55292
 30
0.000000
  70
    32
  0
VERTEX
  8
VISIBLE_NARROW__ISO_
  5
664
 10
36.4147
 20
2.55396
 30
0.000000
  70
    32
  0
VERTEX
  8
VISIBLE_NARROW__ISO_
  5
665
 10
36.4187
 20
2.55501
 30
0.000000
  70
    32
  0
VERTEX
  8
VISIBLE_NARROW__ISO_
  5
666
 10
36.4226
 20
2.55607
 30
0.000000
  70
    32
  0
VERTEX
  8
VISIBLE_NARROW__ISO_
  5
667
 10
36.4266
 20
2.55715
 30
0.000000
  70
    32
  0
VERTEX
  8
VISIBLE_NARROW__ISO_
  5
668
 10
36.4305
 20
2.55824
 30
0.000000
  70
    32
  0
VERTEX
  8
VISIBLE_NARROW__ISO_
  5
669
 10
36.4345
 20
2.55934
 30
0.000000
  70
    32
  0
VERTEX
  8
VISIBLE_NARROW__ISO_
  5
66A
 10
36.4384
 20
2.56045
 30
0.000000
  70
    32
  0
VERTEX
  8
VISIBLE_NARROW__ISO_
  5
66B
 10
36.4424
 20
2.56157
 30
0.000000
  70
    32
  0
VERTEX
  8
VISIBLE_NARROW__ISO_
  5
66C
 10
36.4463
 20
2.56271
 30
0.000000
  70
    32
  0
VERTEX
  8
VISIBLE_NARROW__ISO_
  5
66D
 10
36.4503
 20
2.56386
 30
0.000000
  70
    32
  0
VERTEX
  8
VISIBLE_NARROW__ISO_
  5
66E
 10
36.4542
 20
2.56502
 30
0.000000
  70
    32
  0
VERTEX
  8
VISIBLE_NARROW__ISO_
  5
66F
 10
36.4581
 20
2.56619
 30
0.000000
  70
    32
  0
VERTEX
  8
VISIBLE_NARROW__ISO_
  5
670
 10
36.4620
 20
2.56738
 30
0.000000
  70
    32
  0
VERTEX
  8
VISIBLE_NARROW__ISO_
  5
671
 10
36.4660
 20
2.56857
 30
0.000000
  70
    32
  0
VERTEX
  8
VISIBLE_NARROW__ISO_
  5
672
 10
36.4699
 20
2.56978
 30
0.000000
  70
    32
  0
VERTEX
  8
VISIBLE_NARROW__ISO_
  5
673
 10
36.4738
 20
2.57100
 30
0.000000
  70
    32
  0
VERTEX
  8
VISIBLE_NARROW__ISO_
  5
674
 10
36.4777
 20
2.57223
 30
0.000000
  70
    32
  0
VERTEX
  8
VISIBLE_NARROW__ISO_
  5
675
 10
36.4816
 20
2.57348
 30
0.000000
  70
    32
  0
VERTEX
  8
VISIBLE_NARROW__ISO_
  5
676
 10
36.4855
 20
2.57474
 30
0.000000
  70
    32
  0
VERTEX
  8
VISIBLE_NARROW__ISO_
  5
677
 10
36.4894
 20
2.57600
 30
0.000000
  70
    32
  0
VERTEX
  8
VISIBLE_NARROW__ISO_
  5
678
 10
36.4933
 20
2.57728
 30
0.000000
  70
    32
  0
VERTEX
  8
VISIBLE_NARROW__ISO_
  5
679
 10
36.4972
 20
2.57858
 30
0.000000
  70
    32
  0
VERTEX
  8
VISIBLE_NARROW__ISO_
  5
67A
 10
36.5011
 20
2.57988
 30
0.000000
  70
    32
  0
VERTEX
  8
VISIBLE_NARROW__ISO_
  5
67B
 10
36.5050
 20
2.58120
 30
0.000000
  70
    32
  0
VERTEX
  8
VISIBLE_NARROW__ISO_
  5
67C
 10
36.5089
 20
2.58252
 30
0.000000
  70
    32
  0
VERTEX
  8
VISIBLE_NARROW__ISO_
  5
67D
 10
36.5127
 20
2.58386
 30
0.000000
  70
    32
  0
VERTEX
  8
VISIBLE_NARROW__ISO_
  5
67E
 10
36.5166
 20
2.58522
 30
0.000000
  70
    32
  0
VERTEX
  8
VISIBLE_NARROW__ISO_
  5
67F
 10
36.5205
 20
2.58658
 30
0.000000
  70
    32
  0
VERTEX
  8
VISIBLE_NARROW__ISO_
  5
680
 10
36.5243
 20
2.58796
 30
0.000000
  70
    32
  0
VERTEX
  8
VISIBLE_NARROW__ISO_
  5
681
 10
36.5282
 20
2.58934
 30
0.000000
  70
    32
  0
VERTEX
  8
VISIBLE_NARROW__ISO_
  5
682
 10
36.5320
 20
2.59074
 30
0.000000
  70
    32
  0
VERTEX
  8
VISIBLE_NARROW__ISO_
  5
683
 10
36.5359
 20
2.59215
 30
0.000000
  70
    32
  0
VERTEX
  8
VISIBLE_NARROW__ISO_
  5
684
 10
36.5397
 20
2.59358
 30
0.000000
  70
    32
  0
VERTEX
  8
VISIBLE_NARROW__ISO_
  5
685
 10
36.5436
 20
2.59501
 30
0.000000
  70
    32
  0
VERTEX
  8
VISIBLE_NARROW__ISO_
  5
686
 10
36.5474
 20
2.59646
 30
0.000000
  70
    32
  0
VERTEX
  8
VISIBLE_NARROW__ISO_
  5
687
 10
36.5513
 20
2.59792
 30
0.000000
  70
    32
  0
VERTEX
  8
VISIBLE_NARROW__ISO_
  5
688
 10
36.5551
 20
2.59939
 30
0.000000
  70
    32
  0
VERTEX
  8
VISIBLE_NARROW__ISO_
  5
689
 10
36.5589
 20
2.60087
 30
0.000000
  70
    32
  0
VERTEX
  8
VISIBLE_NARROW__ISO_
  5
68A
 10
36.5627
 20
2.60236
 30
0.000000
  70
    32
  0
VERTEX
  8
VISIBLE_NARROW__ISO_
  5
68B
 10
36.5665
 20
2.60387
 30
0.000000
  70
    32
  0
VERTEX
  8
VISIBLE_NARROW__ISO_
  5
68C
 10
36.5704
 20
2.60538
 30
0.000000
  70
    32
  0
VERTEX
  8
VISIBLE_NARROW__ISO_
  5
68D
 10
36.5742
 20
2.60691
 30
0.000000
  70
    32
  0
VERTEX
  8
VISIBLE_NARROW__ISO_
  5
68E
 10
36.5780
 20
2.60845
 30
0.000000
  70
    32
  0
VERTEX
  8
VISIBLE_NARROW__ISO_
  5
68F
 10
36.5818
 20
2.61001
 30
0.000000
  70
    32
  0
VERTEX
  8
VISIBLE_NARROW__ISO_
  5
690
 10
36.5855
 20
2.61157
 30
0.000000
  70
    32
  0
VERTEX
  8
VISIBLE_NARROW__ISO_
  5
691
 10
36.5893
 20
2.61315
 30
0.000000
  70
    32
  0
VERTEX
  8
VISIBLE_NARROW__ISO_
  5
692
 10
36.5931
 20
2.61473
 30
0.000000
  70
    32
  0
VERTEX
  8
VISIBLE_NARROW__ISO_
  5
693
 10
36.5969
 20
2.61633
 30
0.000000
  70
    32
  0
VERTEX
  8
VISIBLE_NARROW__ISO_
  5
694
 10
36.6007
 20
2.61794
 30
0.000000
  70
    32
  0
VERTEX
  8
VISIBLE_NARROW__ISO_
  5
695
 10
36.6044
 20
2.61956
 30
0.000000
  70
    32
  0
VERTEX
  8
VISIBLE_NARROW__ISO_
  5
696
 10
36.6082
 20
2.62120
 30
0.000000
  70
    32
  0
VERTEX
  8
VISIBLE_NARROW__ISO_
  5
697
 10
36.6119
 20
2.62284
 30
0.000000
  70
    32
  0
VERTEX
  8
VISIBLE_NARROW__ISO_
  5
698
 10
36.6157
 20
2.62450
 30
0.000000
  70
    32
  0
VERTEX
  8
VISIBLE_NARROW__ISO_
  5
699
 10
36.6194
 20
2.62617
 30
0.000000
  70
    32
  0
VERTEX
  8
VISIBLE_NARROW__ISO_
  5
69A
 10
36.6232
 20
2.62785
 30
0.000000
  70
    32
  0
VERTEX
  8
VISIBLE_NARROW__ISO_
  5
69B
 10
36.6269
 20
2.62954
 30
0.000000
  70
    32
  0
VERTEX
  8
VISIBLE_NARROW__ISO_
  5
69C
 10
36.6306
 20
2.63124
 30
0.000000
  70
    32
  0
VERTEX
  8
VISIBLE_NARROW__ISO_
  5
69D
 10
36.6344
 20
2.63296
 30
0.000000
  70
    32
  0
VERTEX
  8
VISIBLE_NARROW__ISO_
  5
69E
 10
36.6381
 20
2.63468
 30
0.000000
  70
    32
  0
VERTEX
  8
VISIBLE_NARROW__ISO_
  5
69F
 10
36.6418
 20
2.63642
 30
0.000000
  70
    32
  0
VERTEX
  8
VISIBLE_NARROW__ISO_
  5
6A0
 10
36.6455
 20
2.63817
 30
0.000000
  70
    32
  0
VERTEX
  8
VISIBLE_NARROW__ISO_
  5
6A1
 10
36.6492
 20
2.63993
 30
0.000000
  70
    32
  0
VERTEX
  8
VISIBLE_NARROW__ISO_
  5
6A2
 10
36.6529
 20
2.64170
 30
0.000000
  70
    32
  0
VERTEX
  8
VISIBLE_NARROW__ISO_
  5
6A3
 10
36.6566
 20
2.64349
 30
0.000000
  70
    32
  0
VERTEX
  8
VISIBLE_NARROW__ISO_
  5
6A4
 10
36.6603
 20
2.64528
 30
0.000000
  70
    32
  0
VERTEX
  8
VISIBLE_NARROW__ISO_
  5
6A5
 10
36.6640
 20
2.64709
 30
0.000000
  70
    32
  0
VERTEX
  8
VISIBLE_NARROW__ISO_
  5
6A6
 10
36.6676
 20
2.64891
 30
0.000000
  70
    32
  0
VERTEX
  8
VISIBLE_NARROW__ISO_
  5
6A7
 10
36.6713
 20
2.65073
 30
0.000000
  70
    32
  0
VERTEX
  8
VISIBLE_NARROW__ISO_
  5
6A8
 10
36.6750
 20
2.65257
 30
0.000000
  70
    32
  0
VERTEX
  8
VISIBLE_NARROW__ISO_
  5
6A9
 10
36.6786
 20
2.65443
 30
0.000000
  70
    32
  0
VERTEX
  8
VISIBLE_NARROW__ISO_
  5
6AA
 10
36.6823
 20
2.65629
 30
0.000000
  70
    32
  0
VERTEX
  8
VISIBLE_NARROW__ISO_
  5
6AB
 10
36.6859
 20
2.65816
 30
0.000000
  70
    32
  0
VERTEX
  8
VISIBLE_NARROW__ISO_
  5
6AC
 10
36.6896
 20
2.66005
 30
0.000000
  70
    32
  0
VERTEX
  8
VISIBLE_NARROW__ISO_
  5
6AD
 10
36.6932
 20
2.66195
 30
0.000000
  70
    32
  0
VERTEX
  8
VISIBLE_NARROW__ISO_
  5
6AE
 10
36.6969
 20
2.66385
 30
0.000000
  70
    32
  0
VERTEX
  8
VISIBLE_NARROW__ISO_
  5
6AF
 10
36.7005
 20
2.66577
 30
0.000000
  70
    32
  0
VERTEX
  8
VISIBLE_NARROW__ISO_
  5
6B0
 10
36.7041
 20
2.66770
 30
0.000000
  70
    32
  0
VERTEX
  8
VISIBLE_NARROW__ISO_
  5
6B1
 10
36.7077
 20
2.66964
 30
0.000000
  70
    32
  0
VERTEX
  8
VISIBLE_NARROW__ISO_
  5
6B2
 10
36.7113
 20
2.67160
 30
0.000000
  70
    32
  0
VERTEX
  8
VISIBLE_NARROW__ISO_
  5
6B3
 10
36.7149
 20
2.67356
 30
0.000000
  70
    32
  0
VERTEX
  8
VISIBLE_NARROW__ISO_
  5
6B4
 10
36.7185
 20
2.67553
 30
0.000000
  70
    32
  0
VERTEX
  8
VISIBLE_NARROW__ISO_
  5
6B5
 10
36.7221
 20
2.67752
 30
0.000000
  70
    32
  0
VERTEX
  8
VISIBLE_NARROW__ISO_
  5
6B6
 10
36.7257
 20
2.67952
 30
0.000000
  70
    32
  0
VERTEX
  8
VISIBLE_NARROW__ISO_
  5
6B7
 10
36.7293
 20
2.68152
 30
0.000000
  70
    32
  0
VERTEX
  8
VISIBLE_NARROW__ISO_
  5
6B8
 10
36.7328
 20
2.68354
 30
0.000000
  70
    32
  0
VERTEX
  8
VISIBLE_NARROW__ISO_
  5
6B9
 10
36.7364
 20
2.68557
 30
0.000000
  70
    32
  0
VERTEX
  8
VISIBLE_NARROW__ISO_
  5
6BA
 10
36.7399
 20
2.68761
 30
0.000000
  70
    32
  0
VERTEX
  8
VISIBLE_NARROW__ISO_
  5
6BB
 10
36.7435
 20
2.68966
 30
0.000000
  70
    32
  0
VERTEX
  8
VISIBLE_NARROW__ISO_
  5
6BC
 10
36.7470
 20
2.69173
 30
0.000000
  70
    32
  0
VERTEX
  8
VISIBLE_NARROW__ISO_
  5
6BD
 10
36.7506
 20
2.69380
 30
0.000000
  70
    32
  0
VERTEX
  8
VISIBLE_NARROW__ISO_
  5
6BE
 10
36.7541
 20
2.69588
 30
0.000000
  70
    32
  0
VERTEX
  8
VISIBLE_NARROW__ISO_
  5
6BF
 10
36.7576
 20
2.69798
 30
0.000000
  70
    32
  0
VERTEX
  8
VISIBLE_NARROW__ISO_
  5
6C0
 10
36.7612
 20
2.70008
 30
0.000000
  70
    32
  0
VERTEX
  8
VISIBLE_NARROW__ISO_
  5
6C1
 10
36.7647
 20
2.70220
 30
0.000000
  70
    32
  0
VERTEX
  8
VISIBLE_NARROW__ISO_
  5
6C2
 10
36.7682
 20
2.70433
 30
0.000000
  70
    32
  0
VERTEX
  8
VISIBLE_NARROW__ISO_
  5
6C3
 10
36.7717
 20
2.70647
 30
0.000000
  70
    32
  0
VERTEX
  8
VISIBLE_NARROW__ISO_
  5
6C4
 10
36.7752
 20
2.70861
 30
0.000000
  70
    32
  0
VERTEX
  8
VISIBLE_NARROW__ISO_
  5
6C5
 10
36.7786
 20
2.71077
 30
0.000000
  70
    32
  0
VERTEX
  8
VISIBLE_NARROW__ISO_
  5
6C6
 10
36.7821
 20
2.71294
 30
0.000000
  70
    32
  0
VERTEX
  8
VISIBLE_NARROW__ISO_
  5
6C7
 10
36.7856
 20
2.71512
 30
0.000000
  70
    32
  0
VERTEX
  8
VISIBLE_NARROW__ISO_
  5
6C8
 10
36.7891
 20
2.71732
 30
0.000000
  70
    32
  0
VERTEX
  8
VISIBLE_NARROW__ISO_
  5
6C9
 10
36.7925
 20
2.71952
 30
0.000000
  70
    32
  0
VERTEX
  8
VISIBLE_NARROW__ISO_
  5
6CA
 10
36.7960
 20
2.72173
 30
0.000000
  70
    32
  0
VERTEX
  8
VISIBLE_NARROW__ISO_
  5
6CB
 10
36.7994
 20
2.72395
 30
0.000000
  70
    32
  0
VERTEX
  8
VISIBLE_NARROW__ISO_
  5
6CC
 10
36.8029
 20
2.72619
 30
0.000000
  70
    32
  0
VERTEX
  8
VISIBLE_NARROW__ISO_
  5
6CD
 10
36.8063
 20
2.72843
 30
0.000000
  70
    32
  0
VERTEX
  8
VISIBLE_NARROW__ISO_
  5
6CE
 10
36.8097
 20
2.73069
 30
0.000000
  70
    32
  0
VERTEX
  8
VISIBLE_NARROW__ISO_
  5
6CF
 10
36.8131
 20
2.73295
 30
0.000000
  70
    32
  0
VERTEX
  8
VISIBLE_NARROW__ISO_
  5
6D0
 10
36.8166
 20
2.73523
 30
0.000000
  70
    32
  0
VERTEX
  8
VISIBLE_NARROW__ISO_
  5
6D1
 10
36.8200
 20
2.73752
 30
0.000000
  70
    32
  0
VERTEX
  8
VISIBLE_NARROW__ISO_
  5
6D2
 10
36.8234
 20
2.73981
 30
0.000000
  70
    32
  0
VERTEX
  8
VISIBLE_NARROW__ISO_
  5
6D3
 10
36.8267
 20
2.74212
 30
0.000000
  70
    32
  0
VERTEX
  8
VISIBLE_NARROW__ISO_
  5
6D4
 10
36.8301
 20
2.74444
 30
0.000000
  70
    32
  0
VERTEX
  8
VISIBLE_NARROW__ISO_
  5
6D5
 10
36.8335
 20
2.74676
 30
0.000000
  70
    32
  0
VERTEX
  8
VISIBLE_NARROW__ISO_
  5
6D6
 10
36.8369
 20
2.74910
 30
0.000000
  70
    32
  0
VERTEX
  8
VISIBLE_NARROW__ISO_
  5
6D7
 10
36.8402
 20
2.75145
 30
0.000000
  70
    32
  0
VERTEX
  8
VISIBLE_NARROW__ISO_
  5
6D8
 10
36.8436
 20
2.75381
 30
0.000000
  70
    32
  0
VERTEX
  8
VISIBLE_NARROW__ISO_
  5
6D9
 10
36.8469
 20
2.75618
 30
0.000000
  70
    32
  0
VERTEX
  8
VISIBLE_NARROW__ISO_
  5
6DA
 10
36.8503
 20
2.75856
 30
0.000000
  70
    32
  0
VERTEX
  8
VISIBLE_NARROW__ISO_
  5
6DB
 10
36.8536
 20
2.76095
 30
0.000000
  70
    32
  0
VERTEX
  8
VISIBLE_NARROW__ISO_
  5
6DC
 10
36.8569
 20
2.76335
 30
0.000000
  70
    32
  0
VERTEX
  8
VISIBLE_NARROW__ISO_
  5
6DD
 10
36.8603
 20
2.76576
 30
0.000000
  70
    32
  0
VERTEX
  8
VISIBLE_NARROW__ISO_
  5
6DE
 10
36.8636
 20
2.76818
 30
0.000000
  70
    32
  0
VERTEX
  8
VISIBLE_NARROW__ISO_
  5
6DF
 10
36.8669
 20
2.77061
 30
0.000000
  70
    32
  0
VERTEX
  8
VISIBLE_NARROW__ISO_
  5
6E0
 10
36.8702
 20
2.77305
 30
0.000000
  70
    32
  0
VERTEX
  8
VISIBLE_NARROW__ISO_
  5
6E1
 10
36.8735
 20
2.77550
 30
0.000000
  70
    32
  0
VERTEX
  8
VISIBLE_NARROW__ISO_
  5
6E2
 10
36.8767
 20
2.77796
 30
0.000000
  70
    32
  0
VERTEX
  8
VISIBLE_NARROW__ISO_
  5
6E3
 10
36.8800
 20
2.78043
 30
0.000000
  70
    32
  0
VERTEX
  8
VISIBLE_NARROW__ISO_
  5
6E4
 10
36.8833
 20
2.78292
 30
0.000000
  70
    32
  0
VERTEX
  8
VISIBLE_NARROW__ISO_
  5
6E5
 10
36.8865
 20
2.78541
 30
0.000000
  70
    32
  0
VERTEX
  8
VISIBLE_NARROW__ISO_
  5
6E6
 10
36.8898
 20
2.78791
 30
0.000000
  70
    32
  0
VERTEX
  8
VISIBLE_NARROW__ISO_
  5
6E7
 10
36.8930
 20
2.79042
 30
0.000000
  70
    32
  0
VERTEX
  8
VISIBLE_NARROW__ISO_
  5
6E8
 10
36.8963
 20
2.79294
 30
0.000000
  70
    32
  0
VERTEX
  8
VISIBLE_NARROW__ISO_
  5
6E9
 10
36.8995
 20
2.79547
 30
0.000000
  70
    32
  0
VERTEX
  8
VISIBLE_NARROW__ISO_
  5
6EA
 10
36.9027
 20
2.79801
 30
0.000000
  70
    32
  0
VERTEX
  8
VISIBLE_NARROW__ISO_
  5
6EB
 10
36.9059
 20
2.80056
 30
0.000000
  70
    32
  0
VERTEX
  8
VISIBLE_NARROW__ISO_
  5
6EC
 10
36.9091
 20
2.80312
 30
0.000000
  70
    32
  0
VERTEX
  8
VISIBLE_NARROW__ISO_
  5
6ED
 10
36.9123
 20
2.80569
 30
0.000000
  70
    32
  0
VERTEX
  8
VISIBLE_NARROW__ISO_
  5
6EE
 10
36.9155
 20
2.80828
 30
0.000000
  70
    32
  0
VERTEX
  8
VISIBLE_NARROW__ISO_
  5
6EF
 10
36.9187
 20
2.81087
 30
0.000000
  70
    32
  0
VERTEX
  8
VISIBLE_NARROW__ISO_
  5
6F0
 10
36.9218
 20
2.81347
 30
0.000000
  70
    32
  0
VERTEX
  8
VISIBLE_NARROW__ISO_
  5
6F1
 10
36.9250
 20
2.81608
 30
0.000000
  70
    32
  0
VERTEX
  8
VISIBLE_NARROW__ISO_
  5
6F2
 10
36.9282
 20
2.81870
 30
0.000000
  70
    32
  0
VERTEX
  8
VISIBLE_NARROW__ISO_
  5
6F3
 10
36.9313
 20
2.82133
 30
0.000000
  70
    32
  0
VERTEX
  8
VISIBLE_NARROW__ISO_
  5
6F4
 10
36.9345
 20
2.82396
 30
0.000000
  70
    32
  0
VERTEX
  8
VISIBLE_NARROW__ISO_
  5
6F5
 10
36.9376
 20
2.82661
 30
0.000000
  70
    32
  0
VERTEX
  8
VISIBLE_NARROW__ISO_
  5
6F6
 10
36.9407
 20
2.82927
 30
0.000000
  70
    32
  0
VERTEX
  8
VISIBLE_NARROW__ISO_
  5
6F7
 10
36.9438
 20
2.83194
 30
0.000000
  70
    32
  0
VERTEX
  8
VISIBLE_NARROW__ISO_
  5
6F8
 10
36.9469
 20
2.83462
 30
0.000000
  70
    32
  0
VERTEX
  8
VISIBLE_NARROW__ISO_
  5
6F9
 10
36.9500
 20
2.83731
 30
0.000000
  70
    32
  0
VERTEX
  8
VISIBLE_NARROW__ISO_
  5
6FA
 10
36.9531
 20
2.84000
 30
0.000000
  70
    32
  0
VERTEX
  8
VISIBLE_NARROW__ISO_
  5
6FB
 10
36.9562
 20
2.84271
 30
0.000000
  70
    32
  0
VERTEX
  8
VISIBLE_NARROW__ISO_
  5
6FC
 10
36.9593
 20
2.84543
 30
0.000000
  70
    32
  0
VERTEX
  8
VISIBLE_NARROW__ISO_
  5
6FD
 10
36.9623
 20
2.84815
 30
0.000000
  70
    32
  0
VERTEX
  8
VISIBLE_NARROW__ISO_
  5
6FE
 10
36.9654
 20
2.85089
 30
0.000000
  70
    32
  0
VERTEX
  8
VISIBLE_NARROW__ISO_
  5
6FF
 10
36.9684
 20
2.85363
 30
0.000000
  70
    32
  0
VERTEX
  8
VISIBLE_NARROW__ISO_
  5
700
 10
36.9715
 20
2.85639
 30
0.000000
  70
    32
  0
VERTEX
  8
VISIBLE_NARROW__ISO_
  5
701
 10
36.9745
 20
2.85915
 30
0.000000
  70
    32
  0
VERTEX
  8
VISIBLE_NARROW__ISO_
  5
702
 10
36.9775
 20
2.86192
 30
0.000000
  70
    32
  0
VERTEX
  8
VISIBLE_NARROW__ISO_
  5
703
 10
36.9805
 20
2.86470
 30
0.000000
  70
    32
  0
VERTEX
  8
VISIBLE_NARROW__ISO_
  5
704
 10
36.9835
 20
2.86749
 30
0.000000
  70
    32
  0
VERTEX
  8
VISIBLE_NARROW__ISO_
  5
705
 10
36.9865
 20
2.87029
 30
0.000000
  70
    32
  0
VERTEX
  8
VISIBLE_NARROW__ISO_
  5
706
 10
36.9895
 20
2.87310
 30
0.000000
  70
    32
  0
VERTEX
  8
VISIBLE_NARROW__ISO_
  5
707
 10
36.9925
 20
2.87592
 30
0.000000
  70
    32
  0
VERTEX
  8
VISIBLE_NARROW__ISO_
  5
708
 10
36.9955
 20
2.87875
 30
0.000000
  70
    32
  0
VERTEX
  8
VISIBLE_NARROW__ISO_
  5
709
 10
36.9984
 20
2.88159
 30
0.000000
  70
    32
  0
VERTEX
  8
VISIBLE_NARROW__ISO_
  5
70A
 10
37.0014
 20
2.88443
 30
0.000000
  70
    32
  0
VERTEX
  8
VISIBLE_NARROW__ISO_
  5
70B
 10
37.0043
 20
2.88729
 30
0.000000
  70
    32
  0
VERTEX
  8
VISIBLE_NARROW__ISO_
  5
70C
 10
37.0073
 20
2.89015
 30
0.000000
  70
    32
  0
VERTEX
  8
VISIBLE_NARROW__ISO_
  5
70D
 10
37.0102
 20
2.89303
 30
0.000000
  70
    32
  0
VERTEX
  8
VISIBLE_NARROW__ISO_
  5
70E
 10
37.0131
 20
2.89591
 30
0.000000
  70
    32
  0
VERTEX
  8
VISIBLE_NARROW__ISO_
  5
70F
 10
37.0160
 20
2.89880
 30
0.000000
  70
    32
  0
VERTEX
  8
VISIBLE_NARROW__ISO_
  5
710
 10
37.0189
 20
2.90170
 30
0.000000
  70
    32
  0
VERTEX
  8
VISIBLE_NARROW__ISO_
  5
711
 10
37.0218
 20
2.90461
 30
0.000000
  70
    32
  0
VERTEX
  8
VISIBLE_NARROW__ISO_
  5
712
 10
37.0247
 20
2.90753
 30
0.000000
  70
    32
  0
VERTEX
  8
VISIBLE_NARROW__ISO_
  5
713
 10
37.0276
 20
2.91046
 30
0.000000
  70
    32
  0
VERTEX
  8
VISIBLE_NARROW__ISO_
  5
714
 10
37.0304
 20
2.91339
 30
0.000000
  70
    32
  0
VERTEX
  8
VISIBLE_NARROW__ISO_
  5
715
 10
37.0333
 20
2.91634
 30
0.000000
  70
    32
  0
VERTEX
  8
VISIBLE_NARROW__ISO_
  5
716
 10
37.0361
 20
2.91929
 30
0.000000
  70
    32
  0
VERTEX
  8
VISIBLE_NARROW__ISO_
  5
717
 10
37.0390
 20
2.92225
 30
0.000000
  70
    32
  0
VERTEX
  8
VISIBLE_NARROW__ISO_
  5
718
 10
37.0418
 20
2.92522
 30
0.000000
  70
    32
  0
VERTEX
  8
VISIBLE_NARROW__ISO_
  5
719
 10
37.0446
 20
2.92820
 30
0.000000
  70
    32
  0
VERTEX
  8
VISIBLE_NARROW__ISO_
  5
71A
 10
37.0474
 20
2.93119
 30
0.000000
  70
    32
  0
VERTEX
  8
VISIBLE_NARROW__ISO_
  5
71B
 10
37.0502
 20
2.93419
 30
0.000000
  70
    32
  0
VERTEX
  8
VISIBLE_NARROW__ISO_
  5
71C
 10
37.0530
 20
2.93719
 30
0.000000
  70
    32
  0
VERTEX
  8
VISIBLE_NARROW__ISO_
  5
71D
 10
37.0558
 20
2.94021
 30
0.000000
  70
    32
  0
VERTEX
  8
VISIBLE_NARROW__ISO_
  5
71E
 10
37.0586
 20
2.94323
 30
0.000000
  70
    32
  0
VERTEX
  8
VISIBLE_NARROW__ISO_
  5
71F
 10
37.0613
 20
2.94626
 30
0.000000
  70
    32
  0
VERTEX
  8
VISIBLE_NARROW__ISO_
  5
720
 10
37.0641
 20
2.94930
 30
0.000000
  70
    32
  0
VERTEX
  8
VISIBLE_NARROW__ISO_
  5
721
 10
37.0668
 20
2.95235
 30
0.000000
  70
    32
  0
VERTEX
  8
VISIBLE_NARROW__ISO_
  5
722
 10
37.0696
 20
2.95540
 30
0.000000
  70
    32
  0
VERTEX
  8
VISIBLE_NARROW__ISO_
  5
723
 10
37.0723
 20
2.95847
 30
0.000000
  70
    32
  0
VERTEX
  8
VISIBLE_NARROW__ISO_
  5
724
 10
37.0750
 20
2.96154
 30
0.000000
  70
    32
  0
VERTEX
  8
VISIBLE_NARROW__ISO_
  5
725
 10
37.0777
 20
2.96462
 30
0.000000
  70
    32
  0
VERTEX
  8
VISIBLE_NARROW__ISO_
  5
726
 10
37.0804
 20
2.96771
 30
0.000000
  70
    32
  0
VERTEX
  8
VISIBLE_NARROW__ISO_
  5
727
 10
37.0831
 20
2.97081
 30
0.000000
  70
    32
  0
VERTEX
  8
VISIBLE_NARROW__ISO_
  5
728
 10
37.0858
 20
2.97391
 30
0.000000
  70
    32
  0
VERTEX
  8
VISIBLE_NARROW__ISO_
  5
729
 10
37.0884
 20
2.97703
 30
0.000000
  70
    32
  0
VERTEX
  8
VISIBLE_NARROW__ISO_
  5
72A
 10
37.0911
 20
2.98015
 30
0.000000
  70
    32
  0
VERTEX
  8
VISIBLE_NARROW__ISO_
  5
72B
 10
37.0937
 20
2.98328
 30
0.000000
  70
    32
  0
VERTEX
  8
VISIBLE_NARROW__ISO_
  5
72C
 10
37.0964
 20
2.98642
 30
0.000000
  70
    32
  0
VERTEX
  8
VISIBLE_NARROW__ISO_
  5
72D
 10
37.0990
 20
2.98957
 30
0.000000
  70
    32
  0
VERTEX
  8
VISIBLE_NARROW__ISO_
  5
72E
 10
37.1016
 20
2.99272
 30
0.000000
  70
    32
  0
VERTEX
  8
VISIBLE_NARROW__ISO_
  5
72F
 10
37.1042
 20
2.99588
 30
0.000000
  70
    32
  0
VERTEX
  8
VISIBLE_NARROW__ISO_
  5
730
 10
37.1068
 20
2.99906
 30
0.000000
  70
    32
  0
VERTEX
  8
VISIBLE_NARROW__ISO_
  5
731
 10
37.1094
 20
3.00223
 30
0.000000
  70
    32
  0
VERTEX
  8
VISIBLE_NARROW__ISO_
  5
732
 10
37.1120
 20
3.00542
 30
0.000000
  70
    32
  0
VERTEX
  8
VISIBLE_NARROW__ISO_
  5
733
 10
37.1146
 20
3.00862
 30
0.000000
  70
    32
  0
VERTEX
  8
VISIBLE_NARROW__ISO_
  5
734
 10
37.1172
 20
3.01182
 30
0.000000
  70
    32
  0
VERTEX
  8
VISIBLE_NARROW__ISO_
  5
735
 10
37.1197
 20
3.01503
 30
0.000000
  70
    32
  0
VERTEX
  8
VISIBLE_NARROW__ISO_
  5
736
 10
37.1222
 20
3.01825
 30
0.000000
  70
    32
  0
VERTEX
  8
VISIBLE_NARROW__ISO_
  5
737
 10
37.1248
 20
3.02147
 30
0.000000
  70
    32
  0
VERTEX
  8
VISIBLE_NARROW__ISO_
  5
738
 10
37.1273
 20
3.02471
 30
0.000000
  70
    32
  0
VERTEX
  8
VISIBLE_NARROW__ISO_
  5
739
 10
37.1298
 20
3.02795
 30
0.000000
  70
    32
  0
VERTEX
  8
VISIBLE_NARROW__ISO_
  5
73A
 10
37.1323
 20
3.03120
 30
0.000000
  70
    32
  0
VERTEX
  8
VISIBLE_NARROW__ISO_
  5
73B
 10
37.1348
 20
3.03445
 30
0.000000
  70
    32
  0
VERTEX
  8
VISIBLE_NARROW__ISO_
  5
73C
 10
37.1373
 20
3.03772
 30
0.000000
  70
    32
  0
VERTEX
  8
VISIBLE_NARROW__ISO_
  5
73D
 10
37.1398
 20
3.04099
 30
0.000000
  70
    32
  0
VERTEX
  8
VISIBLE_NARROW__ISO_
  5
73E
 10
37.1422
 20
3.04427
 30
0.000000
  70
    32
  0
VERTEX
  8
VISIBLE_NARROW__ISO_
  5
73F
 10
37.1447
 20
3.04756
 30
0.000000
  70
    32
  0
VERTEX
  8
VISIBLE_NARROW__ISO_
  5
740
 10
37.1471
 20
3.05085
 30
0.000000
  70
    32
  0
VERTEX
  8
VISIBLE_NARROW__ISO_
  5
741
 10
37.1495
 20
3.05415
 30
0.000000
  70
    32
  0
VERTEX
  8
VISIBLE_NARROW__ISO_
  5
742
 10
37.1520
 20
3.05746
 30
0.000000
  70
    32
  0
VERTEX
  8
VISIBLE_NARROW__ISO_
  5
743
 10
37.1544
 20
3.06078
 30
0.000000
  70
    32
  0
VERTEX
  8
VISIBLE_NARROW__ISO_
  5
744
 10
37.1568
 20
3.06411
 30
0.000000
  70
    32
  0
VERTEX
  8
VISIBLE_NARROW__ISO_
  5
745
 10
37.1592
 20
3.06744
 30
0.000000
  70
    32
  0
VERTEX
  8
VISIBLE_NARROW__ISO_
  5
746
 10
37.1616
 20
3.07078
 30
0.000000
  70
    32
  0
VERTEX
  8
VISIBLE_NARROW__ISO_
  5
747
 10
37.1639
 20
3.07412
 30
0.000000
  70
    32
  0
VERTEX
  8
VISIBLE_NARROW__ISO_
  5
748
 10
37.1663
 20
3.07748
 30
0.000000
  70
    32
  0
VERTEX
  8
VISIBLE_NARROW__ISO_
  5
749
 10
37.1686
 20
3.08084
 30
0.000000
  70
    32
  0
VERTEX
  8
VISIBLE_NARROW__ISO_
  5
74A
 10
37.1710
 20
3.08421
 30
0.000000
  70
    32
  0
VERTEX
  8
VISIBLE_NARROW__ISO_
  5
74B
 10
37.1733
 20
3.08758
 30
0.000000
  70
    32
  0
VERTEX
  8
VISIBLE_NARROW__ISO_
  5
74C
 10
37.1756
 20
3.09097
 30
0.000000
  70
    32
  0
VERTEX
  8
VISIBLE_NARROW__ISO_
  5
74D
 10
37.1779
 20
3.09436
 30
0.000000
  70
    32
  0
VERTEX
  8
VISIBLE_NARROW__ISO_
  5
74E
 10
37.1802
 20
3.09775
 30
0.000000
  70
    32
  0
VERTEX
  8
VISIBLE_NARROW__ISO_
  5
74F
 10
37.1825
 20
3.10116
 30
0.000000
  70
    32
  0
VERTEX
  8
VISIBLE_NARROW__ISO_
  5
750
 10
37.1848
 20
3.10457
 30
0.000000
  70
    32
  0
VERTEX
  8
VISIBLE_NARROW__ISO_
  5
751
 10
37.1871
 20
3.10799
 30
0.000000
  70
    32
  0
VERTEX
  8
VISIBLE_NARROW__ISO_
  5
752
 10
37.1893
 20
3.11141
 30
0.000000
  70
    32
  0
VERTEX
  8
VISIBLE_NARROW__ISO_
  5
753
 10
37.1916
 20
3.11485
 30
0.000000
  70
    32
  0
VERTEX
  8
VISIBLE_NARROW__ISO_
  5
754
 10
37.1938
 20
3.11829
 30
0.000000
  70
    32
  0
VERTEX
  8
VISIBLE_NARROW__ISO_
  5
755
 10
37.1960
 20
3.12173
 30
0.000000
  70
    32
  0
VERTEX
  8
VISIBLE_NARROW__ISO_
  5
756
 10
37.1982
 20
3.12518
 30
0.000000
  70
    32
  0
VERTEX
  8
VISIBLE_NARROW__ISO_
  5
757
 10
37.2004
 20
3.12864
 30
0.000000
  70
    32
  0
VERTEX
  8
VISIBLE_NARROW__ISO_
  5
758
 10
37.2026
 20
3.13211
 30
0.000000
  70
    32
  0
VERTEX
  8
VISIBLE_NARROW__ISO_
  5
759
 10
37.2048
 20
3.13558
 30
0.000000
  70
    32
  0
VERTEX
  8
VISIBLE_NARROW__ISO_
  5
75A
 10
37.2070
 20
3.13906
 30
0.000000
  70
    32
  0
VERTEX
  8
VISIBLE_NARROW__ISO_
  5
75B
 10
37.2091
 20
3.14255
 30
0.000000
  70
    32
  0
VERTEX
  8
VISIBLE_NARROW__ISO_
  5
75C
 10
37.2113
 20
3.14604
 30
0.000000
  70
    32
  0
VERTEX
  8
VISIBLE_NARROW__ISO_
  5
75D
 10
37.2134
 20
3.14954
 30
0.000000
  70
    32
  0
VERTEX
  8
VISIBLE_NARROW__ISO_
  5
75E
 10
37.2155
 20
3.15305
 30
0.000000
  70
    32
  0
VERTEX
  8
VISIBLE_NARROW__ISO_
  5
75F
 10
37.2176
 20
3.15656
 30
0.000000
  70
    32
  0
VERTEX
  8
VISIBLE_NARROW__ISO_
  5
760
 10
37.2198
 20
3.16008
 30
0.000000
  70
    32
  0
VERTEX
  8
VISIBLE_NARROW__ISO_
  5
761
 10
37.2218
 20
3.16361
 30
0.000000
  70
    32
  0
VERTEX
  8
VISIBLE_NARROW__ISO_
  5
762
 10
37.2239
 20
3.16714
 30
0.000000
  70
    32
  0
VERTEX
  8
VISIBLE_NARROW__ISO_
  5
763
 10
37.2260
 20
3.17068
 30
0.000000
  70
    32
  0
VERTEX
  8
VISIBLE_NARROW__ISO_
  5
764
 10
37.2281
 20
3.17423
 30
0.000000
  70
    32
  0
VERTEX
  8
VISIBLE_NARROW__ISO_
  5
765
 10
37.2301
 20
3.17778
 30
0.000000
  70
    32
  0
VERTEX
  8
VISIBLE_NARROW__ISO_
  5
766
 10
37.2322
 20
3.18133
 30
0.000000
  70
    32
  0
VERTEX
  8
VISIBLE_NARROW__ISO_
  5
767
 10
37.2342
 20
3.18490
 30
0.000000
  70
    32
  0
VERTEX
  8
VISIBLE_NARROW__ISO_
  5
768
 10
37.2362
 20
3.18847
 30
0.000000
  70
    32
  0
VERTEX
  8
VISIBLE_NARROW__ISO_
  5
769
 10
37.2382
 20
3.19205
 30
0.000000
  70
    32
  0
VERTEX
  8
VISIBLE_NARROW__ISO_
  5
76A
 10
37.2402
 20
3.19563
 30
0.000000
  70
    32
  0
VERTEX
  8
VISIBLE_NARROW__ISO_
  5
76B
 10
37.2422
 20
3.19922
 30
0.000000
  70
    32
  0
VERTEX
  8
VISIBLE_NARROW__ISO_
  5
76C
 10
37.2442
 20
3.20281
 30
0.000000
  70
    32
  0
VERTEX
  8
VISIBLE_NARROW__ISO_
  5
76D
 10
37.2461
 20
3.20641
 30
0.000000
  70
    32
  0
VERTEX
  8
VISIBLE_NARROW__ISO_
  5
76E
 10
37.2481
 20
3.21002
 30
0.000000
  70
    32
  0
VERTEX
  8
VISIBLE_NARROW__ISO_
  5
76F
 10
37.2500
 20
3.21363
 30
0.000000
  70
    32
  0
VERTEX
  8
VISIBLE_NARROW__ISO_
  5
770
 10
37.2519
 20
3.21725
 30
0.000000
  70
    32
  0
VERTEX
  8
VISIBLE_NARROW__ISO_
  5
771
 10
37.2539
 20
3.22088
 30
0.000000
  70
    32
  0
VERTEX
  8
VISIBLE_NARROW__ISO_
  5
772
 10
37.2558
 20
3.22451
 30
0.000000
  70
    32
  0
VERTEX
  8
VISIBLE_NARROW__ISO_
  5
773
 10
37.2577
 20
3.22814
 30
0.000000
  70
    32
  0
VERTEX
  8
VISIBLE_NARROW__ISO_
  5
774
 10
37.2595
 20
3.23178
 30
0.000000
  70
    32
  0
VERTEX
  8
VISIBLE_NARROW__ISO_
  5
775
 10
37.2614
 20
3.23543
 30
0.000000
  70
    32
  0
VERTEX
  8
VISIBLE_NARROW__ISO_
  5
776
 10
37.2633
 20
3.23909
 30
0.000000
  70
    32
  0
VERTEX
  8
VISIBLE_NARROW__ISO_
  5
777
 10
37.2651
 20
3.24275
 30
0.000000
  70
    32
  0
VERTEX
  8
VISIBLE_NARROW__ISO_
  5
778
 10
37.2670
 20
3.24641
 30
0.000000
  70
    32
  0
VERTEX
  8
VISIBLE_NARROW__ISO_
  5
779
 10
37.2688
 20
3.25008
 30
0.000000
  70
    32
  0
VERTEX
  8
VISIBLE_NARROW__ISO_
  5
77A
 10
37.2706
 20
3.25376
 30
0.000000
  70
    32
  0
VERTEX
  8
VISIBLE_NARROW__ISO_
  5
77B
 10
37.2724
 20
3.25744
 30
0.000000
  70
    32
  0
VERTEX
  8
VISIBLE_NARROW__ISO_
  5
77C
 10
37.2742
 20
3.26113
 30
0.000000
  70
    32
  0
VERTEX
  8
VISIBLE_NARROW__ISO_
  5
77D
 10
37.2760
 20
3.26482
 30
0.000000
  70
    32
  0
VERTEX
  8
VISIBLE_NARROW__ISO_
  5
77E
 10
37.2778
 20
3.26852
 30
0.000000
  70
    32
  0
VERTEX
  8
VISIBLE_NARROW__ISO_
  5
77F
 10
37.2795
 20
3.27222
 30
0.000000
  70
    32
  0
VERTEX
  8
VISIBLE_NARROW__ISO_
  5
780
 10
37.2813
 20
3.27593
 30
0.000000
  70
    32
  0
VERTEX
  8
VISIBLE_NARROW__ISO_
  5
781
 10
37.2830
 20
3.27964
 30
0.000000
  70
    32
  0
VERTEX
  8
VISIBLE_NARROW__ISO_
  5
782
 10
37.2847
 20
3.28336
 30
0.000000
  70
    32
  0
VERTEX
  8
VISIBLE_NARROW__ISO_
  5
783
 10
37.2865
 20
3.28709
 30
0.000000
  70
    32
  0
VERTEX
  8
VISIBLE_NARROW__ISO_
  5
784
 10
37.2882
 20
3.29082
 30
0.000000
  70
    32
  0
VERTEX
  8
VISIBLE_NARROW__ISO_
  5
785
 10
37.2899
 20
3.29455
 30
0.000000
  70
    32
  0
VERTEX
  8
VISIBLE_NARROW__ISO_
  5
786
 10
37.2915
 20
3.29829
 30
0.000000
  70
    32
  0
VERTEX
  8
VISIBLE_NARROW__ISO_
  5
787
 10
37.2932
 20
3.30204
 30
0.000000
  70
    32
  0
VERTEX
  8
VISIBLE_NARROW__ISO_
  5
788
 10
37.2949
 20
3.30579
 30
0.000000
  70
    32
  0
VERTEX
  8
VISIBLE_NARROW__ISO_
  5
789
 10
37.2965
 20
3.30955
 30
0.000000
  70
    32
  0
VERTEX
  8
VISIBLE_NARROW__ISO_
  5
78A
 10
37.2981
 20
3.31331
 30
0.000000
  70
    32
  0
VERTEX
  8
VISIBLE_NARROW__ISO_
  5
78B
 10
37.2998
 20
3.31707
 30
0.000000
  70
    32
  0
VERTEX
  8
VISIBLE_NARROW__ISO_
  5
78C
 10
37.3014
 20
3.32084
 30
0.000000
  70
    32
  0
VERTEX
  8
VISIBLE_NARROW__ISO_
  5
78D
 10
37.3030
 20
3.32462
 30
0.000000
  70
    32
  0
VERTEX
  8
VISIBLE_NARROW__ISO_
  5
78E
 10
37.3046
 20
3.32840
 30
0.000000
  70
    32
  0
VERTEX
  8
VISIBLE_NARROW__ISO_
  5
78F
 10
37.3061
 20
3.33219
 30
0.000000
  70
    32
  0
VERTEX
  8
VISIBLE_NARROW__ISO_
  5
790
 10
37.3077
 20
3.33598
 30
0.000000
  70
    32
  0
VERTEX
  8
VISIBLE_NARROW__ISO_
  5
791
 10
37.3093
 20
3.33977
 30
0.000000
  70
    32
  0
VERTEX
  8
VISIBLE_NARROW__ISO_
  5
792
 10
37.3108
 20
3.34357
 30
0.000000
  70
    32
  0
VERTEX
  8
VISIBLE_NARROW__ISO_
  5
793
 10
37.3123
 20
3.34737
 30
0.000000
  70
    32
  0
VERTEX
  8
VISIBLE_NARROW__ISO_
  5
794
 10
37.3139
 20
3.35118
 30
0.000000
  70
    32
  0
VERTEX
  8
VISIBLE_NARROW__ISO_
  5
795
 10
37.3154
 20
3.35500
 30
0.000000
  70
    32
  0
VERTEX
  8
VISIBLE_NARROW__ISO_
  5
796
 10
37.3169
 20
3.35882
 30
0.000000
  70
    32
  0
VERTEX
  8
VISIBLE_NARROW__ISO_
  5
797
 10
37.3183
 20
3.36264
 30
0.000000
  70
    32
  0
VERTEX
  8
VISIBLE_NARROW__ISO_
  5
798
 10
37.3198
 20
3.36647
 30
0.000000
  70
    32
  0
VERTEX
  8
VISIBLE_NARROW__ISO_
  5
799
 10
37.3213
 20
3.37030
 30
0.000000
  70
    32
  0
VERTEX
  8
VISIBLE_NARROW__ISO_
  5
79A
 10
37.3227
 20
3.37414
 30
0.000000
  70
    32
  0
VERTEX
  8
VISIBLE_NARROW__ISO_
  5
79B
 10
37.3242
 20
3.37798
 30
0.000000
  70
    32
  0
VERTEX
  8
VISIBLE_NARROW__ISO_
  5
79C
 10
37.3256
 20
3.38182
 30
0.000000
  70
    32
  0
VERTEX
  8
VISIBLE_NARROW__ISO_
  5
79D
 10
37.3270
 20
3.38567
 30
0.000000
  70
    32
  0
VERTEX
  8
VISIBLE_NARROW__ISO_
  5
79E
 10
37.3284
 20
3.38952
 30
0.000000
  70
    32
  0
VERTEX
  8
VISIBLE_NARROW__ISO_
  5
79F
 10
37.3298
 20
3.39338
 30
0.000000
  70
    32
  0
VERTEX
  8
VISIBLE_NARROW__ISO_
  5
7A0
 10
37.3312
 20
3.39725
 30
0.000000
  70
    32
  0
VERTEX
  8
VISIBLE_NARROW__ISO_
  5
7A1
 10
37.3325
 20
3.40111
 30
0.000000
  70
    32
  0
VERTEX
  8
VISIBLE_NARROW__ISO_
  5
7A2
 10
37.3339
 20
3.40498
 30
0.000000
  70
    32
  0
VERTEX
  8
VISIBLE_NARROW__ISO_
  5
7A3
 10
37.3352
 20
3.40886
 30
0.000000
  70
    32
  0
VERTEX
  8
VISIBLE_NARROW__ISO_
  5
7A4
 10
37.3365
 20
3.41274
 30
0.000000
  70
    32
  0
VERTEX
  8
VISIBLE_NARROW__ISO_
  5
7A5
 10
37.3379
 20
3.41662
 30
0.000000
  70
    32
  0
VERTEX
  8
VISIBLE_NARROW__ISO_
  5
7A6
 10
37.3392
 20
3.42051
 30
0.000000
  70
    32
  0
VERTEX
  8
VISIBLE_NARROW__ISO_
  5
7A7
 10
37.3405
 20
3.42440
 30
0.000000
  70
    32
  0
VERTEX
  8
VISIBLE_NARROW__ISO_
  5
7A8
 10
37.3417
 20
3.42829
 30
0.000000
  70
    32
  0
VERTEX
  8
VISIBLE_NARROW__ISO_
  5
7A9
 10
37.3430
 20
3.43219
 30
0.000000
  70
    32
  0
VERTEX
  8
VISIBLE_NARROW__ISO_
  5
7AA
 10
37.3443
 20
3.43610
 30
0.000000
  70
    32
  0
VERTEX
  8
VISIBLE_NARROW__ISO_
  5
7AB
 10
37.3455
 20
3.44000
 30
0.000000
  70
    32
  0
VERTEX
  8
VISIBLE_NARROW__ISO_
  5
7AC
 10
37.3467
 20
3.44392
 30
0.000000
  70
    32
  0
VERTEX
  8
VISIBLE_NARROW__ISO_
  5
7AD
 10
37.3480
 20
3.44783
 30
0.000000
  70
    32
  0
VERTEX
  8
VISIBLE_NARROW__ISO_
  5
7AE
 10
37.3492
 20
3.45175
 30
0.000000
  70
    32
  0
VERTEX
  8
VISIBLE_NARROW__ISO_
  5
7AF
 10
37.3504
 20
3.45567
 30
0.000000
  70
    32
  0
VERTEX
  8
VISIBLE_NARROW__ISO_
  5
7B0
 10
37.3515
 20
3.45960
 30
0.000000
  70
    32
  0
VERTEX
  8
VISIBLE_NARROW__ISO_
  5
7B1
 10
37.3527
 20
3.46353
 30
0.000000
  70
    32
  0
VERTEX
  8
VISIBLE_NARROW__ISO_
  5
7B2
 10
37.3539
 20
3.46746
 30
0.000000
  70
    32
  0
VERTEX
  8
VISIBLE_NARROW__ISO_
  5
7B3
 10
37.3550
 20
3.47139
 30
0.000000
  70
    32
  0
VERTEX
  8
VISIBLE_NARROW__ISO_
  5
7B4
 10
37.3562
 20
3.47533
 30
0.000000
  70
    32
  0
VERTEX
  8
VISIBLE_NARROW__ISO_
  5
7B5
 10
37.3573
 20
3.47928
 30
0.000000
  70
    32
  0
VERTEX
  8
VISIBLE_NARROW__ISO_
  5
7B6
 10
37.3584
 20
3.48322
 30
0.000000
  70
    32
  0
VERTEX
  8
VISIBLE_NARROW__ISO_
  5
7B7
 10
37.3595
 20
3.48717
 30
0.000000
  70
    32
  0
VERTEX
  8
VISIBLE_NARROW__ISO_
  5
7B8
 10
37.3606
 20
3.49113
 30
0.000000
  70
    32
  0
VERTEX
  8
VISIBLE_NARROW__ISO_
  5
7B9
 10
37.3617
 20
3.49509
 30
0.000000
  70
    32
  0
VERTEX
  8
VISIBLE_NARROW__ISO_
  5
7BA
 10
37.3627
 20
3.49905
 30
0.000000
  70
    32
  0
VERTEX
  8
VISIBLE_NARROW__ISO_
  5
7BB
 10
37.3638
 20
3.50301
 30
0.000000
  70
    32
  0
VERTEX
  8
VISIBLE_NARROW__ISO_
  5
7BC
 10
37.3648
 20
3.50698
 30
0.000000
  70
    32
  0
VERTEX
  8
VISIBLE_NARROW__ISO_
  5
7BD
 10
37.3658
 20
3.51095
 30
0.000000
  70
    32
  0
VERTEX
  8
VISIBLE_NARROW__ISO_
  5
7BE
 10
37.3668
 20
3.51492
 30
0.000000
  70
    32
  0
VERTEX
  8
VISIBLE_NARROW__ISO_
  5
7BF
 10
37.3679
 20
3.51889
 30
0.000000
  70
    32
  0
VERTEX
  8
VISIBLE_NARROW__ISO_
  5
7C0
 10
37.3688
 20
3.52287
 30
0.000000
  70
    32
  0
VERTEX
  8
VISIBLE_NARROW__ISO_
  5
7C1
 10
37.3698
 20
3.52686
 30
0.000000
  70
    32
  0
VERTEX
  8
VISIBLE_NARROW__ISO_
  5
7C2
 10
37.3708
 20
3.53084
 30
0.000000
  70
    32
  0
VERTEX
  8
VISIBLE_NARROW__ISO_
  5
7C3
 10
37.3717
 20
3.53483
 30
0.000000
  70
    32
  0
VERTEX
  8
VISIBLE_NARROW__ISO_
  5
7C4
 10
37.3727
 20
3.53882
 30
0.000000
  70
    32
  0
VERTEX
  8
VISIBLE_NARROW__ISO_
  5
7C5
 10
37.3736
 20
3.54281
 30
0.000000
  70
    32
  0
VERTEX
  8
VISIBLE_NARROW__ISO_
  5
7C6
 10
37.3745
 20
3.54681
 30
0.000000
  70
    32
  0
VERTEX
  8
VISIBLE_NARROW__ISO_
  5
7C7
 10
37.3754
 20
3.55081
 30
0.000000
  70
    32
  0
VERTEX
  8
VISIBLE_NARROW__ISO_
  5
7C8
 10
37.3763
 20
3.55481
 30
0.000000
  70
    32
  0
VERTEX
  8
VISIBLE_NARROW__ISO_
  5
7C9
 10
37.3772
 20
3.55882
 30
0.000000
  70
    32
  0
VERTEX
  8
VISIBLE_NARROW__ISO_
  5
7CA
 10
37.3781
 20
3.56282
 30
0.000000
  70
    32
  0
VERTEX
  8
VISIBLE_NARROW__ISO_
  5
7CB
 10
37.3789
 20
3.56683
 30
0.000000
  70
    32
  0
VERTEX
  8
VISIBLE_NARROW__ISO_
  5
7CC
 10
37.3798
 20
3.57085
 30
0.000000
  70
    32
  0
VERTEX
  8
VISIBLE_NARROW__ISO_
  5
7CD
 10
37.3806
 20
3.57486
 30
0.000000
  70
    32
  0
VERTEX
  8
VISIBLE_NARROW__ISO_
  5
7CE
 10
37.3814
 20
3.57888
 30
0.000000
  70
    32
  0
VERTEX
  8
VISIBLE_NARROW__ISO_
  5
7CF
 10
37.3822
 20
3.58290
 30
0.000000
  70
    32
  0
VERTEX
  8
VISIBLE_NARROW__ISO_
  5
7D0
 10
37.3830
 20
3.58692
 30
0.000000
  70
    32
  0
VERTEX
  8
VISIBLE_NARROW__ISO_
  5
7D1
 10
37.3838
 20
3.59095
 30
0.000000
  70
    32
  0
VERTEX
  8
VISIBLE_NARROW__ISO_
  5
7D2
 10
37.3846
 20
3.59498
 30
0.000000
  70
    32
  0
VERTEX
  8
VISIBLE_NARROW__ISO_
  5
7D3
 10
37.3853
 20
3.59900
 30
0.000000
  70
    32
  0
VERTEX
  8
VISIBLE_NARROW__ISO_
  5
7D4
 10
37.3861
 20
3.60304
 30
0.000000
  70
    32
  0
VERTEX
  8
VISIBLE_NARROW__ISO_
  5
7D5
 10
37.3868
 20
3.60707
 30
0.000000
  70
    32
  0
VERTEX
  8
VISIBLE_NARROW__ISO_
  5
7D6
 10
37.3875
 20
3.61111
 30
0.000000
  70
    32
  0
VERTEX
  8
VISIBLE_NARROW__ISO_
  5
7D7
 10
37.3882
 20
3.61515
 30
0.000000
  70
    32
  0
VERTEX
  8
VISIBLE_NARROW__ISO_
  5
7D8
 10
37.3889
 20
3.61919
 30
0.000000
  70
    32
  0
VERTEX
  8
VISIBLE_NARROW__ISO_
  5
7D9
 10
37.3896
 20
3.62323
 30
0.000000
  70
    32
  0
VERTEX
  8
VISIBLE_NARROW__ISO_
  5
7DA
 10
37.3903
 20
3.62728
 30
0.000000
  70
    32
  0
VERTEX
  8
VISIBLE_NARROW__ISO_
  5
7DB
 10
37.3909
 20
3.63132
 30
0.000000
  70
    32
  0
VERTEX
  8
VISIBLE_NARROW__ISO_
  5
7DC
 10
37.3916
 20
3.63537
 30
0.000000
  70
    32
  0
VERTEX
  8
VISIBLE_NARROW__ISO_
  5
7DD
 10
37.3922
 20
3.63942
 30
0.000000
  70
    32
  0
VERTEX
  8
VISIBLE_NARROW__ISO_
  5
7DE
 10
37.3928
 20
3.64348
 30
0.000000
  70
    32
  0
VERTEX
  8
VISIBLE_NARROW__ISO_
  5
7DF
 10
37.3934
 20
3.64753
 30
0.000000
  70
    32
  0
VERTEX
  8
VISIBLE_NARROW__ISO_
  5
7E0
 10
37.3940
 20
3.65159
 30
0.000000
  70
    32
  0
VERTEX
  8
VISIBLE_NARROW__ISO_
  5
7E1
 10
37.3946
 20
3.65565
 30
0.000000
  70
    32
  0
VERTEX
  8
VISIBLE_NARROW__ISO_
  5
7E2
 10
37.3952
 20
3.65971
 30
0.000000
  70
    32
  0
VERTEX
  8
VISIBLE_NARROW__ISO_
  5
7E3
 10
37.3957
 20
3.66377
 30
0.000000
  70
    32
  0
VERTEX
  8
VISIBLE_NARROW__ISO_
  5
7E4
 10
37.3963
 20
3.66783
 30
0.000000
  70
    32
  0
VERTEX
  8
VISIBLE_NARROW__ISO_
  5
7E5
 10
37.3968
 20
3.67190
 30
0.000000
  70
    32
  0
VERTEX
  8
VISIBLE_NARROW__ISO_
  5
7E6
 10
37.3973
 20
3.67596
 30
0.000000
  70
    32
  0
VERTEX
  8
VISIBLE_NARROW__ISO_
  5
7E7
 10
37.3978
 20
3.68003
 30
0.000000
  70
    32
  0
VERTEX
  8
VISIBLE_NARROW__ISO_
  5
7E8
 10
37.3983
 20
3.68410
 30
0.000000
  70
    32
  0
VERTEX
  8
VISIBLE_NARROW__ISO_
  5
7E9
 10
37.3988
 20
3.68817
 30
0.000000
  70
    32
  0
VERTEX
  8
VISIBLE_NARROW__ISO_
  5
7EA
 10
37.3993
 20
3.69224
 30
0.000000
  70
    32
  0
VERTEX
  8
VISIBLE_NARROW__ISO_
  5
7EB
 10
37.3997
 20
3.69632
 30
0.000000
  70
    32
  0
VERTEX
  8
VISIBLE_NARROW__ISO_
  5
7EC
 10
37.4002
 20
3.70039
 30
0.000000
  70
    32
  0
VERTEX
  8
VISIBLE_NARROW__ISO_
  5
7ED
 10
37.4006
 20
3.70447
 30
0.000000
  70
    32
  0
VERTEX
  8
VISIBLE_NARROW__ISO_
  5
7EE
 10
37.4010
 20
3.70855
 30
0.000000
  70
    32
  0
VERTEX
  8
VISIBLE_NARROW__ISO_
  5
7EF
 10
37.4014
 20
3.71263
 30
0.000000
  70
    32
  0
VERTEX
  8
VISIBLE_NARROW__ISO_
  5
7F0
 10
37.4018
 20
3.71671
 30
0.000000
  70
    32
  0
VERTEX
  8
VISIBLE_NARROW__ISO_
  5
7F1
 10
37.4022
 20
3.72079
 30
0.000000
  70
    32
  0
VERTEX
  8
VISIBLE_NARROW__ISO_
  5
7F2
 10
37.4026
 20
3.72488
 30
0.000000
  70
    32
  0
VERTEX
  8
VISIBLE_NARROW__ISO_
  5
7F3
 10
37.4029
 20
3.72896
 30
0.000000
  70
    32
  0
VERTEX
  8
VISIBLE_NARROW__ISO_
  5
7F4
 10
37.4033
 20
3.73304
 30
0.000000
  70
    32
  0
VERTEX
  8
VISIBLE_NARROW__ISO_
  5
7F5
 10
37.4036
 20
3.73713
 30
0.000000
  70
    32
  0
VERTEX
  8
VISIBLE_NARROW__ISO_
  5
7F6
 10
37.4039
 20
3.74122
 30
0.000000
  70
    32
  0
VERTEX
  8
VISIBLE_NARROW__ISO_
  5
7F7
 10
37.4042
 20
3.74531
 30
0.000000
  70
    32
  0
VERTEX
  8
VISIBLE_NARROW__ISO_
  5
7F8
 10
37.4045
 20
3.74940
 30
0.000000
  70
    32
  0
VERTEX
  8
VISIBLE_NARROW__ISO_
  5
7F9
 10
37.4048
 20
3.75349
 30
0.000000
  70
    32
  0
VERTEX
  8
VISIBLE_NARROW__ISO_
  5
7FA
 10
37.4051
 20
3.75758
 30
0.000000
  70
    32
  0
VERTEX
  8
VISIBLE_NARROW__ISO_
  5
7FB
 10
37.4054
 20
3.76167
 30
0.000000
  70
    32
  0
VERTEX
  8
VISIBLE_NARROW__ISO_
  5
7FC
 10
37.4056
 20
3.76576
 30
0.000000
  70
    32
  0
VERTEX
  8
VISIBLE_NARROW__ISO_
  5
7FD
 10
37.4058
 20
3.76985
 30
0.000000
  70
    32
  0
VERTEX
  8
VISIBLE_NARROW__ISO_
  5
7FE
 10
37.4060
 20
3.77395
 30
0.000000
  70
    32
  0
VERTEX
  8
VISIBLE_NARROW__ISO_
  5
7FF
 10
37.4063
 20
3.77804
 30
0.000000
  70
    32
  0
VERTEX
  8
VISIBLE_NARROW__ISO_
  5
800
 10
37.4064
 20
3.78214
 30
0.000000
  70
    32
  0
VERTEX
  8
VISIBLE_NARROW__ISO_
  5
801
 10
37.4066
 20
3.78623
 30
0.000000
  70
    32
  0
VERTEX
  8
VISIBLE_NARROW__ISO_
  5
802
 10
37.4068
 20
3.79033
 30
0.000000
  70
    32
  0
VERTEX
  8
VISIBLE_NARROW__ISO_
  5
803
 10
37.4070
 20
3.79443
 30
0.000000
  70
    32
  0
VERTEX
  8
VISIBLE_NARROW__ISO_
  5
804
 10
37.4071
 20
3.79852
 30
0.000000
  70
    32
  0
VERTEX
  8
VISIBLE_NARROW__ISO_
  5
805
 10
37.4072
 20
3.80262
 30
0.000000
  70
    32
  0
VERTEX
  8
VISIBLE_NARROW__ISO_
  5
806
 10
37.4073
 20
3.80672
 30
0.000000
  70
    32
  0
VERTEX
  8
VISIBLE_NARROW__ISO_
  5
807
 10
37.4075
 20
3.81082
 30
0.000000
  70
    32
  0
VERTEX
  8
VISIBLE_NARROW__ISO_
  5
808
 10
37.4075
 20
3.81491
 30
0.000000
  70
    32
  0
VERTEX
  8
VISIBLE_NARROW__ISO_
  5
809
 10
37.4076
 20
3.81901
 30
0.000000
  70
    32
  0
VERTEX
  8
VISIBLE_NARROW__ISO_
  5
80A
 10
37.4077
 20
3.82311
 30
0.000000
  70
    32
  0
VERTEX
  8
VISIBLE_NARROW__ISO_
  5
80B
 10
37.4077
 20
3.82721
 30
0.000000
  70
    32
  0
VERTEX
  8
VISIBLE_NARROW__ISO_
  5
80C
 10
37.4078
 20
3.83131
 30
0.000000
  70
    32
  0
VERTEX
  8
VISIBLE_NARROW__ISO_
  5
80D
 10
37.4078
 20
3.83541
 30
0.000000
  70
    32
  0
VERTEX
  8
VISIBLE_NARROW__ISO_
  5
80E
 10
37.4078
 20
3.83951
 30
0.000000
  70
    32
  0
VERTEX
  8
VISIBLE_NARROW__ISO_
  5
80F
 10
37.4078
 20
3.84361
 30
0.000000
  70
    32
  0
SEQEND
  8
VISIBLE_NARROW__ISO_
  5
810
  0
LINE
  5
A4
  8
VISIBLE_NARROW__ISO_
 10
37.4078442311740034
 20
18.7976299168979999
 30
0.0
 11
37.4078442311740034
 21
3.8434451629436088
 31
0.0
  0
ARC
  5
A5
  8
SKETCH_GEOMETRY__ISO_
 10
8.7184942634986982
 20
3.8426919506289181
 30
0.0
 40
1.332813711578245
 50
179.9450642026388039
 51
270.0549357973707743
  0
VIEWPORT
  5
AF
 67
     1
  8
0
 10
7.2902030023351676
 20
2.4755519459727959
 30
0.0
 40
88.0024917888812155
 41
37.0625878880095883
 68
     1
 69
     1
1001
ACAD
1000
MVIEW
1002
{
1070
    16
1010
0.0
1020
0.0
1030
0.0
1010
0.0
1020
0.0
1030
1.0
1040
0.0
1040
37.0625878880095883
1040
7.2902030023351676
1040
2.4755519459727959
1040
50.0
1040
0.0
1040
0.0
1070
     0
1070
  1000
1070
     1
1070
     1
1070
     0
1070
     0
1070
     0
1070
     0
1040
0.0
1040
0.0
1040
0.0
1040
0.5
1040
0.5
1040
0.5
1040
0.5
1070
     0
1002
{
1002
}
1002
}
  0
ARC
  5
C7
 67
     1
  8
VISIBLE__ISO_
  6
BYBLOCK
 10
10.7552376833276799
 20
14.0766753550234398
 30
0.0
 40
0.7500000000000031
 50
90.0
 51
270.0
  0
POLYLINE
  67
1
  8
VISIBLE_NARROW__ISO_
  5
811
  66
     1
 10
0.000000
 20
0.000000
 30
0.000000
  70
     8
  0
VERTEX
  8
VISIBLE_NARROW__ISO_
  5
812
 10
-6.89849
 20
13.0448
 30
0.000000
  70
    32
  0
VERTEX
  8
VISIBLE_NARROW__ISO_
  5
813
 10
-6.90259
 20
13.0448
 30
0.000000
  70
    32
  0
VERTEX
  8
VISIBLE_NARROW__ISO_
  5
814
 10
-6.90669
 20
13.0448
 30
0.000000
  70
    32
  0
VERTEX
  8
VISIBLE_NARROW__ISO_
  5
815
 10
-6.91079
 20
13.0448
 30
0.000000
  70
    32
  0
VERTEX
  8
VISIBLE_NARROW__ISO_
  5
816
 10
-6.91489
 20
13.0447
 30
0.000000
  70
    32
  0
VERTEX
  8
VISIBLE_NARROW__ISO_
  5
817
 10
-6.91899
 20
13.0447
 30
0.000000
  70
    32
  0
VERTEX
  8
VISIBLE_NARROW__ISO_
  5
818
 10
-6.92309
 20
13.0446
 30
0.000000
  70
    32
  0
VERTEX
  8
VISIBLE_NARROW__ISO_
  5
819
 10
-6.92719
 20
13.0445
 30
0.000000
  70
    32
  0
VERTEX
  8
VISIBLE_NARROW__ISO_
  5
81A
 10
-6.93128
 20
13.0444
 30
0.000000
  70
    32
  0
VERTEX
  8
VISIBLE_NARROW__ISO_
  5
81B
 10
-6.93538
 20
13.0443
 30
0.000000
  70
    32
  0
VERTEX
  8
VISIBLE_NARROW__ISO_
  5
81C
 10
-6.93948
 20
13.0442
 30
0.000000
  70
    32
  0
VERTEX
  8
VISIBLE_NARROW__ISO_
  5
81D
 10
-6.94358
 20
13.0441
 30
0.000000
  70
    32
  0
VERTEX
  8
VISIBLE_NARROW__ISO_
  5
81E
 10
-6.94768
 20
13.0439
 30
0.000000
  70
    32
  0
VERTEX
  8
VISIBLE_NARROW__ISO_
  5
81F
 10
-6.95177
 20
13.0438
 30
0.000000
  70
    32
  0
VERTEX
  8
VISIBLE_NARROW__ISO_
  5
820
 10
-6.95587
 20
13.0436
 30
0.000000
  70
    32
  0
VERTEX
  8
VISIBLE_NARROW__ISO_
  5
821
 10
-6.95996
 20
13.0434
 30
0.000000
  70
    32
  0
VERTEX
  8
VISIBLE_NARROW__ISO_
  5
822
 10
-6.96406
 20
13.0432
 30
0.000000
  70
    32
  0
VERTEX
  8
VISIBLE_NARROW__ISO_
  5
823
 10
-6.96815
 20
13.0430
 30
0.000000
  70
    32
  0
VERTEX
  8
VISIBLE_NARROW__ISO_
  5
824
 10
-6.97225
 20
13.0428
 30
0.000000
  70
    32
  0
VERTEX
  8
VISIBLE_NARROW__ISO_
  5
825
 10
-6.97634
 20
13.0426
 30
0.000000
  70
    32
  0
VERTEX
  8
VISIBLE_NARROW__ISO_
  5
826
 10
-6.98043
 20
13.0423
 30
0.000000
  70
    32
  0
VERTEX
  8
VISIBLE_NARROW__ISO_
  5
827
 10
-6.98452
 20
13.0421
 30
0.000000
  70
    32
  0
VERTEX
  8
VISIBLE_NARROW__ISO_
  5
828
 10
-6.98862
 20
13.0418
 30
0.000000
  70
    32
  0
VERTEX
  8
VISIBLE_NARROW__ISO_
  5
829
 10
-6.99271
 20
13.0415
 30
0.000000
  70
    32
  0
VERTEX
  8
VISIBLE_NARROW__ISO_
  5
82A
 10
-6.99679
 20
13.0412
 30
0.000000
  70
    32
  0
VERTEX
  8
VISIBLE_NARROW__ISO_
  5
82B
 10
-7.00088
 20
13.0409
 30
0.000000
  70
    32
  0
VERTEX
  8
VISIBLE_NARROW__ISO_
  5
82C
 10
-7.00497
 20
13.0406
 30
0.000000
  70
    32
  0
VERTEX
  8
VISIBLE_NARROW__ISO_
  5
82D
 10
-7.00906
 20
13.0403
 30
0.000000
  70
    32
  0
VERTEX
  8
VISIBLE_NARROW__ISO_
  5
82E
 10
-7.01314
 20
13.0399
 30
0.000000
  70
    32
  0
VERTEX
  8
VISIBLE_NARROW__ISO_
  5
82F
 10
-7.01723
 20
13.0396
 30
0.000000
  70
    32
  0
VERTEX
  8
VISIBLE_NARROW__ISO_
  5
830
 10
-7.02131
 20
13.0392
 30
0.000000
  70
    32
  0
VERTEX
  8
VISIBLE_NARROW__ISO_
  5
831
 10
-7.02539
 20
13.0388
 30
0.000000
  70
    32
  0
VERTEX
  8
VISIBLE_NARROW__ISO_
  5
832
 10
-7.02947
 20
13.0384
 30
0.000000
  70
    32
  0
VERTEX
  8
VISIBLE_NARROW__ISO_
  5
833
 10
-7.03355
 20
13.0380
 30
0.000000
  70
    32
  0
VERTEX
  8
VISIBLE_NARROW__ISO_
  5
834
 10
-7.03763
 20
13.0376
 30
0.000000
  70
    32
  0
VERTEX
  8
VISIBLE_NARROW__ISO_
  5
835
 10
-7.04171
 20
13.0372
 30
0.000000
  70
    32
  0
VERTEX
  8
VISIBLE_NARROW__ISO_
  5
836
 10
-7.04578
 20
13.0367
 30
0.000000
  70
    32
  0
VERTEX
  8
VISIBLE_NARROW__ISO_
  5
837
 10
-7.04986
 20
13.0363
 30
0.000000
  70
    32
  0
VERTEX
  8
VISIBLE_NARROW__ISO_
  5
838
 10
-7.05393
 20
13.0358
 30
0.000000
  70
    32
  0
VERTEX
  8
VISIBLE_NARROW__ISO_
  5
839
 10
-7.05800
 20
13.0353
 30
0.000000
  70
    32
  0
VERTEX
  8
VISIBLE_NARROW__ISO_
  5
83A
 10
-7.06207
 20
13.0348
 30
0.000000
  70
    32
  0
VERTEX
  8
VISIBLE_NARROW__ISO_
  5
83B
 10
-7.06614
 20
13.0343
 30
0.000000
  70
    32
  0
VERTEX
  8
VISIBLE_NARROW__ISO_
  5
83C
 10
-7.07021
 20
13.0338
 30
0.000000
  70
    32
  0
VERTEX
  8
VISIBLE_NARROW__ISO_
  5
83D
 10
-7.07427
 20
13.0332
 30
0.000000
  70
    32
  0
VERTEX
  8
VISIBLE_NARROW__ISO_
  5
83E
 10
-7.07834
 20
13.0327
 30
0.000000
  70
    32
  0
VERTEX
  8
VISIBLE_NARROW__ISO_
  5
83F
 10
-7.08240
 20
13.0321
 30
0.000000
  70
    32
  0
VERTEX
  8
VISIBLE_NARROW__ISO_
  5
840
 10
-7.08646
 20
13.0316
 30
0.000000
  70
    32
  0
VERTEX
  8
VISIBLE_NARROW__ISO_
  5
841
 10
-7.09052
 20
13.0310
 30
0.000000
  70
    32
  0
VERTEX
  8
VISIBLE_NARROW__ISO_
  5
842
 10
-7.09457
 20
13.0304
 30
0.000000
  70
    32
  0
VERTEX
  8
VISIBLE_NARROW__ISO_
  5
843
 10
-7.09863
 20
13.0298
 30
0.000000
  70
    32
  0
VERTEX
  8
VISIBLE_NARROW__ISO_
  5
844
 10
-7.10268
 20
13.0292
 30
0.000000
  70
    32
  0
VERTEX
  8
VISIBLE_NARROW__ISO_
  5
845
 10
-7.10673
 20
13.0285
 30
0.000000
  70
    32
  0
VERTEX
  8
VISIBLE_NARROW__ISO_
  5
846
 10
-7.11078
 20
13.0279
 30
0.000000
  70
    32
  0
VERTEX
  8
VISIBLE_NARROW__ISO_
  5
847
 10
-7.11483
 20
13.0272
 30
0.000000
  70
    32
  0
VERTEX
  8
VISIBLE_NARROW__ISO_
  5
848
 10
-7.11887
 20
13.0266
 30
0.000000
  70
    32
  0
VERTEX
  8
VISIBLE_NARROW__ISO_
  5
849
 10
-7.12292
 20
13.0259
 30
0.000000
  70
    32
  0
VERTEX
  8
VISIBLE_NARROW__ISO_
  5
84A
 10
-7.12696
 20
13.0252
 30
0.000000
  70
    32
  0
VERTEX
  8
VISIBLE_NARROW__ISO_
  5
84B
 10
-7.13100
 20
13.0245
 30
0.000000
  70
    32
  0
VERTEX
  8
VISIBLE_NARROW__ISO_
  5
84C
 10
-7.13503
 20
13.0238
 30
0.000000
  70
    32
  0
VERTEX
  8
VISIBLE_NARROW__ISO_
  5
84D
 10
-7.13907
 20
13.0230
 30
0.000000
  70
    32
  0
VERTEX
  8
VISIBLE_NARROW__ISO_
  5
84E
 10
-7.14310
 20
13.0223
 30
0.000000
  70
    32
  0
VERTEX
  8
VISIBLE_NARROW__ISO_
  5
84F
 10
-7.14713
 20
13.0215
 30
0.000000
  70
    32
  0
VERTEX
  8
VISIBLE_NARROW__ISO_
  5
850
 10
-7.15116
 20
13.0208
 30
0.000000
  70
    32
  0
VERTEX
  8
VISIBLE_NARROW__ISO_
  5
851
 10
-7.15518
 20
13.0200
 30
0.000000
  70
    32
  0
VERTEX
  8
VISIBLE_NARROW__ISO_
  5
852
 10
-7.15920
 20
13.0192
 30
0.000000
  70
    32
  0
VERTEX
  8
VISIBLE_NARROW__ISO_
  5
853
 10
-7.16322
 20
13.0184
 30
0.000000
  70
    32
  0
VERTEX
  8
VISIBLE_NARROW__ISO_
  5
854
 10
-7.16724
 20
13.0176
 30
0.000000
  70
    32
  0
VERTEX
  8
VISIBLE_NARROW__ISO_
  5
855
 10
-7.17126
 20
13.0167
 30
0.000000
  70
    32
  0
VERTEX
  8
VISIBLE_NARROW__ISO_
  5
856
 10
-7.17527
 20
13.0159
 30
0.000000
  70
    32
  0
VERTEX
  8
VISIBLE_NARROW__ISO_
  5
857
 10
-7.17928
 20
13.0150
 30
0.000000
  70
    32
  0
VERTEX
  8
VISIBLE_NARROW__ISO_
  5
858
 10
-7.18329
 20
13.0142
 30
0.000000
  70
    32
  0
VERTEX
  8
VISIBLE_NARROW__ISO_
  5
859
 10
-7.18729
 20
13.0133
 30
0.000000
  70
    32
  0
VERTEX
  8
VISIBLE_NARROW__ISO_
  5
85A
 10
-7.19129
 20
13.0124
 30
0.000000
  70
    32
  0
VERTEX
  8
VISIBLE_NARROW__ISO_
  5
85B
 10
-7.19529
 20
13.0115
 30
0.000000
  70
    32
  0
VERTEX
  8
VISIBLE_NARROW__ISO_
  5
85C
 10
-7.19929
 20
13.0106
 30
0.000000
  70
    32
  0
VERTEX
  8
VISIBLE_NARROW__ISO_
  5
85D
 10
-7.20328
 20
13.0096
 30
0.000000
  70
    32
  0
VERTEX
  8
VISIBLE_NARROW__ISO_
  5
85E
 10
-7.20727
 20
13.0087
 30
0.000000
  70
    32
  0
VERTEX
  8
VISIBLE_NARROW__ISO_
  5
85F
 10
-7.21126
 20
13.0078
 30
0.000000
  70
    32
  0
VERTEX
  8
VISIBLE_NARROW__ISO_
  5
860
 10
-7.21524
 20
13.0068
 30
0.000000
  70
    32
  0
VERTEX
  8
VISIBLE_NARROW__ISO_
  5
861
 10
-7.21923
 20
13.0058
 30
0.000000
  70
    32
  0
VERTEX
  8
VISIBLE_NARROW__ISO_
  5
862
 10
-7.22320
 20
13.0048
 30
0.000000
  70
    32
  0
VERTEX
  8
VISIBLE_NARROW__ISO_
  5
863
 10
-7.22718
 20
13.0038
 30
0.000000
  70
    32
  0
VERTEX
  8
VISIBLE_NARROW__ISO_
  5
864
 10
-7.23115
 20
13.0028
 30
0.000000
  70
    32
  0
VERTEX
  8
VISIBLE_NARROW__ISO_
  5
865
 10
-7.23512
 20
13.0018
 30
0.000000
  70
    32
  0
VERTEX
  8
VISIBLE_NARROW__ISO_
  5
866
 10
-7.23909
 20
13.0007
 30
0.000000
  70
    32
  0
VERTEX
  8
VISIBLE_NARROW__ISO_
  5
867
 10
-7.24305
 20
12.9997
 30
0.000000
  70
    32
  0
VERTEX
  8
VISIBLE_NARROW__ISO_
  5
868
 10
-7.24701
 20
12.9986
 30
0.000000
  70
    32
  0
VERTEX
  8
VISIBLE_NARROW__ISO_
  5
869
 10
-7.25097
 20
12.9975
 30
0.000000
  70
    32
  0
VERTEX
  8
VISIBLE_NARROW__ISO_
  5
86A
 10
-7.25492
 20
12.9965
 30
0.000000
  70
    32
  0
VERTEX
  8
VISIBLE_NARROW__ISO_
  5
86B
 10
-7.25887
 20
12.9954
 30
0.000000
  70
    32
  0
VERTEX
  8
VISIBLE_NARROW__ISO_
  5
86C
 10
-7.26282
 20
12.9942
 30
0.000000
  70
    32
  0
VERTEX
  8
VISIBLE_NARROW__ISO_
  5
86D
 10
-7.26676
 20
12.9931
 30
0.000000
  70
    32
  0
VERTEX
  8
VISIBLE_NARROW__ISO_
  5
86E
 10
-7.27070
 20
12.9920
 30
0.000000
  70
    32
  0
VERTEX
  8
VISIBLE_NARROW__ISO_
  5
86F
 10
-7.27464
 20
12.9908
 30
0.000000
  70
    32
  0
VERTEX
  8
VISIBLE_NARROW__ISO_
  5
870
 10
-7.27857
 20
12.9897
 30
0.000000
  70
    32
  0
VERTEX
  8
VISIBLE_NARROW__ISO_
  5
871
 10
-7.28250
 20
12.9885
 30
0.000000
  70
    32
  0
VERTEX
  8
VISIBLE_NARROW__ISO_
  5
872
 10
-7.28643
 20
12.9873
 30
0.000000
  70
    32
  0
VERTEX
  8
VISIBLE_NARROW__ISO_
  5
873
 10
-7.29035
 20
12.9861
 30
0.000000
  70
    32
  0
VERTEX
  8
VISIBLE_NARROW__ISO_
  5
874
 10
-7.29427
 20
12.9849
 30
0.000000
  70
    32
  0
VERTEX
  8
VISIBLE_NARROW__ISO_
  5
875
 10
-7.29818
 20
12.9837
 30
0.000000
  70
    32
  0
VERTEX
  8
VISIBLE_NARROW__ISO_
  5
876
 10
-7.30209
 20
12.9825
 30
0.000000
  70
    32
  0
VERTEX
  8
VISIBLE_NARROW__ISO_
  5
877
 10
-7.30600
 20
12.9812
 30
0.000000
  70
    32
  0
VERTEX
  8
VISIBLE_NARROW__ISO_
  5
878
 10
-7.30990
 20
12.9800
 30
0.000000
  70
    32
  0
VERTEX
  8
VISIBLE_NARROW__ISO_
  5
879
 10
-7.31380
 20
12.9787
 30
0.000000
  70
    32
  0
VERTEX
  8
VISIBLE_NARROW__ISO_
  5
87A
 10
-7.31770
 20
12.9774
 30
0.000000
  70
    32
  0
VERTEX
  8
VISIBLE_NARROW__ISO_
  5
87B
 10
-7.32159
 20
12.9761
 30
0.000000
  70
    32
  0
VERTEX
  8
VISIBLE_NARROW__ISO_
  5
87C
 10
-7.32547
 20
12.9748
 30
0.000000
  70
    32
  0
VERTEX
  8
VISIBLE_NARROW__ISO_
  5
87D
 10
-7.32936
 20
12.9735
 30
0.000000
  70
    32
  0
VERTEX
  8
VISIBLE_NARROW__ISO_
  5
87E
 10
-7.33324
 20
12.9722
 30
0.000000
  70
    32
  0
VERTEX
  8
VISIBLE_NARROW__ISO_
  5
87F
 10
-7.33711
 20
12.9708
 30
0.000000
  70
    32
  0
VERTEX
  8
VISIBLE_NARROW__ISO_
  5
880
 10
-7.34098
 20
12.9695
 30
0.000000
  70
    32
  0
VERTEX
  8
VISIBLE_NARROW__ISO_
  5
881
 10
-7.34485
 20
12.9681
 30
0.000000
  70
    32
  0
VERTEX
  8
VISIBLE_NARROW__ISO_
  5
882
 10
-7.34871
 20
12.9667
 30
0.000000
  70
    32
  0
VERTEX
  8
VISIBLE_NARROW__ISO_
  5
883
 10
-7.35257
 20
12.9653
 30
0.000000
  70
    32
  0
VERTEX
  8
VISIBLE_NARROW__ISO_
  5
884
 10
-7.35643
 20
12.9640
 30
0.000000
  70
    32
  0
VERTEX
  8
VISIBLE_NARROW__ISO_
  5
885
 10
-7.36028
 20
12.9625
 30
0.000000
  70
    32
  0
VERTEX
  8
VISIBLE_NARROW__ISO_
  5
886
 10
-7.36412
 20
12.9611
 30
0.000000
  70
    32
  0
VERTEX
  8
VISIBLE_NARROW__ISO_
  5
887
 10
-7.36796
 20
12.9597
 30
0.000000
  70
    32
  0
VERTEX
  8
VISIBLE_NARROW__ISO_
  5
888
 10
-7.37180
 20
12.9582
 30
0.000000
  70
    32
  0
VERTEX
  8
VISIBLE_NARROW__ISO_
  5
889
 10
-7.37563
 20
12.9568
 30
0.000000
  70
    32
  0
VERTEX
  8
VISIBLE_NARROW__ISO_
  5
88A
 10
-7.37946
 20
12.9553
 30
0.000000
  70
    32
  0
VERTEX
  8
VISIBLE_NARROW__ISO_
  5
88B
 10
-7.38329
 20
12.9538
 30
0.000000
  70
    32
  0
VERTEX
  8
VISIBLE_NARROW__ISO_
  5
88C
 10
-7.38710
 20
12.9523
 30
0.000000
  70
    32
  0
VERTEX
  8
VISIBLE_NARROW__ISO_
  5
88D
 10
-7.39092
 20
12.9508
 30
0.000000
  70
    32
  0
VERTEX
  8
VISIBLE_NARROW__ISO_
  5
88E
 10
-7.39473
 20
12.9493
 30
0.000000
  70
    32
  0
VERTEX
  8
VISIBLE_NARROW__ISO_
  5
88F
 10
-7.39853
 20
12.9478
 30
0.000000
  70
    32
  0
VERTEX
  8
VISIBLE_NARROW__ISO_
  5
890
 10
-7.40233
 20
12.9462
 30
0.000000
  70
    32
  0
VERTEX
  8
VISIBLE_NARROW__ISO_
  5
891
 10
-7.40613
 20
12.9447
 30
0.000000
  70
    32
  0
VERTEX
  8
VISIBLE_NARROW__ISO_
  5
892
 10
-7.40992
 20
12.9431
 30
0.000000
  70
    32
  0
VERTEX
  8
VISIBLE_NARROW__ISO_
  5
893
 10
-7.41370
 20
12.9415
 30
0.000000
  70
    32
  0
VERTEX
  8
VISIBLE_NARROW__ISO_
  5
894
 10
-7.41749
 20
12.9400
 30
0.000000
  70
    32
  0
VERTEX
  8
VISIBLE_NARROW__ISO_
  5
895
 10
-7.42126
 20
12.9384
 30
0.000000
  70
    32
  0
VERTEX
  8
VISIBLE_NARROW__ISO_
  5
896
 10
-7.42503
 20
12.9368
 30
0.000000
  70
    32
  0
VERTEX
  8
VISIBLE_NARROW__ISO_
  5
897
 10
-7.42880
 20
12.9351
 30
0.000000
  70
    32
  0
VERTEX
  8
VISIBLE_NARROW__ISO_
  5
898
 10
-7.43256
 20
12.9335
 30
0.000000
  70
    32
  0
VERTEX
  8
VISIBLE_NARROW__ISO_
  5
899
 10
-7.43632
 20
12.9319
 30
0.000000
  70
    32
  0
VERTEX
  8
VISIBLE_NARROW__ISO_
  5
89A
 10
-7.44007
 20
12.9302
 30
0.000000
  70
    32
  0
VERTEX
  8
VISIBLE_NARROW__ISO_
  5
89B
 10
-7.44381
 20
12.9285
 30
0.000000
  70
    32
  0
VERTEX
  8
VISIBLE_NARROW__ISO_
  5
89C
 10
-7.44755
 20
12.9268
 30
0.000000
  70
    32
  0
VERTEX
  8
VISIBLE_NARROW__ISO_
  5
89D
 10
-7.45129
 20
12.9252
 30
0.000000
  70
    32
  0
VERTEX
  8
VISIBLE_NARROW__ISO_
  5
89E
 10
-7.45502
 20
12.9235
 30
0.000000
  70
    32
  0
VERTEX
  8
VISIBLE_NARROW__ISO_
  5
89F
 10
-7.45875
 20
12.9217
 30
0.000000
  70
    32
  0
VERTEX
  8
VISIBLE_NARROW__ISO_
  5
8A0
 10
-7.46246
 20
12.9200
 30
0.000000
  70
    32
  0
VERTEX
  8
VISIBLE_NARROW__ISO_
  5
8A1
 10
-7.46618
 20
12.9183
 30
0.000000
  70
    32
  0
VERTEX
  8
VISIBLE_NARROW__ISO_
  5
8A2
 10
-7.46989
 20
12.9165
 30
0.000000
  70
    32
  0
VERTEX
  8
VISIBLE_NARROW__ISO_
  5
8A3
 10
-7.47359
 20
12.9148
 30
0.000000
  70
    32
  0
VERTEX
  8
VISIBLE_NARROW__ISO_
  5
8A4
 10
-7.47729
 20
12.9130
 30
0.000000
  70
    32
  0
VERTEX
  8
VISIBLE_NARROW__ISO_
  5
8A5
 10
-7.48098
 20
12.9112
 30
0.000000
  70
    32
  0
VERTEX
  8
VISIBLE_NARROW__ISO_
  5
8A6
 10
-7.48467
 20
12.9094
 30
0.000000
  70
    32
  0
VERTEX
  8
VISIBLE_NARROW__ISO_
  5
8A7
 10
-7.48835
 20
12.9076
 30
0.000000
  70
    32
  0
VERTEX
  8
VISIBLE_NARROW__ISO_
  5
8A8
 10
-7.49203
 20
12.9058
 30
0.000000
  70
    32
  0
VERTEX
  8
VISIBLE_NARROW__ISO_
  5
8A9
 10
-7.49570
 20
12.9040
 30
0.000000
  70
    32
  0
VERTEX
  8
VISIBLE_NARROW__ISO_
  5
8AA
 10
-7.49936
 20
12.9021
 30
0.000000
  70
    32
  0
VERTEX
  8
VISIBLE_NARROW__ISO_
  5
8AB
 10
-7.50302
 20
12.9003
 30
0.000000
  70
    32
  0
VERTEX
  8
VISIBLE_NARROW__ISO_
  5
8AC
 10
-7.50667
 20
12.8984
 30
0.000000
  70
    32
  0
VERTEX
  8
VISIBLE_NARROW__ISO_
  5
8AD
 10
-7.51032
 20
12.8965
 30
0.000000
  70
    32
  0
VERTEX
  8
VISIBLE_NARROW__ISO_
  5
8AE
 10
-7.51396
 20
12.8946
 30
0.000000
  70
    32
  0
VERTEX
  8
VISIBLE_NARROW__ISO_
  5
8AF
 10
-7.51760
 20
12.8927
 30
0.000000
  70
    32
  0
VERTEX
  8
VISIBLE_NARROW__ISO_
  5
8B0
 10
-7.52123
 20
12.8908
 30
0.000000
  70
    32
  0
VERTEX
  8
VISIBLE_NARROW__ISO_
  5
8B1
 10
-7.52485
 20
12.8889
 30
0.000000
  70
    32
  0
VERTEX
  8
VISIBLE_NARROW__ISO_
  5
8B2
 10
-7.52847
 20
12.8870
 30
0.000000
  70
    32
  0
VERTEX
  8
VISIBLE_NARROW__ISO_
  5
8B3
 10
-7.53208
 20
12.8850
 30
0.000000
  70
    32
  0
VERTEX
  8
VISIBLE_NARROW__ISO_
  5
8B4
 10
-7.53569
 20
12.8831
 30
0.000000
  70
    32
  0
VERTEX
  8
VISIBLE_NARROW__ISO_
  5
8B5
 10
-7.53929
 20
12.8811
 30
0.000000
  70
    32
  0
VERTEX
  8
VISIBLE_NARROW__ISO_
  5
8B6
 10
-7.54288
 20
12.8792
 30
0.000000
  70
    32
  0
VERTEX
  8
VISIBLE_NARROW__ISO_
  5
8B7
 10
-7.54647
 20
12.8772
 30
0.000000
  70
    32
  0
VERTEX
  8
VISIBLE_NARROW__ISO_
  5
8B8
 10
-7.55005
 20
12.8752
 30
0.000000
  70
    32
  0
VERTEX
  8
VISIBLE_NARROW__ISO_
  5
8B9
 10
-7.55363
 20
12.8732
 30
0.000000
  70
    32
  0
VERTEX
  8
VISIBLE_NARROW__ISO_
  5
8BA
 10
-7.55720
 20
12.8712
 30
0.000000
  70
    32
  0
VERTEX
  8
VISIBLE_NARROW__ISO_
  5
8BB
 10
-7.56076
 20
12.8691
 30
0.000000
  70
    32
  0
VERTEX
  8
VISIBLE_NARROW__ISO_
  5
8BC
 10
-7.56432
 20
12.8671
 30
0.000000
  70
    32
  0
VERTEX
  8
VISIBLE_NARROW__ISO_
  5
8BD
 10
-7.56787
 20
12.8650
 30
0.000000
  70
    32
  0
VERTEX
  8
VISIBLE_NARROW__ISO_
  5
8BE
 10
-7.57142
 20
12.8630
 30
0.000000
  70
    32
  0
VERTEX
  8
VISIBLE_NARROW__ISO_
  5
8BF
 10
-7.57495
 20
12.8609
 30
0.000000
  70
    32
  0
VERTEX
  8
VISIBLE_NARROW__ISO_
  5
8C0
 10
-7.57849
 20
12.8588
 30
0.000000
  70
    32
  0
VERTEX
  8
VISIBLE_NARROW__ISO_
  5
8C1
 10
-7.58201
 20
12.8567
 30
0.000000
  70
    32
  0
VERTEX
  8
VISIBLE_NARROW__ISO_
  5
8C2
 10
-7.58553
 20
12.8546
 30
0.000000
  70
    32
  0
VERTEX
  8
VISIBLE_NARROW__ISO_
  5
8C3
 10
-7.58904
 20
12.8525
 30
0.000000
  70
    32
  0
VERTEX
  8
VISIBLE_NARROW__ISO_
  5
8C4
 10
-7.59255
 20
12.8504
 30
0.000000
  70
    32
  0
VERTEX
  8
VISIBLE_NARROW__ISO_
  5
8C5
 10
-7.59605
 20
12.8482
 30
0.000000
  70
    32
  0
VERTEX
  8
VISIBLE_NARROW__ISO_
  5
8C6
 10
-7.59954
 20
12.8461
 30
0.000000
  70
    32
  0
VERTEX
  8
VISIBLE_NARROW__ISO_
  5
8C7
 10
-7.60303
 20
12.8439
 30
0.000000
  70
    32
  0
VERTEX
  8
VISIBLE_NARROW__ISO_
  5
8C8
 10
-7.60651
 20
12.8417
 30
0.000000
  70
    32
  0
VERTEX
  8
VISIBLE_NARROW__ISO_
  5
8C9
 10
-7.60998
 20
12.8396
 30
0.000000
  70
    32
  0
VERTEX
  8
VISIBLE_NARROW__ISO_
  5
8CA
 10
-7.61345
 20
12.8374
 30
0.000000
  70
    32
  0
VERTEX
  8
VISIBLE_NARROW__ISO_
  5
8CB
 10
-7.61691
 20
12.8352
 30
0.000000
  70
    32
  0
VERTEX
  8
VISIBLE_NARROW__ISO_
  5
8CC
 10
-7.62036
 20
12.8330
 30
0.000000
  70
    32
  0
VERTEX
  8
VISIBLE_NARROW__ISO_
  5
8CD
 10
-7.62380
 20
12.8307
 30
0.000000
  70
    32
  0
VERTEX
  8
VISIBLE_NARROW__ISO_
  5
8CE
 10
-7.62724
 20
12.8285
 30
0.000000
  70
    32
  0
VERTEX
  8
VISIBLE_NARROW__ISO_
  5
8CF
 10
-7.63068
 20
12.8263
 30
0.000000
  70
    32
  0
VERTEX
  8
VISIBLE_NARROW__ISO_
  5
8D0
 10
-7.63410
 20
12.8240
 30
0.000000
  70
    32
  0
VERTEX
  8
VISIBLE_NARROW__ISO_
  5
8D1
 10
-7.63752
 20
12.8217
 30
0.000000
  70
    32
  0
VERTEX
  8
VISIBLE_NARROW__ISO_
  5
8D2
 10
-7.64093
 20
12.8195
 30
0.000000
  70
    32
  0
VERTEX
  8
VISIBLE_NARROW__ISO_
  5
8D3
 10
-7.64434
 20
12.8172
 30
0.000000
  70
    32
  0
VERTEX
  8
VISIBLE_NARROW__ISO_
  5
8D4
 10
-7.64773
 20
12.8149
 30
0.000000
  70
    32
  0
VERTEX
  8
VISIBLE_NARROW__ISO_
  5
8D5
 10
-7.65112
 20
12.8126
 30
0.000000
  70
    32
  0
VERTEX
  8
VISIBLE_NARROW__ISO_
  5
8D6
 10
-7.65451
 20
12.8103
 30
0.000000
  70
    32
  0
VERTEX
  8
VISIBLE_NARROW__ISO_
  5
8D7
 10
-7.65788
 20
12.8079
 30
0.000000
  70
    32
  0
VERTEX
  8
VISIBLE_NARROW__ISO_
  5
8D8
 10
-7.66125
 20
12.8056
 30
0.000000
  70
    32
  0
VERTEX
  8
VISIBLE_NARROW__ISO_
  5
8D9
 10
-7.66461
 20
12.8032
 30
0.000000
  70
    32
  0
VERTEX
  8
VISIBLE_NARROW__ISO_
  5
8DA
 10
-7.66797
 20
12.8009
 30
0.000000
  70
    32
  0
VERTEX
  8
VISIBLE_NARROW__ISO_
  5
8DB
 10
-7.67132
 20
12.7985
 30
0.000000
  70
    32
  0
VERTEX
  8
VISIBLE_NARROW__ISO_
  5
8DC
 10
-7.67466
 20
12.7961
 30
0.000000
  70
    32
  0
VERTEX
  8
VISIBLE_NARROW__ISO_
  5
8DD
 10
-7.67799
 20
12.7937
 30
0.000000
  70
    32
  0
VERTEX
  8
VISIBLE_NARROW__ISO_
  5
8DE
 10
-7.68131
 20
12.7913
 30
0.000000
  70
    32
  0
VERTEX
  8
VISIBLE_NARROW__ISO_
  5
8DF
 10
-7.68463
 20
12.7889
 30
0.000000
  70
    32
  0
VERTEX
  8
VISIBLE_NARROW__ISO_
  5
8E0
 10
-7.68794
 20
12.7865
 30
0.000000
  70
    32
  0
VERTEX
  8
VISIBLE_NARROW__ISO_
  5
8E1
 10
-7.69125
 20
12.7841
 30
0.000000
  70
    32
  0
VERTEX
  8
VISIBLE_NARROW__ISO_
  5
8E2
 10
-7.69454
 20
12.7816
 30
0.000000
  70
    32
  0
VERTEX
  8
VISIBLE_NARROW__ISO_
  5
8E3
 10
-7.69783
 20
12.7792
 30
0.000000
  70
    32
  0
VERTEX
  8
VISIBLE_NARROW__ISO_
  5
8E4
 10
-7.70111
 20
12.7767
 30
0.000000
  70
    32
  0
VERTEX
  8
VISIBLE_NARROW__ISO_
  5
8E5
 10
-7.70438
 20
12.7743
 30
0.000000
  70
    32
  0
VERTEX
  8
VISIBLE_NARROW__ISO_
  5
8E6
 10
-7.70765
 20
12.7718
 30
0.000000
  70
    32
  0
VERTEX
  8
VISIBLE_NARROW__ISO_
  5
8E7
 10
-7.71091
 20
12.7693
 30
0.000000
  70
    32
  0
VERTEX
  8
VISIBLE_NARROW__ISO_
  5
8E8
 10
-7.71416
 20
12.7668
 30
0.000000
  70
    32
  0
VERTEX
  8
VISIBLE_NARROW__ISO_
  5
8E9
 10
-7.71740
 20
12.7643
 30
0.000000
  70
    32
  0
VERTEX
  8
VISIBLE_NARROW__ISO_
  5
8EA
 10
-7.72063
 20
12.7618
 30
0.000000
  70
    32
  0
VERTEX
  8
VISIBLE_NARROW__ISO_
  5
8EB
 10
-7.72386
 20
12.7592
 30
0.000000
  70
    32
  0
VERTEX
  8
VISIBLE_NARROW__ISO_
  5
8EC
 10
-7.72708
 20
12.7567
 30
0.000000
  70
    32
  0
VERTEX
  8
VISIBLE_NARROW__ISO_
  5
8ED
 10
-7.73029
 20
12.7541
 30
0.000000
  70
    32
  0
VERTEX
  8
VISIBLE_NARROW__ISO_
  5
8EE
 10
-7.73349
 20
12.7516
 30
0.000000
  70
    32
  0
VERTEX
  8
VISIBLE_NARROW__ISO_
  5
8EF
 10
-7.73669
 20
12.7490
 30
0.000000
  70
    32
  0
VERTEX
  8
VISIBLE_NARROW__ISO_
  5
8F0
 10
-7.73988
 20
12.7464
 30
0.000000
  70
    32
  0
VERTEX
  8
VISIBLE_NARROW__ISO_
  5
8F1
 10
-7.74305
 20
12.7438
 30
0.000000
  70
    32
  0
VERTEX
  8
VISIBLE_NARROW__ISO_
  5
8F2
 10
-7.74623
 20
12.7412
 30
0.000000
  70
    32
  0
VERTEX
  8
VISIBLE_NARROW__ISO_
  5
8F3
 10
-7.74939
 20
12.7386
 30
0.000000
  70
    32
  0
VERTEX
  8
VISIBLE_NARROW__ISO_
  5
8F4
 10
-7.75254
 20
12.7360
 30
0.000000
  70
    32
  0
VERTEX
  8
VISIBLE_NARROW__ISO_
  5
8F5
 10
-7.75569
 20
12.7334
 30
0.000000
  70
    32
  0
VERTEX
  8
VISIBLE_NARROW__ISO_
  5
8F6
 10
-7.75883
 20
12.7307
 30
0.000000
  70
    32
  0
VERTEX
  8
VISIBLE_NARROW__ISO_
  5
8F7
 10
-7.76196
 20
12.7281
 30
0.000000
  70
    32
  0
VERTEX
  8
VISIBLE_NARROW__ISO_
  5
8F8
 10
-7.76508
 20
12.7254
 30
0.000000
  70
    32
  0
VERTEX
  8
VISIBLE_NARROW__ISO_
  5
8F9
 10
-7.76820
 20
12.7228
 30
0.000000
  70
    32
  0
VERTEX
  8
VISIBLE_NARROW__ISO_
  5
8FA
 10
-7.77130
 20
12.7201
 30
0.000000
  70
    32
  0
VERTEX
  8
VISIBLE_NARROW__ISO_
  5
8FB
 10
-7.77440
 20
12.7174
 30
0.000000
  70
    32
  0
VERTEX
  8
VISIBLE_NARROW__ISO_
  5
8FC
 10
-7.77749
 20
12.7147
 30
0.000000
  70
    32
  0
VERTEX
  8
VISIBLE_NARROW__ISO_
  5
8FD
 10
-7.78057
 20
12.7120
 30
0.000000
  70
    32
  0
VERTEX
  8
VISIBLE_NARROW__ISO_
  5
8FE
 10
-7.78365
 20
12.7093
 30
0.000000
  70
    32
  0
VERTEX
  8
VISIBLE_NARROW__ISO_
  5
8FF
 10
-7.78671
 20
12.7065
 30
0.000000
  70
    32
  0
VERTEX
  8
VISIBLE_NARROW__ISO_
  5
900
 10
-7.78977
 20
12.7038
 30
0.000000
  70
    32
  0
VERTEX
  8
VISIBLE_NARROW__ISO_
  5
901
 10
-7.79281
 20
12.7011
 30
0.000000
  70
    32
  0
VERTEX
  8
VISIBLE_NARROW__ISO_
  5
902
 10
-7.79585
 20
12.6983
 30
0.000000
  70
    32
  0
VERTEX
  8
VISIBLE_NARROW__ISO_
  5
903
 10
-7.79888
 20
12.6955
 30
0.000000
  70
    32
  0
VERTEX
  8
VISIBLE_NARROW__ISO_
  5
904
 10
-7.80190
 20
12.6928
 30
0.000000
  70
    32
  0
VERTEX
  8
VISIBLE_NARROW__ISO_
  5
905
 10
-7.80492
 20
12.6900
 30
0.000000
  70
    32
  0
VERTEX
  8
VISIBLE_NARROW__ISO_
  5
906
 10
-7.80792
 20
12.6872
 30
0.000000
  70
    32
  0
VERTEX
  8
VISIBLE_NARROW__ISO_
  5
907
 10
-7.81092
 20
12.6844
 30
0.000000
  70
    32
  0
VERTEX
  8
VISIBLE_NARROW__ISO_
  5
908
 10
-7.81390
 20
12.6816
 30
0.000000
  70
    32
  0
VERTEX
  8
VISIBLE_NARROW__ISO_
  5
909
 10
-7.81688
 20
12.6788
 30
0.000000
  70
    32
  0
VERTEX
  8
VISIBLE_NARROW__ISO_
  5
90A
 10
-7.81985
 20
12.6759
 30
0.000000
  70
    32
  0
VERTEX
  8
VISIBLE_NARROW__ISO_
  5
90B
 10
-7.82281
 20
12.6731
 30
0.000000
  70
    32
  0
VERTEX
  8
VISIBLE_NARROW__ISO_
  5
90C
 10
-7.82577
 20
12.6703
 30
0.000000
  70
    32
  0
VERTEX
  8
VISIBLE_NARROW__ISO_
  5
90D
 10
-7.82871
 20
12.6674
 30
0.000000
  70
    32
  0
VERTEX
  8
VISIBLE_NARROW__ISO_
  5
90E
 10
-7.83165
 20
12.6645
 30
0.000000
  70
    32
  0
VERTEX
  8
VISIBLE_NARROW__ISO_
  5
90F
 10
-7.83457
 20
12.6617
 30
0.000000
  70
    32
  0
VERTEX
  8
VISIBLE_NARROW__ISO_
  5
910
 10
-7.83749
 20
12.6588
 30
0.000000
  70
    32
  0
VERTEX
  8
VISIBLE_NARROW__ISO_
  5
911
 10
-7.84040
 20
12.6559
 30
0.000000
  70
    32
  0
VERTEX
  8
VISIBLE_NARROW__ISO_
  5
912
 10
-7.84330
 20
12.6530
 30
0.000000
  70
    32
  0
VERTEX
  8
VISIBLE_NARROW__ISO_
  5
913
 10
-7.84619
 20
12.6501
 30
0.000000
  70
    32
  0
VERTEX
  8
VISIBLE_NARROW__ISO_
  5
914
 10
-7.84907
 20
12.6472
 30
0.000000
  70
    32
  0
VERTEX
  8
VISIBLE_NARROW__ISO_
  5
915
 10
-7.85194
 20
12.6442
 30
0.000000
  70
    32
  0
VERTEX
  8
VISIBLE_NARROW__ISO_
  5
916
 10
-7.85481
 20
12.6413
 30
0.000000
  70
    32
  0
VERTEX
  8
VISIBLE_NARROW__ISO_
  5
917
 10
-7.85766
 20
12.6384
 30
0.000000
  70
    32
  0
VERTEX
  8
VISIBLE_NARROW__ISO_
  5
918
 10
-7.86051
 20
12.6354
 30
0.000000
  70
    32
  0
VERTEX
  8
VISIBLE_NARROW__ISO_
  5
919
 10
-7.86334
 20
12.6324
 30
0.000000
  70
    32
  0
VERTEX
  8
VISIBLE_NARROW__ISO_
  5
91A
 10
-7.86617
 20
12.6295
 30
0.000000
  70
    32
  0
VERTEX
  8
VISIBLE_NARROW__ISO_
  5
91B
 10
-7.86899
 20
12.6265
 30
0.000000
  70
    32
  0
VERTEX
  8
VISIBLE_NARROW__ISO_
  5
91C
 10
-7.87180
 20
12.6235
 30
0.000000
  70
    32
  0
VERTEX
  8
VISIBLE_NARROW__ISO_
  5
91D
 10
-7.87460
 20
12.6205
 30
0.000000
  70
    32
  0
VERTEX
  8
VISIBLE_NARROW__ISO_
  5
91E
 10
-7.87739
 20
12.6175
 30
0.000000
  70
    32
  0
VERTEX
  8
VISIBLE_NARROW__ISO_
  5
91F
 10
-7.88017
 20
12.6145
 30
0.000000
  70
    32
  0
VERTEX
  8
VISIBLE_NARROW__ISO_
  5
920
 10
-7.88294
 20
12.6115
 30
0.000000
  70
    32
  0
VERTEX
  8
VISIBLE_NARROW__ISO_
  5
921
 10
-7.88570
 20
12.6084
 30
0.000000
  70
    32
  0
VERTEX
  8
VISIBLE_NARROW__ISO_
  5
922
 10
-7.88846
 20
12.6054
 30
0.000000
  70
    32
  0
VERTEX
  8
VISIBLE_NARROW__ISO_
  5
923
 10
-7.89120
 20
12.6023
 30
0.000000
  70
    32
  0
VERTEX
  8
VISIBLE_NARROW__ISO_
  5
924
 10
-7.89394
 20
12.5993
 30
0.000000
  70
    32
  0
VERTEX
  8
VISIBLE_NARROW__ISO_
  5
925
 10
-7.89666
 20
12.5962
 30
0.000000
  70
    32
  0
VERTEX
  8
VISIBLE_NARROW__ISO_
  5
926
 10
-7.89938
 20
12.5932
 30
0.000000
  70
    32
  0
VERTEX
  8
VISIBLE_NARROW__ISO_
  5
927
 10
-7.90208
 20
12.5901
 30
0.000000
  70
    32
  0
VERTEX
  8
VISIBLE_NARROW__ISO_
  5
928
 10
-7.90478
 20
12.5870
 30
0.000000
  70
    32
  0
VERTEX
  8
VISIBLE_NARROW__ISO_
  5
929
 10
-7.90747
 20
12.5839
 30
0.000000
  70
    32
  0
VERTEX
  8
VISIBLE_NARROW__ISO_
  5
92A
 10
-7.91015
 20
12.5808
 30
0.000000
  70
    32
  0
VERTEX
  8
VISIBLE_NARROW__ISO_
  5
92B
 10
-7.91281
 20
12.5777
 30
0.000000
  70
    32
  0
VERTEX
  8
VISIBLE_NARROW__ISO_
  5
92C
 10
-7.91547
 20
12.5745
 30
0.000000
  70
    32
  0
VERTEX
  8
VISIBLE_NARROW__ISO_
  5
92D
 10
-7.91812
 20
12.5714
 30
0.000000
  70
    32
  0
VERTEX
  8
VISIBLE_NARROW__ISO_
  5
92E
 10
-7.92076
 20
12.5683
 30
0.000000
  70
    32
  0
VERTEX
  8
VISIBLE_NARROW__ISO_
  5
92F
 10
-7.92339
 20
12.5651
 30
0.000000
  70
    32
  0
VERTEX
  8
VISIBLE_NARROW__ISO_
  5
930
 10
-7.92601
 20
12.5620
 30
0.000000
  70
    32
  0
VERTEX
  8
VISIBLE_NARROW__ISO_
  5
931
 10
-7.92862
 20
12.5588
 30
0.000000
  70
    32
  0
VERTEX
  8
VISIBLE_NARROW__ISO_
  5
932
 10
-7.93122
 20
12.5556
 30
0.000000
  70
    32
  0
VERTEX
  8
VISIBLE_NARROW__ISO_
  5
933
 10
-7.93381
 20
12.5525
 30
0.000000
  70
    32
  0
VERTEX
  8
VISIBLE_NARROW__ISO_
  5
934
 10
-7.93640
 20
12.5493
 30
0.000000
  70
    32
  0
VERTEX
  8
VISIBLE_NARROW__ISO_
  5
935
 10
-7.93897
 20
12.5461
 30
0.000000
  70
    32
  0
VERTEX
  8
VISIBLE_NARROW__ISO_
  5
936
 10
-7.94153
 20
12.5429
 30
0.000000
  70
    32
  0
VERTEX
  8
VISIBLE_NARROW__ISO_
  5
937
 10
-7.94408
 20
12.5397
 30
0.000000
  70
    32
  0
VERTEX
  8
VISIBLE_NARROW__ISO_
  5
938
 10
-7.94662
 20
12.5364
 30
0.000000
  70
    32
  0
VERTEX
  8
VISIBLE_NARROW__ISO_
  5
939
 10
-7.94916
 20
12.5332
 30
0.000000
  70
    32
  0
VERTEX
  8
VISIBLE_NARROW__ISO_
  5
93A
 10
-7.95168
 20
12.5300
 30
0.000000
  70
    32
  0
VERTEX
  8
VISIBLE_NARROW__ISO_
  5
93B
 10
-7.95419
 20
12.5267
 30
0.000000
  70
    32
  0
VERTEX
  8
VISIBLE_NARROW__ISO_
  5
93C
 10
-7.95669
 20
12.5235
 30
0.000000
  70
    32
  0
VERTEX
  8
VISIBLE_NARROW__ISO_
  5
93D
 10
-7.95918
 20
12.5202
 30
0.000000
  70
    32
  0
VERTEX
  8
VISIBLE_NARROW__ISO_
  5
93E
 10
-7.96167
 20
12.5170
 30
0.000000
  70
    32
  0
VERTEX
  8
VISIBLE_NARROW__ISO_
  5
93F
 10
-7.96414
 20
12.5137
 30
0.000000
  70
    32
  0
VERTEX
  8
VISIBLE_NARROW__ISO_
  5
940
 10
-7.96660
 20
12.5104
 30
0.000000
  70
    32
  0
VERTEX
  8
VISIBLE_NARROW__ISO_
  5
941
 10
-7.96905
 20
12.5071
 30
0.000000
  70
    32
  0
VERTEX
  8
VISIBLE_NARROW__ISO_
  5
942
 10
-7.97149
 20
12.5038
 30
0.000000
  70
    32
  0
VERTEX
  8
VISIBLE_NARROW__ISO_
  5
943
 10
-7.97393
 20
12.5005
 30
0.000000
  70
    32
  0
VERTEX
  8
VISIBLE_NARROW__ISO_
  5
944
 10
-7.97635
 20
12.4972
 30
0.000000
  70
    32
  0
VERTEX
  8
VISIBLE_NARROW__ISO_
  5
945
 10
-7.97876
 20
12.4939
 30
0.000000
  70
    32
  0
VERTEX
  8
VISIBLE_NARROW__ISO_
  5
946
 10
-7.98116
 20
12.4906
 30
0.000000
  70
    32
  0
VERTEX
  8
VISIBLE_NARROW__ISO_
  5
947
 10
-7.98355
 20
12.4873
 30
0.000000
  70
    32
  0
VERTEX
  8
VISIBLE_NARROW__ISO_
  5
948
 10
-7.98593
 20
12.4839
 30
0.000000
  70
    32
  0
VERTEX
  8
VISIBLE_NARROW__ISO_
  5
949
 10
-7.98830
 20
12.4806
 30
0.000000
  70
    32
  0
VERTEX
  8
VISIBLE_NARROW__ISO_
  5
94A
 10
-7.99066
 20
12.4772
 30
0.000000
  70
    32
  0
VERTEX
  8
VISIBLE_NARROW__ISO_
  5
94B
 10
-7.99301
 20
12.4739
 30
0.000000
  70
    32
  0
VERTEX
  8
VISIBLE_NARROW__ISO_
  5
94C
 10
-7.99535
 20
12.4705
 30
0.000000
  70
    32
  0
VERTEX
  8
VISIBLE_NARROW__ISO_
  5
94D
 10
-7.99768
 20
12.4671
 30
0.000000
  70
    32
  0
VERTEX
  8
VISIBLE_NARROW__ISO_
  5
94E
 10
-8.00000
 20
12.4637
 30
0.000000
  70
    32
  0
VERTEX
  8
VISIBLE_NARROW__ISO_
  5
94F
 10
-8.00230
 20
12.4603
 30
0.000000
  70
    32
  0
VERTEX
  8
VISIBLE_NARROW__ISO_
  5
950
 10
-8.00460
 20
12.4569
 30
0.000000
  70
    32
  0
VERTEX
  8
VISIBLE_NARROW__ISO_
  5
951
 10
-8.00689
 20
12.4535
 30
0.000000
  70
    32
  0
VERTEX
  8
VISIBLE_NARROW__ISO_
  5
952
 10
-8.00916
 20
12.4501
 30
0.000000
  70
    32
  0
VERTEX
  8
VISIBLE_NARROW__ISO_
  5
953
 10
-8.01143
 20
12.4467
 30
0.000000
  70
    32
  0
VERTEX
  8
VISIBLE_NARROW__ISO_
  5
954
 10
-8.01368
 20
12.4433
 30
0.000000
  70
    32
  0
VERTEX
  8
VISIBLE_NARROW__ISO_
  5
955
 10
-8.01593
 20
12.4398
 30
0.000000
  70
    32
  0
VERTEX
  8
VISIBLE_NARROW__ISO_
  5
956
 10
-8.01816
 20
12.4364
 30
0.000000
  70
    32
  0
VERTEX
  8
VISIBLE_NARROW__ISO_
  5
957
 10
-8.02039
 20
12.4330
 30
0.000000
  70
    32
  0
VERTEX
  8
VISIBLE_NARROW__ISO_
  5
958
 10
-8.02260
 20
12.4295
 30
0.000000
  70
    32
  0
VERTEX
  8
VISIBLE_NARROW__ISO_
  5
959
 10
-8.02480
 20
12.4260
 30
0.000000
  70
    32
  0
VERTEX
  8
VISIBLE_NARROW__ISO_
  5
95A
 10
-8.02699
 20
12.4226
 30
0.000000
  70
    32
  0
VERTEX
  8
VISIBLE_NARROW__ISO_
  5
95B
 10
-8.02917
 20
12.4191
 30
0.000000
  70
    32
  0
VERTEX
  8
VISIBLE_NARROW__ISO_
  5
95C
 10
-8.03134
 20
12.4156
 30
0.000000
  70
    32
  0
VERTEX
  8
VISIBLE_NARROW__ISO_
  5
95D
 10
-8.03350
 20
12.4121
 30
0.000000
  70
    32
  0
VERTEX
  8
VISIBLE_NARROW__ISO_
  5
95E
 10
-8.03565
 20
12.4086
 30
0.000000
  70
    32
  0
VERTEX
  8
VISIBLE_NARROW__ISO_
  5
95F
 10
-8.03778
 20
12.4051
 30
0.000000
  70
    32
  0
VERTEX
  8
VISIBLE_NARROW__ISO_
  5
960
 10
-8.03991
 20
12.4016
 30
0.000000
  70
    32
  0
VERTEX
  8
VISIBLE_NARROW__ISO_
  5
961
 10
-8.04203
 20
12.3981
 30
0.000000
  70
    32
  0
VERTEX
  8
VISIBLE_NARROW__ISO_
  5
962
 10
-8.04413
 20
12.3946
 30
0.000000
  70
    32
  0
VERTEX
  8
VISIBLE_NARROW__ISO_
  5
963
 10
-8.04622
 20
12.3911
 30
0.000000
  70
    32
  0
VERTEX
  8
VISIBLE_NARROW__ISO_
  5
964
 10
-8.04831
 20
12.3876
 30
0.000000
  70
    32
  0
VERTEX
  8
VISIBLE_NARROW__ISO_
  5
965
 10
-8.05038
 20
12.3840
 30
0.000000
  70
    32
  0
VERTEX
  8
VISIBLE_NARROW__ISO_
  5
966
 10
-8.05244
 20
12.3805
 30
0.000000
  70
    32
  0
VERTEX
  8
VISIBLE_NARROW__ISO_
  5
967
 10
-8.05449
 20
12.3769
 30
0.000000
  70
    32
  0
VERTEX
  8
VISIBLE_NARROW__ISO_
  5
968
 10
-8.05653
 20
12.3734
 30
0.000000
  70
    32
  0
VERTEX
  8
VISIBLE_NARROW__ISO_
  5
969
 10
-8.05856
 20
12.3698
 30
0.000000
  70
    32
  0
VERTEX
  8
VISIBLE_NARROW__ISO_
  5
96A
 10
-8.06058
 20
12.3662
 30
0.000000
  70
    32
  0
VERTEX
  8
VISIBLE_NARROW__ISO_
  5
96B
 10
-8.06258
 20
12.3626
 30
0.000000
  70
    32
  0
VERTEX
  8
VISIBLE_NARROW__ISO_
  5
96C
 10
-8.06458
 20
12.3591
 30
0.000000
  70
    32
  0
VERTEX
  8
VISIBLE_NARROW__ISO_
  5
96D
 10
-8.06656
 20
12.3555
 30
0.000000
  70
    32
  0
VERTEX
  8
VISIBLE_NARROW__ISO_
  5
96E
 10
-8.06854
 20
12.3519
 30
0.000000
  70
    32
  0
VERTEX
  8
VISIBLE_NARROW__ISO_
  5
96F
 10
-8.07050
 20
12.3483
 30
0.000000
  70
    32
  0
VERTEX
  8
VISIBLE_NARROW__ISO_
  5
970
 10
-8.07245
 20
12.3447
 30
0.000000
  70
    32
  0
VERTEX
  8
VISIBLE_NARROW__ISO_
  5
971
 10
-8.07439
 20
12.3411
 30
0.000000
  70
    32
  0
VERTEX
  8
VISIBLE_NARROW__ISO_
  5
972
 10
-8.07632
 20
12.3374
 30
0.000000
  70
    32
  0
VERTEX
  8
VISIBLE_NARROW__ISO_
  5
973
 10
-8.07824
 20
12.3338
 30
0.000000
  70
    32
  0
VERTEX
  8
VISIBLE_NARROW__ISO_
  5
974
 10
-8.08014
 20
12.3302
 30
0.000000
  70
    32
  0
VERTEX
  8
VISIBLE_NARROW__ISO_
  5
975
 10
-8.08204
 20
12.3266
 30
0.000000
  70
    32
  0
VERTEX
  8
VISIBLE_NARROW__ISO_
  5
976
 10
-8.08392
 20
12.3229
 30
0.000000
  70
    32
  0
VERTEX
  8
VISIBLE_NARROW__ISO_
  5
977
 10
-8.08580
 20
12.3193
 30
0.000000
  70
    32
  0
VERTEX
  8
VISIBLE_NARROW__ISO_
  5
978
 10
-8.08766
 20
12.3156
 30
0.000000
  70
    32
  0
VERTEX
  8
VISIBLE_NARROW__ISO_
  5
979
 10
-8.08951
 20
12.3119
 30
0.000000
  70
    32
  0
VERTEX
  8
VISIBLE_NARROW__ISO_
  5
97A
 10
-8.09135
 20
12.3083
 30
0.000000
  70
    32
  0
VERTEX
  8
VISIBLE_NARROW__ISO_
  5
97B
 10
-8.09318
 20
12.3046
 30
0.000000
  70
    32
  0
VERTEX
  8
VISIBLE_NARROW__ISO_
  5
97C
 10
-8.09500
 20
12.3009
 30
0.000000
  70
    32
  0
VERTEX
  8
VISIBLE_NARROW__ISO_
  5
97D
 10
-8.09680
 20
12.2973
 30
0.000000
  70
    32
  0
VERTEX
  8
VISIBLE_NARROW__ISO_
  5
97E
 10
-8.09860
 20
12.2936
 30
0.000000
  70
    32
  0
VERTEX
  8
VISIBLE_NARROW__ISO_
  5
97F
 10
-8.10038
 20
12.2899
 30
0.000000
  70
    32
  0
VERTEX
  8
VISIBLE_NARROW__ISO_
  5
980
 10
-8.10215
 20
12.2862
 30
0.000000
  70
    32
  0
VERTEX
  8
VISIBLE_NARROW__ISO_
  5
981
 10
-8.10391
 20
12.2825
 30
0.000000
  70
    32
  0
VERTEX
  8
VISIBLE_NARROW__ISO_
  5
982
 10
-8.10566
 20
12.2788
 30
0.000000
  70
    32
  0
VERTEX
  8
VISIBLE_NARROW__ISO_
  5
983
 10
-8.10740
 20
12.2750
 30
0.000000
  70
    32
  0
VERTEX
  8
VISIBLE_NARROW__ISO_
  5
984
 10
-8.10913
 20
12.2713
 30
0.000000
  70
    32
  0
VERTEX
  8
VISIBLE_NARROW__ISO_
  5
985
 10
-8.11084
 20
12.2676
 30
0.000000
  70
    32
  0
VERTEX
  8
VISIBLE_NARROW__ISO_
  5
986
 10
-8.11254
 20
12.2639
 30
0.000000
  70
    32
  0
VERTEX
  8
VISIBLE_NARROW__ISO_
  5
987
 10
-8.11424
 20
12.2601
 30
0.000000
  70
    32
  0
VERTEX
  8
VISIBLE_NARROW__ISO_
  5
988
 10
-8.11592
 20
12.2564
 30
0.000000
  70
    32
  0
VERTEX
  8
VISIBLE_NARROW__ISO_
  5
989
 10
-8.11759
 20
12.2527
 30
0.000000
  70
    32
  0
VERTEX
  8
VISIBLE_NARROW__ISO_
  5
98A
 10
-8.11924
 20
12.2489
 30
0.000000
  70
    32
  0
VERTEX
  8
VISIBLE_NARROW__ISO_
  5
98B
 10
-8.12089
 20
12.2451
 30
0.000000
  70
    32
  0
VERTEX
  8
VISIBLE_NARROW__ISO_
  5
98C
 10
-8.12252
 20
12.2414
 30
0.000000
  70
    32
  0
VERTEX
  8
VISIBLE_NARROW__ISO_
  5
98D
 10
-8.12415
 20
12.2376
 30
0.000000
  70
    32
  0
VERTEX
  8
VISIBLE_NARROW__ISO_
  5
98E
 10
-8.12576
 20
12.2338
 30
0.000000
  70
    32
  0
VERTEX
  8
VISIBLE_NARROW__ISO_
  5
98F
 10
-8.12736
 20
12.2301
 30
0.000000
  70
    32
  0
VERTEX
  8
VISIBLE_NARROW__ISO_
  5
990
 10
-8.12895
 20
12.2263
 30
0.000000
  70
    32
  0
VERTEX
  8
VISIBLE_NARROW__ISO_
  5
991
 10
-8.13052
 20
12.2225
 30
0.000000
  70
    32
  0
VERTEX
  8
VISIBLE_NARROW__ISO_
  5
992
 10
-8.13209
 20
12.2187
 30
0.000000
  70
    32
  0
VERTEX
  8
VISIBLE_NARROW__ISO_
  5
993
 10
-8.13364
 20
12.2149
 30
0.000000
  70
    32
  0
VERTEX
  8
VISIBLE_NARROW__ISO_
  5
994
 10
-8.13518
 20
12.2111
 30
0.000000
  70
    32
  0
VERTEX
  8
VISIBLE_NARROW__ISO_
  5
995
 10
-8.13671
 20
12.2073
 30
0.000000
  70
    32
  0
VERTEX
  8
VISIBLE_NARROW__ISO_
  5
996
 10
-8.13823
 20
12.2035
 30
0.000000
  70
    32
  0
VERTEX
  8
VISIBLE_NARROW__ISO_
  5
997
 10
-8.13974
 20
12.1997
 30
0.000000
  70
    32
  0
VERTEX
  8
VISIBLE_NARROW__ISO_
  5
998
 10
-8.14123
 20
12.1959
 30
0.000000
  70
    32
  0
VERTEX
  8
VISIBLE_NARROW__ISO_
  5
999
 10
-8.14272
 20
12.1921
 30
0.000000
  70
    32
  0
VERTEX
  8
VISIBLE_NARROW__ISO_
  5
99A
 10
-8.14419
 20
12.1882
 30
0.000000
  70
    32
  0
VERTEX
  8
VISIBLE_NARROW__ISO_
  5
99B
 10
-8.14565
 20
12.1844
 30
0.000000
  70
    32
  0
VERTEX
  8
VISIBLE_NARROW__ISO_
  5
99C
 10
-8.14710
 20
12.1806
 30
0.000000
  70
    32
  0
VERTEX
  8
VISIBLE_NARROW__ISO_
  5
99D
 10
-8.14853
 20
12.1767
 30
0.000000
  70
    32
  0
VERTEX
  8
VISIBLE_NARROW__ISO_
  5
99E
 10
-8.14996
 20
12.1729
 30
0.000000
  70
    32
  0
VERTEX
  8
VISIBLE_NARROW__ISO_
  5
99F
 10
-8.15137
 20
12.1690
 30
0.000000
  70
    32
  0
VERTEX
  8
VISIBLE_NARROW__ISO_
  5
9A0
 10
-8.15277
 20
12.1652
 30
0.000000
  70
    32
  0
VERTEX
  8
VISIBLE_NARROW__ISO_
  5
9A1
 10
-8.15416
 20
12.1613
 30
0.000000
  70
    32
  0
VERTEX
  8
VISIBLE_NARROW__ISO_
  5
9A2
 10
-8.15553
 20
12.1574
 30
0.000000
  70
    32
  0
VERTEX
  8
VISIBLE_NARROW__ISO_
  5
9A3
 10
-8.15690
 20
12.1536
 30
0.000000
  70
    32
  0
VERTEX
  8
VISIBLE_NARROW__ISO_
  5
9A4
 10
-8.15825
 20
12.1497
 30
0.000000
  70
    32
  0
VERTEX
  8
VISIBLE_NARROW__ISO_
  5
9A5
 10
-8.15959
 20
12.1458
 30
0.000000
  70
    32
  0
VERTEX
  8
VISIBLE_NARROW__ISO_
  5
9A6
 10
-8.16092
 20
12.1420
 30
0.000000
  70
    32
  0
VERTEX
  8
VISIBLE_NARROW__ISO_
  5
9A7
 10
-8.16224
 20
12.1381
 30
0.000000
  70
    32
  0
VERTEX
  8
VISIBLE_NARROW__ISO_
  5
9A8
 10
-8.16354
 20
12.1342
 30
0.000000
  70
    32
  0
VERTEX
  8
VISIBLE_NARROW__ISO_
  5
9A9
 10
-8.16483
 20
12.1303
 30
0.000000
  70
    32
  0
VERTEX
  8
VISIBLE_NARROW__ISO_
  5
9AA
 10
-8.16612
 20
12.1264
 30
0.000000
  70
    32
  0
VERTEX
  8
VISIBLE_NARROW__ISO_
  5
9AB
 10
-8.16738
 20
12.1225
 30
0.000000
  70
    32
  0
VERTEX
  8
VISIBLE_NARROW__ISO_
  5
9AC
 10
-8.16864
 20
12.1186
 30
0.000000
  70
    32
  0
VERTEX
  8
VISIBLE_NARROW__ISO_
  5
9AD
 10
-8.16989
 20
12.1147
 30
0.000000
  70
    32
  0
VERTEX
  8
VISIBLE_NARROW__ISO_
  5
9AE
 10
-8.17112
 20
12.1108
 30
0.000000
  70
    32
  0
VERTEX
  8
VISIBLE_NARROW__ISO_
  5
9AF
 10
-8.17234
 20
12.1069
 30
0.000000
  70
    32
  0
VERTEX
  8
VISIBLE_NARROW__ISO_
  5
9B0
 10
-8.17355
 20
12.1029
 30
0.000000
  70
    32
  0
VERTEX
  8
VISIBLE_NARROW__ISO_
  5
9B1
 10
-8.17474
 20
12.0990
 30
0.000000
  70
    32
  0
VERTEX
  8
VISIBLE_NARROW__ISO_
  5
9B2
 10
-8.17593
 20
12.0951
 30
0.000000
  70
    32
  0
VERTEX
  8
VISIBLE_NARROW__ISO_
  5
9B3
 10
-8.17710
 20
12.0912
 30
0.000000
  70
    32
  0
VERTEX
  8
VISIBLE_NARROW__ISO_
  5
9B4
 10
-8.17826
 20
12.0872
 30
0.000000
  70
    32
  0
VERTEX
  8
VISIBLE_NARROW__ISO_
  5
9B5
 10
-8.17941
 20
12.0833
 30
0.000000
  70
    32
  0
VERTEX
  8
VISIBLE_NARROW__ISO_
  5
9B6
 10
-8.18054
 20
12.0794
 30
0.000000
  70
    32
  0
VERTEX
  8
VISIBLE_NARROW__ISO_
  5
9B7
 10
-8.18166
 20
12.0754
 30
0.000000
  70
    32
  0
VERTEX
  8
VISIBLE_NARROW__ISO_
  5
9B8
 10
-8.18278
 20
12.0715
 30
0.000000
  70
    32
  0
VERTEX
  8
VISIBLE_NARROW__ISO_
  5
9B9
 10
-8.18387
 20
12.0675
 30
0.000000
  70
    32
  0
VERTEX
  8
VISIBLE_NARROW__ISO_
  5
9BA
 10
-8.18496
 20
12.0636
 30
0.000000
  70
    32
  0
VERTEX
  8
VISIBLE_NARROW__ISO_
  5
9BB
 10
-8.18604
 20
12.0596
 30
0.000000
  70
    32
  0
VERTEX
  8
VISIBLE_NARROW__ISO_
  5
9BC
 10
-8.18710
 20
12.0556
 30
0.000000
  70
    32
  0
VERTEX
  8
VISIBLE_NARROW__ISO_
  5
9BD
 10
-8.18815
 20
12.0517
 30
0.000000
  70
    32
  0
VERTEX
  8
VISIBLE_NARROW__ISO_
  5
9BE
 10
-8.18919
 20
12.0477
 30
0.000000
  70
    32
  0
VERTEX
  8
VISIBLE_NARROW__ISO_
  5
9BF
 10
-8.19021
 20
12.0437
 30
0.000000
  70
    32
  0
VERTEX
  8
VISIBLE_NARROW__ISO_
  5
9C0
 10
-8.19123
 20
12.0398
 30
0.000000
  70
    32
  0
VERTEX
  8
VISIBLE_NARROW__ISO_
  5
9C1
 10
-8.19223
 20
12.0358
 30
0.000000
  70
    32
  0
VERTEX
  8
VISIBLE_NARROW__ISO_
  5
9C2
 10
-8.19322
 20
12.0318
 30
0.000000
  70
    32
  0
VERTEX
  8
VISIBLE_NARROW__ISO_
  5
9C3
 10
-8.19420
 20
12.0278
 30
0.000000
  70
    32
  0
VERTEX
  8
VISIBLE_NARROW__ISO_
  5
9C4
 10
-8.19516
 20
12.0239
 30
0.000000
  70
    32
  0
VERTEX
  8
VISIBLE_NARROW__ISO_
  5
9C5
 10
-8.19611
 20
12.0199
 30
0.000000
  70
    32
  0
VERTEX
  8
VISIBLE_NARROW__ISO_
  5
9C6
 10
-8.19705
 20
12.0159
 30
0.000000
  70
    32
  0
VERTEX
  8
VISIBLE_NARROW__ISO_
  5
9C7
 10
-8.19798
 20
12.0119
 30
0.000000
  70
    32
  0
VERTEX
  8
VISIBLE_NARROW__ISO_
  5
9C8
 10
-8.19890
 20
12.0079
 30
0.000000
  70
    32
  0
VERTEX
  8
VISIBLE_NARROW__ISO_
  5
9C9
 10
-8.19980
 20
12.0039
 30
0.000000
  70
    32
  0
VERTEX
  8
VISIBLE_NARROW__ISO_
  5
9CA
 10
-8.20069
 20
11.9999
 30
0.000000
  70
    32
  0
VERTEX
  8
VISIBLE_NARROW__ISO_
  5
9CB
 10
-8.20157
 20
11.9959
 30
0.000000
  70
    32
  0
VERTEX
  8
VISIBLE_NARROW__ISO_
  5
9CC
 10
-8.20244
 20
11.9919
 30
0.000000
  70
    32
  0
VERTEX
  8
VISIBLE_NARROW__ISO_
  5
9CD
 10
-8.20329
 20
11.9879
 30
0.000000
  70
    32
  0
VERTEX
  8
VISIBLE_NARROW__ISO_
  5
9CE
 10
-8.20413
 20
11.9838
 30
0.000000
  70
    32
  0
VERTEX
  8
VISIBLE_NARROW__ISO_
  5
9CF
 10
-8.20496
 20
11.9798
 30
0.000000
  70
    32
  0
VERTEX
  8
VISIBLE_NARROW__ISO_
  5
9D0
 10
-8.20578
 20
11.9758
 30
0.000000
  70
    32
  0
VERTEX
  8
VISIBLE_NARROW__ISO_
  5
9D1
 10
-8.20659
 20
11.9718
 30
0.000000
  70
    32
  0
VERTEX
  8
VISIBLE_NARROW__ISO_
  5
9D2
 10
-8.20738
 20
11.9678
 30
0.000000
  70
    32
  0
VERTEX
  8
VISIBLE_NARROW__ISO_
  5
9D3
 10
-8.20816
 20
11.9637
 30
0.000000
  70
    32
  0
VERTEX
  8
VISIBLE_NARROW__ISO_
  5
9D4
 10
-8.20893
 20
11.9597
 30
0.000000
  70
    32
  0
VERTEX
  8
VISIBLE_NARROW__ISO_
  5
9D5
 10
-8.20969
 20
11.9557
 30
0.000000
  70
    32
  0
VERTEX
  8
VISIBLE_NARROW__ISO_
  5
9D6
 10
-8.21043
 20
11.9517
 30
0.000000
  70
    32
  0
VERTEX
  8
VISIBLE_NARROW__ISO_
  5
9D7
 10
-8.21116
 20
11.9476
 30
0.000000
  70
    32
  0
VERTEX
  8
VISIBLE_NARROW__ISO_
  5
9D8
 10
-8.21188
 20
11.9436
 30
0.000000
  70
    32
  0
VERTEX
  8
VISIBLE_NARROW__ISO_
  5
9D9
 10
-8.21259
 20
11.9395
 30
0.000000
  70
    32
  0
VERTEX
  8
VISIBLE_NARROW__ISO_
  5
9DA
 10
-8.21328
 20
11.9355
 30
0.000000
  70
    32
  0
VERTEX
  8
VISIBLE_NARROW__ISO_
  5
9DB
 10
-8.21396
 20
11.9315
 30
0.000000
  70
    32
  0
VERTEX
  8
VISIBLE_NARROW__ISO_
  5
9DC
 10
-8.21463
 20
11.9274
 30
0.000000
  70
    32
  0
VERTEX
  8
VISIBLE_NARROW__ISO_
  5
9DD
 10
-8.21529
 20
11.9234
 30
0.000000
  70
    32
  0
VERTEX
  8
VISIBLE_NARROW__ISO_
  5
9DE
 10
-8.21593
 20
11.9193
 30
0.000000
  70
    32
  0
VERTEX
  8
VISIBLE_NARROW__ISO_
  5
9DF
 10
-8.21656
 20
11.9153
 30
0.000000
  70
    32
  0
VERTEX
  8
VISIBLE_NARROW__ISO_
  5
9E0
 10
-8.21718
 20
11.9112
 30
0.000000
  70
    32
  0
VERTEX
  8
VISIBLE_NARROW__ISO_
  5
9E1
 10
-8.21779
 20
11.9072
 30
0.000000
  70
    32
  0
VERTEX
  8
VISIBLE_NARROW__ISO_
  5
9E2
 10
-8.21839
 20
11.9031
 30
0.000000
  70
    32
  0
VERTEX
  8
VISIBLE_NARROW__ISO_
  5
9E3
 10
-8.21897
 20
11.8990
 30
0.000000
  70
    32
  0
VERTEX
  8
VISIBLE_NARROW__ISO_
  5
9E4
 10
-8.21954
 20
11.8950
 30
0.000000
  70
    32
  0
VERTEX
  8
VISIBLE_NARROW__ISO_
  5
9E5
 10
-8.22010
 20
11.8909
 30
0.000000
  70
    32
  0
VERTEX
  8
VISIBLE_NARROW__ISO_
  5
9E6
 10
-8.22064
 20
11.8869
 30
0.000000
  70
    32
  0
VERTEX
  8
VISIBLE_NARROW__ISO_
  5
9E7
 10
-8.22117
 20
11.8828
 30
0.000000
  70
    32
  0
VERTEX
  8
VISIBLE_NARROW__ISO_
  5
9E8
 10
-8.22169
 20
11.8787
 30
0.000000
  70
    32
  0
VERTEX
  8
VISIBLE_NARROW__ISO_
  5
9E9
 10
-8.22220
 20
11.8747
 30
0.000000
  70
    32
  0
VERTEX
  8
VISIBLE_NARROW__ISO_
  5
9EA
 10
-8.22270
 20
11.8706
 30
0.000000
  70
    32
  0
VERTEX
  8
VISIBLE_NARROW__ISO_
  5
9EB
 10
-8.22318
 20
11.8665
 30
0.000000
  70
    32
  0
VERTEX
  8
VISIBLE_NARROW__ISO_
  5
9EC
 10
-8.22365
 20
11.8624
 30
0.000000
  70
    32
  0
VERTEX
  8
VISIBLE_NARROW__ISO_
  5
9ED
 10
-8.22411
 20
11.8584
 30
0.000000
  70
    32
  0
VERTEX
  8
VISIBLE_NARROW__ISO_
  5
9EE
 10
-8.22455
 20
11.8543
 30
0.000000
  70
    32
  0
VERTEX
  8
VISIBLE_NARROW__ISO_
  5
9EF
 10
-8.22499
 20
11.8502
 30
0.000000
  70
    32
  0
VERTEX
  8
VISIBLE_NARROW__ISO_
  5
9F0
 10
-8.22541
 20
11.8461
 30
0.000000
  70
    32
  0
VERTEX
  8
VISIBLE_NARROW__ISO_
  5
9F1
 10
-8.22581
 20
11.8421
 30
0.000000
  70
    32
  0
VERTEX
  8
VISIBLE_NARROW__ISO_
  5
9F2
 10
-8.22621
 20
11.8380
 30
0.000000
  70
    32
  0
VERTEX
  8
VISIBLE_NARROW__ISO_
  5
9F3
 10
-8.22659
 20
11.8339
 30
0.000000
  70
    32
  0
VERTEX
  8
VISIBLE_NARROW__ISO_
  5
9F4
 10
-8.22696
 20
11.8298
 30
0.000000
  70
    32
  0
VERTEX
  8
VISIBLE_NARROW__ISO_
  5
9F5
 10
-8.22732
 20
11.8257
 30
0.000000
  70
    32
  0
VERTEX
  8
VISIBLE_NARROW__ISO_
  5
9F6
 10
-8.22767
 20
11.8216
 30
0.000000
  70
    32
  0
VERTEX
  8
VISIBLE_NARROW__ISO_
  5
9F7
 10
-8.22800
 20
11.8176
 30
0.000000
  70
    32
  0
VERTEX
  8
VISIBLE_NARROW__ISO_
  5
9F8
 10
-8.22832
 20
11.8135
 30
0.000000
  70
    32
  0
VERTEX
  8
VISIBLE_NARROW__ISO_
  5
9F9
 10
-8.22863
 20
11.8094
 30
0.000000
  70
    32
  0
VERTEX
  8
VISIBLE_NARROW__ISO_
  5
9FA
 10
-8.22892
 20
11.8053
 30
0.000000
  70
    32
  0
VERTEX
  8
VISIBLE_NARROW__ISO_
  5
9FB
 10
-8.22920
 20
11.8012
 30
0.000000
  70
    32
  0
VERTEX
  8
VISIBLE_NARROW__ISO_
  5
9FC
 10
-8.22947
 20
11.7971
 30
0.000000
  70
    32
  0
VERTEX
  8
VISIBLE_NARROW__ISO_
  5
9FD
 10
-8.22973
 20
11.7930
 30
0.000000
  70
    32
  0
VERTEX
  8
VISIBLE_NARROW__ISO_
  5
9FE
 10
-8.22997
 20
11.7889
 30
0.000000
  70
    32
  0
VERTEX
  8
VISIBLE_NARROW__ISO_
  5
9FF
 10
-8.23021
 20
11.7848
 30
0.000000
  70
    32
  0
VERTEX
  8
VISIBLE_NARROW__ISO_
  5
A00
 10
-8.23042
 20
11.7807
 30
0.000000
  70
    32
  0
VERTEX
  8
VISIBLE_NARROW__ISO_
  5
A01
 10
-8.23063
 20
11.7767
 30
0.000000
  70
    32
  0
VERTEX
  8
VISIBLE_NARROW__ISO_
  5
A02
 10
-8.23083
 20
11.7726
 30
0.000000
  70
    32
  0
VERTEX
  8
VISIBLE_NARROW__ISO_
  5
A03
 10
-8.23101
 20
11.7685
 30
0.000000
  70
    32
  0
VERTEX
  8
VISIBLE_NARROW__ISO_
  5
A04
 10
-8.23117
 20
11.7644
 30
0.000000
  70
    32
  0
VERTEX
  8
VISIBLE_NARROW__ISO_
  5
A05
 10
-8.23133
 20
11.7603
 30
0.000000
  70
    32
  0
VERTEX
  8
VISIBLE_NARROW__ISO_
  5
A06
 10
-8.23147
 20
11.7562
 30
0.000000
  70
    32
  0
VERTEX
  8
VISIBLE_NARROW__ISO_
  5
A07
 10
-8.23161
 20
11.7521
 30
0.000000
  70
    32
  0
VERTEX
  8
VISIBLE_NARROW__ISO_
  5
A08
 10
-8.23172
 20
11.7480
 30
0.000000
  70
    32
  0
VERTEX
  8
VISIBLE_NARROW__ISO_
  5
A09
 10
-8.23183
 20
11.7439
 30
0.000000
  70
    32
  0
VERTEX
  8
VISIBLE_NARROW__ISO_
  5
A0A
 10
-8.23192
 20
11.7398
 30
0.000000
  70
    32
  0
VERTEX
  8
VISIBLE_NARROW__ISO_
  5
A0B
 10
-8.23200
 20
11.7357
 30
0.000000
  70
    32
  0
VERTEX
  8
VISIBLE_NARROW__ISO_
  5
A0C
 10
-8.23207
 20
11.7316
 30
0.000000
  70
    32
  0
VERTEX
  8
VISIBLE_NARROW__ISO_
  5
A0D
 10
-8.23213
 20
11.7275
 30
0.000000
  70
    32
  0
VERTEX
  8
VISIBLE_NARROW__ISO_
  5
A0E
 10
-8.23217
 20
11.7234
 30
0.000000
  70
    32
  0
VERTEX
  8
VISIBLE_NARROW__ISO_
  5
A0F
 10
-8.23220
 20
11.7193
 30
0.000000
  70
    32
  0
VERTEX
  8
VISIBLE_NARROW__ISO_
  5
A10
 10
-8.23222
 20
11.7152
 30
0.000000
  70
    32
  0
VERTEX
  8
VISIBLE_NARROW__ISO_
  5
A11
 10
-8.23222
 20
11.7111
 30
0.000000
  70
    32
  0
SEQEND
  8
VISIBLE_NARROW__ISO_
  5
A12
  0
LINE
  5
CA
 67
     1
  8
VISIBLE_NARROW__ISO_
  6
BYBLOCK
 10
-8.2322219285079967
 20
-3.2429367069931909
 30
0.0
 11
-8.2322219285079967
 21
11.7112480469613107
 31
0.0
  0
LINE
  5
CB
 67
     1
  8
VISIBLE_NARROW__ISO_
  6
BYBLOCK
 10
20.4562104443179003
 20
-4.5765032451031971
 30
0.0
 11
-6.8986553657092449
 21
-4.576503269792056
 31
0.0
  0
ARC
  5
CD
 67
     1
  8
VISIBLE__ISO_
  6
BYBLOCK
 10
10.7552376833276799
 20
14.0766753550234398
 30
0.0
 40
0.7500000000000009
 50
270.0
 51
90.0
  0
LINE
  5
CF
 67
     1
  8
VISIBLE_NARROW__ISO_
  6
BYBLOCK
 10
-6.8984909831743693
 20
13.0448145850713804
 30
0.0
 11
20.4563748268527803
 21
13.0448146097601203
 31
0.0
  0
POLYLINE
  67
1
  8
VISIBLE_NARROW__ISO_
  5
A13
  66
     1
 10
0.000000
 20
0.000000
 30
0.000000
  70
     8
  0
VERTEX
  8
VISIBLE_NARROW__ISO_
  5
A14
 10
21.7899
 20
11.7111
 30
0.000000
  70
    32
  0
VERTEX
  8
VISIBLE_NARROW__ISO_
  5
A15
 10
21.7899
 20
11.7152
 30
0.000000
  70
    32
  0
VERTEX
  8
VISIBLE_NARROW__ISO_
  5
A16
 10
21.7899
 20
11.7193
 30
0.000000
  70
    32
  0
VERTEX
  8
VISIBLE_NARROW__ISO_
  5
A17
 10
21.7899
 20
11.7234
 30
0.000000
  70
    32
  0
VERTEX
  8
VISIBLE_NARROW__ISO_
  5
A18
 10
21.7898
 20
11.7275
 30
0.000000
  70
    32
  0
VERTEX
  8
VISIBLE_NARROW__ISO_
  5
A19
 10
21.7898
 20
11.7316
 30
0.000000
  70
    32
  0
VERTEX
  8
VISIBLE_NARROW__ISO_
  5
A1A
 10
21.7897
 20
11.7357
 30
0.000000
  70
    32
  0
VERTEX
  8
VISIBLE_NARROW__ISO_
  5
A1B
 10
21.7896
 20
11.7398
 30
0.000000
  70
    32
  0
VERTEX
  8
VISIBLE_NARROW__ISO_
  5
A1C
 10
21.7895
 20
11.7439
 30
0.000000
  70
    32
  0
VERTEX
  8
VISIBLE_NARROW__ISO_
  5
A1D
 10
21.7894
 20
11.7480
 30
0.000000
  70
    32
  0
VERTEX
  8
VISIBLE_NARROW__ISO_
  5
A1E
 10
21.7893
 20
11.7521
 30
0.000000
  70
    32
  0
VERTEX
  8
VISIBLE_NARROW__ISO_
  5
A1F
 10
21.7892
 20
11.7562
 30
0.000000
  70
    32
  0
VERTEX
  8
VISIBLE_NARROW__ISO_
  5
A20
 10
21.7890
 20
11.7603
 30
0.000000
  70
    32
  0
VERTEX
  8
VISIBLE_NARROW__ISO_
  5
A21
 10
21.7889
 20
11.7644
 30
0.000000
  70
    32
  0
VERTEX
  8
VISIBLE_NARROW__ISO_
  5
A22
 10
21.7887
 20
11.7685
 30
0.000000
  70
    32
  0
VERTEX
  8
VISIBLE_NARROW__ISO_
  5
A23
 10
21.7885
 20
11.7726
 30
0.000000
  70
    32
  0
VERTEX
  8
VISIBLE_NARROW__ISO_
  5
A24
 10
21.7883
 20
11.7767
 30
0.000000
  70
    32
  0
VERTEX
  8
VISIBLE_NARROW__ISO_
  5
A25
 10
21.7881
 20
11.7807
 30
0.000000
  70
    32
  0
VERTEX
  8
VISIBLE_NARROW__ISO_
  5
A26
 10
21.7879
 20
11.7848
 30
0.000000
  70
    32
  0
VERTEX
  8
VISIBLE_NARROW__ISO_
  5
A27
 10
21.7877
 20
11.7889
 30
0.000000
  70
    32
  0
VERTEX
  8
VISIBLE_NARROW__ISO_
  5
A28
 10
21.7874
 20
11.7930
 30
0.000000
  70
    32
  0
VERTEX
  8
VISIBLE_NARROW__ISO_
  5
A29
 10
21.7872
 20
11.7971
 30
0.000000
  70
    32
  0
VERTEX
  8
VISIBLE_NARROW__ISO_
  5
A2A
 10
21.7869
 20
11.8012
 30
0.000000
  70
    32
  0
VERTEX
  8
VISIBLE_NARROW__ISO_
  5
A2B
 10
21.7866
 20
11.8053
 30
0.000000
  70
    32
  0
VERTEX
  8
VISIBLE_NARROW__ISO_
  5
A2C
 10
21.7863
 20
11.8094
 30
0.000000
  70
    32
  0
VERTEX
  8
VISIBLE_NARROW__ISO_
  5
A2D
 10
21.7860
 20
11.8135
 30
0.000000
  70
    32
  0
VERTEX
  8
VISIBLE_NARROW__ISO_
  5
A2E
 10
21.7857
 20
11.8176
 30
0.000000
  70
    32
  0
VERTEX
  8
VISIBLE_NARROW__ISO_
  5
A2F
 10
21.7854
 20
11.8216
 30
0.000000
  70
    32
  0
VERTEX
  8
VISIBLE_NARROW__ISO_
  5
A30
 10
21.7850
 20
11.8257
 30
0.000000
  70
    32
  0
VERTEX
  8
VISIBLE_NARROW__ISO_
  5
A31
 10
21.7847
 20
11.8298
 30
0.000000
  70
    32
  0
VERTEX
  8
VISIBLE_NARROW__ISO_
  5
A32
 10
21.7843
 20
11.8339
 30
0.000000
  70
    32
  0
VERTEX
  8
VISIBLE_NARROW__ISO_
  5
A33
 10
21.7839
 20
11.8380
 30
0.000000
  70
    32
  0
VERTEX
  8
VISIBLE_NARROW__ISO_
  5
A34
 10
21.7835
 20
11.8421
 30
0.000000
  70
    32
  0
VERTEX
  8
VISIBLE_NARROW__ISO_
  5
A35
 10
21.7831
 20
11.8461
 30
0.000000
  70
    32
  0
VERTEX
  8
VISIBLE_NARROW__ISO_
  5
A36
 10
21.7827
 20
11.8502
 30
0.000000
  70
    32
  0
VERTEX
  8
VISIBLE_NARROW__ISO_
  5
A37
 10
21.7823
 20
11.8543
 30
0.000000
  70
    32
  0
VERTEX
  8
VISIBLE_NARROW__ISO_
  5
A38
 10
21.7818
 20
11.8584
 30
0.000000
  70
    32
  0
VERTEX
  8
VISIBLE_NARROW__ISO_
  5
A39
 10
21.7814
 20
11.8624
 30
0.000000
  70
    32
  0
VERTEX
  8
VISIBLE_NARROW__ISO_
  5
A3A
 10
21.7809
 20
11.8665
 30
0.000000
  70
    32
  0
VERTEX
  8
VISIBLE_NARROW__ISO_
  5
A3B
 10
21.7804
 20
11.8706
 30
0.000000
  70
    32
  0
VERTEX
  8
VISIBLE_NARROW__ISO_
  5
A3C
 10
21.7799
 20
11.8747
 30
0.000000
  70
    32
  0
VERTEX
  8
VISIBLE_NARROW__ISO_
  5
A3D
 10
21.7794
 20
11.8787
 30
0.000000
  70
    32
  0
VERTEX
  8
VISIBLE_NARROW__ISO_
  5
A3E
 10
21.7789
 20
11.8828
 30
0.000000
  70
    32
  0
VERTEX
  8
VISIBLE_NARROW__ISO_
  5
A3F
 10
21.7784
 20
11.8869
 30
0.000000
  70
    32
  0
VERTEX
  8
VISIBLE_NARROW__ISO_
  5
A40
 10
21.7778
 20
11.8909
 30
0.000000
  70
    32
  0
VERTEX
  8
VISIBLE_NARROW__ISO_
  5
A41
 10
21.7773
 20
11.8950
 30
0.000000
  70
    32
  0
VERTEX
  8
VISIBLE_NARROW__ISO_
  5
A42
 10
21.7767
 20
11.8991
 30
0.000000
  70
    32
  0
VERTEX
  8
VISIBLE_NARROW__ISO_
  5
A43
 10
21.7761
 20
11.9031
 30
0.000000
  70
    32
  0
VERTEX
  8
VISIBLE_NARROW__ISO_
  5
A44
 10
21.7755
 20
11.9072
 30
0.000000
  70
    32
  0
VERTEX
  8
VISIBLE_NARROW__ISO_
  5
A45
 10
21.7749
 20
11.9112
 30
0.000000
  70
    32
  0
VERTEX
  8
VISIBLE_NARROW__ISO_
  5
A46
 10
21.7743
 20
11.9153
 30
0.000000
  70
    32
  0
VERTEX
  8
VISIBLE_NARROW__ISO_
  5
A47
 10
21.7737
 20
11.9193
 30
0.000000
  70
    32
  0
VERTEX
  8
VISIBLE_NARROW__ISO_
  5
A48
 10
21.7730
 20
11.9234
 30
0.000000
  70
    32
  0
VERTEX
  8
VISIBLE_NARROW__ISO_
  5
A49
 10
21.7724
 20
11.9274
 30
0.000000
  70
    32
  0
VERTEX
  8
VISIBLE_NARROW__ISO_
  5
A4A
 10
21.7717
 20
11.9315
 30
0.000000
  70
    32
  0
VERTEX
  8
VISIBLE_NARROW__ISO_
  5
A4B
 10
21.7710
 20
11.9355
 30
0.000000
  70
    32
  0
VERTEX
  8
VISIBLE_NARROW__ISO_
  5
A4C
 10
21.7703
 20
11.9395
 30
0.000000
  70
    32
  0
VERTEX
  8
VISIBLE_NARROW__ISO_
  5
A4D
 10
21.7696
 20
11.9436
 30
0.000000
  70
    32
  0
VERTEX
  8
VISIBLE_NARROW__ISO_
  5
A4E
 10
21.7689
 20
11.9476
 30
0.000000
  70
    32
  0
VERTEX
  8
VISIBLE_NARROW__ISO_
  5
A4F
 10
21.7682
 20
11.9517
 30
0.000000
  70
    32
  0
VERTEX
  8
VISIBLE_NARROW__ISO_
  5
A50
 10
21.7674
 20
11.9557
 30
0.000000
  70
    32
  0
VERTEX
  8
VISIBLE_NARROW__ISO_
  5
A51
 10
21.7667
 20
11.9597
 30
0.000000
  70
    32
  0
VERTEX
  8
VISIBLE_NARROW__ISO_
  5
A52
 10
21.7659
 20
11.9637
 30
0.000000
  70
    32
  0
VERTEX
  8
VISIBLE_NARROW__ISO_
  5
A53
 10
21.7651
 20
11.9678
 30
0.000000
  70
    32
  0
VERTEX
  8
VISIBLE_NARROW__ISO_
  5
A54
 10
21.7643
 20
11.9718
 30
0.000000
  70
    32
  0
VERTEX
  8
VISIBLE_NARROW__ISO_
  5
A55
 10
21.7635
 20
11.9758
 30
0.000000
  70
    32
  0
VERTEX
  8
VISIBLE_NARROW__ISO_
  5
A56
 10
21.7627
 20
11.9798
 30
0.000000
  70
    32
  0
VERTEX
  8
VISIBLE_NARROW__ISO_
  5
A57
 10
21.7619
 20
11.9838
 30
0.000000
  70
    32
  0
VERTEX
  8
VISIBLE_NARROW__ISO_
  5
A58
 10
21.7610
 20
11.9879
 30
0.000000
  70
    32
  0
VERTEX
  8
VISIBLE_NARROW__ISO_
  5
A59
 10
21.7602
 20
11.9919
 30
0.000000
  70
    32
  0
VERTEX
  8
VISIBLE_NARROW__ISO_
  5
A5A
 10
21.7593
 20
11.9959
 30
0.000000
  70
    32
  0
VERTEX
  8
VISIBLE_NARROW__ISO_
  5
A5B
 10
21.7584
 20
11.9999
 30
0.000000
  70
    32
  0
VERTEX
  8
VISIBLE_NARROW__ISO_
  5
A5C
 10
21.7575
 20
12.0039
 30
0.000000
  70
    32
  0
VERTEX
  8
VISIBLE_NARROW__ISO_
  5
A5D
 10
21.7566
 20
12.0079
 30
0.000000
  70
    32
  0
VERTEX
  8
VISIBLE_NARROW__ISO_
  5
A5E
 10
21.7557
 20
12.0119
 30
0.000000
  70
    32
  0
VERTEX
  8
VISIBLE_NARROW__ISO_
  5
A5F
 10
21.7548
 20
12.0159
 30
0.000000
  70
    32
  0
VERTEX
  8
VISIBLE_NARROW__ISO_
  5
A60
 10
21.7538
 20
12.0199
 30
0.000000
  70
    32
  0
VERTEX
  8
VISIBLE_NARROW__ISO_
  5
A61
 10
21.7529
 20
12.0239
 30
0.000000
  70
    32
  0
VERTEX
  8
VISIBLE_NARROW__ISO_
  5
A62
 10
21.7519
 20
12.0278
 30
0.000000
  70
    32
  0
VERTEX
  8
VISIBLE_NARROW__ISO_
  5
A63
 10
21.7509
 20
12.0318
 30
0.000000
  70
    32
  0
VERTEX
  8
VISIBLE_NARROW__ISO_
  5
A64
 10
21.7499
 20
12.0358
 30
0.000000
  70
    32
  0
VERTEX
  8
VISIBLE_NARROW__ISO_
  5
A65
 10
21.7489
 20
12.0398
 30
0.000000
  70
    32
  0
VERTEX
  8
VISIBLE_NARROW__ISO_
  5
A66
 10
21.7479
 20
12.0437
 30
0.000000
  70
    32
  0
VERTEX
  8
VISIBLE_NARROW__ISO_
  5
A67
 10
21.7469
 20
12.0477
 30
0.000000
  70
    32
  0
VERTEX
  8
VISIBLE_NARROW__ISO_
  5
A68
 10
21.7459
 20
12.0517
 30
0.000000
  70
    32
  0
VERTEX
  8
VISIBLE_NARROW__ISO_
  5
A69
 10
21.7448
 20
12.0556
 30
0.000000
  70
    32
  0
VERTEX
  8
VISIBLE_NARROW__ISO_
  5
A6A
 10
21.7437
 20
12.0596
 30
0.000000
  70
    32
  0
VERTEX
  8
VISIBLE_NARROW__ISO_
  5
A6B
 10
21.7427
 20
12.0636
 30
0.000000
  70
    32
  0
VERTEX
  8
VISIBLE_NARROW__ISO_
  5
A6C
 10
21.7416
 20
12.0675
 30
0.000000
  70
    32
  0
VERTEX
  8
VISIBLE_NARROW__ISO_
  5
A6D
 10
21.7405
 20
12.0715
 30
0.000000
  70
    32
  0
VERTEX
  8
VISIBLE_NARROW__ISO_
  5
A6E
 10
21.7394
 20
12.0754
 30
0.000000
  70
    32
  0
VERTEX
  8
VISIBLE_NARROW__ISO_
  5
A6F
 10
21.7382
 20
12.0794
 30
0.000000
  70
    32
  0
VERTEX
  8
VISIBLE_NARROW__ISO_
  5
A70
 10
21.7371
 20
12.0833
 30
0.000000
  70
    32
  0
VERTEX
  8
VISIBLE_NARROW__ISO_
  5
A71
 10
21.7360
 20
12.0872
 30
0.000000
  70
    32
  0
VERTEX
  8
VISIBLE_NARROW__ISO_
  5
A72
 10
21.7348
 20
12.0912
 30
0.000000
  70
    32
  0
VERTEX
  8
VISIBLE_NARROW__ISO_
  5
A73
 10
21.7336
 20
12.0951
 30
0.000000
  70
    32
  0
VERTEX
  8
VISIBLE_NARROW__ISO_
  5
A74
 10
21.7324
 20
12.0990
 30
0.000000
  70
    32
  0
VERTEX
  8
VISIBLE_NARROW__ISO_
  5
A75
 10
21.7312
 20
12.1029
 30
0.000000
  70
    32
  0
VERTEX
  8
VISIBLE_NARROW__ISO_
  5
A76
 10
21.7300
 20
12.1069
 30
0.000000
  70
    32
  0
VERTEX
  8
VISIBLE_NARROW__ISO_
  5
A77
 10
21.7288
 20
12.1108
 30
0.000000
  70
    32
  0
VERTEX
  8
VISIBLE_NARROW__ISO_
  5
A78
 10
21.7276
 20
12.1147
 30
0.000000
  70
    32
  0
VERTEX
  8
VISIBLE_NARROW__ISO_
  5
A79
 10
21.7263
 20
12.1186
 30
0.000000
  70
    32
  0
VERTEX
  8
VISIBLE_NARROW__ISO_
  5
A7A
 10
21.7251
 20
12.1225
 30
0.000000
  70
    32
  0
VERTEX
  8
VISIBLE_NARROW__ISO_
  5
A7B
 10
21.7238
 20
12.1264
 30
0.000000
  70
    32
  0
VERTEX
  8
VISIBLE_NARROW__ISO_
  5
A7C
 10
21.7225
 20
12.1303
 30
0.000000
  70
    32
  0
VERTEX
  8
VISIBLE_NARROW__ISO_
  5
A7D
 10
21.7212
 20
12.1342
 30
0.000000
  70
    32
  0
VERTEX
  8
VISIBLE_NARROW__ISO_
  5
A7E
 10
21.7199
 20
12.1381
 30
0.000000
  70
    32
  0
VERTEX
  8
VISIBLE_NARROW__ISO_
  5
A7F
 10
21.7186
 20
12.1420
 30
0.000000
  70
    32
  0
VERTEX
  8
VISIBLE_NARROW__ISO_
  5
A80
 10
21.7173
 20
12.1458
 30
0.000000
  70
    32
  0
VERTEX
  8
VISIBLE_NARROW__ISO_
  5
A81
 10
21.7160
 20
12.1497
 30
0.000000
  70
    32
  0
VERTEX
  8
VISIBLE_NARROW__ISO_
  5
A82
 10
21.7146
 20
12.1536
 30
0.000000
  70
    32
  0
VERTEX
  8
VISIBLE_NARROW__ISO_
  5
A83
 10
21.7132
 20
12.1574
 30
0.000000
  70
    32
  0
VERTEX
  8
VISIBLE_NARROW__ISO_
  5
A84
 10
21.7119
 20
12.1613
 30
0.000000
  70
    32
  0
VERTEX
  8
VISIBLE_NARROW__ISO_
  5
A85
 10
21.7105
 20
12.1652
 30
0.000000
  70
    32
  0
VERTEX
  8
VISIBLE_NARROW__ISO_
  5
A86
 10
21.7091
 20
12.1690
 30
0.000000
  70
    32
  0
VERTEX
  8
VISIBLE_NARROW__ISO_
  5
A87
 10
21.7077
 20
12.1729
 30
0.000000
  70
    32
  0
VERTEX
  8
VISIBLE_NARROW__ISO_
  5
A88
 10
21.7062
 20
12.1767
 30
0.000000
  70
    32
  0
VERTEX
  8
VISIBLE_NARROW__ISO_
  5
A89
 10
21.7048
 20
12.1806
 30
0.000000
  70
    32
  0
VERTEX
  8
VISIBLE_NARROW__ISO_
  5
A8A
 10
21.7034
 20
12.1844
 30
0.000000
  70
    32
  0
VERTEX
  8
VISIBLE_NARROW__ISO_
  5
A8B
 10
21.7019
 20
12.1882
 30
0.000000
  70
    32
  0
VERTEX
  8
VISIBLE_NARROW__ISO_
  5
A8C
 10
21.7004
 20
12.1921
 30
0.000000
  70
    32
  0
VERTEX
  8
VISIBLE_NARROW__ISO_
  5
A8D
 10
21.6990
 20
12.1959
 30
0.000000
  70
    32
  0
VERTEX
  8
VISIBLE_NARROW__ISO_
  5
A8E
 10
21.6975
 20
12.1997
 30
0.000000
  70
    32
  0
VERTEX
  8
VISIBLE_NARROW__ISO_
  5
A8F
 10
21.6960
 20
12.2035
 30
0.000000
  70
    32
  0
VERTEX
  8
VISIBLE_NARROW__ISO_
  5
A90
 10
21.6944
 20
12.2073
 30
0.000000
  70
    32
  0
VERTEX
  8
VISIBLE_NARROW__ISO_
  5
A91
 10
21.6929
 20
12.2111
 30
0.000000
  70
    32
  0
VERTEX
  8
VISIBLE_NARROW__ISO_
  5
A92
 10
21.6914
 20
12.2149
 30
0.000000
  70
    32
  0
VERTEX
  8
VISIBLE_NARROW__ISO_
  5
A93
 10
21.6898
 20
12.2187
 30
0.000000
  70
    32
  0
VERTEX
  8
VISIBLE_NARROW__ISO_
  5
A94
 10
21.6883
 20
12.2225
 30
0.000000
  70
    32
  0
VERTEX
  8
VISIBLE_NARROW__ISO_
  5
A95
 10
21.6867
 20
12.2263
 30
0.000000
  70
    32
  0
VERTEX
  8
VISIBLE_NARROW__ISO_
  5
A96
 10
21.6851
 20
12.2301
 30
0.000000
  70
    32
  0
VERTEX
  8
VISIBLE_NARROW__ISO_
  5
A97
 10
21.6835
 20
12.2339
 30
0.000000
  70
    32
  0
VERTEX
  8
VISIBLE_NARROW__ISO_
  5
A98
 10
21.6819
 20
12.2376
 30
0.000000
  70
    32
  0
VERTEX
  8
VISIBLE_NARROW__ISO_
  5
A99
 10
21.6803
 20
12.2414
 30
0.000000
  70
    32
  0
VERTEX
  8
VISIBLE_NARROW__ISO_
  5
A9A
 10
21.6786
 20
12.2452
 30
0.000000
  70
    32
  0
VERTEX
  8
VISIBLE_NARROW__ISO_
  5
A9B
 10
21.6770
 20
12.2489
 30
0.000000
  70
    32
  0
VERTEX
  8
VISIBLE_NARROW__ISO_
  5
A9C
 10
21.6753
 20
12.2527
 30
0.000000
  70
    32
  0
VERTEX
  8
VISIBLE_NARROW__ISO_
  5
A9D
 10
21.6737
 20
12.2564
 30
0.000000
  70
    32
  0
VERTEX
  8
VISIBLE_NARROW__ISO_
  5
A9E
 10
21.6720
 20
12.2601
 30
0.000000
  70
    32
  0
VERTEX
  8
VISIBLE_NARROW__ISO_
  5
A9F
 10
21.6703
 20
12.2639
 30
0.000000
  70
    32
  0
VERTEX
  8
VISIBLE_NARROW__ISO_
  5
AA0
 10
21.6686
 20
12.2676
 30
0.000000
  70
    32
  0
VERTEX
  8
VISIBLE_NARROW__ISO_
  5
AA1
 10
21.6669
 20
12.2713
 30
0.000000
  70
    32
  0
VERTEX
  8
VISIBLE_NARROW__ISO_
  5
AA2
 10
21.6651
 20
12.2751
 30
0.000000
  70
    32
  0
VERTEX
  8
VISIBLE_NARROW__ISO_
  5
AA3
 10
21.6634
 20
12.2788
 30
0.000000
  70
    32
  0
VERTEX
  8
VISIBLE_NARROW__ISO_
  5
AA4
 10
21.6616
 20
12.2825
 30
0.000000
  70
    32
  0
VERTEX
  8
VISIBLE_NARROW__ISO_
  5
AA5
 10
21.6599
 20
12.2862
 30
0.000000
  70
    32
  0
VERTEX
  8
VISIBLE_NARROW__ISO_
  5
AA6
 10
21.6581
 20
12.2899
 30
0.000000
  70
    32
  0
VERTEX
  8
VISIBLE_NARROW__ISO_
  5
AA7
 10
21.6563
 20
12.2936
 30
0.000000
  70
    32
  0
VERTEX
  8
VISIBLE_NARROW__ISO_
  5
AA8
 10
21.6545
 20
12.2973
 30
0.000000
  70
    32
  0
VERTEX
  8
VISIBLE_NARROW__ISO_
  5
AA9
 10
21.6527
 20
12.3009
 30
0.000000
  70
    32
  0
VERTEX
  8
VISIBLE_NARROW__ISO_
  5
AAA
 10
21.6509
 20
12.3046
 30
0.000000
  70
    32
  0
VERTEX
  8
VISIBLE_NARROW__ISO_
  5
AAB
 10
21.6491
 20
12.3083
 30
0.000000
  70
    32
  0
VERTEX
  8
VISIBLE_NARROW__ISO_
  5
AAC
 10
21.6472
 20
12.3120
 30
0.000000
  70
    32
  0
VERTEX
  8
VISIBLE_NARROW__ISO_
  5
AAD
 10
21.6454
 20
12.3156
 30
0.000000
  70
    32
  0
VERTEX
  8
VISIBLE_NARROW__ISO_
  5
AAE
 10
21.6435
 20
12.3193
 30
0.000000
  70
    32
  0
VERTEX
  8
VISIBLE_NARROW__ISO_
  5
AAF
 10
21.6417
 20
12.3229
 30
0.000000
  70
    32
  0
VERTEX
  8
VISIBLE_NARROW__ISO_
  5
AB0
 10
21.6398
 20
12.3266
 30
0.000000
  70
    32
  0
VERTEX
  8
VISIBLE_NARROW__ISO_
  5
AB1
 10
21.6379
 20
12.3302
 30
0.000000
  70
    32
  0
VERTEX
  8
VISIBLE_NARROW__ISO_
  5
AB2
 10
21.6360
 20
12.3338
 30
0.000000
  70
    32
  0
VERTEX
  8
VISIBLE_NARROW__ISO_
  5
AB3
 10
21.6340
 20
12.3374
 30
0.000000
  70
    32
  0
VERTEX
  8
VISIBLE_NARROW__ISO_
  5
AB4
 10
21.6321
 20
12.3411
 30
0.000000
  70
    32
  0
VERTEX
  8
VISIBLE_NARROW__ISO_
  5
AB5
 10
21.6302
 20
12.3447
 30
0.000000
  70
    32
  0
VERTEX
  8
VISIBLE_NARROW__ISO_
  5
AB6
 10
21.6282
 20
12.3483
 30
0.000000
  70
    32
  0
VERTEX
  8
VISIBLE_NARROW__ISO_
  5
AB7
 10
21.6263
 20
12.3519
 30
0.000000
  70
    32
  0
VERTEX
  8
VISIBLE_NARROW__ISO_
  5
AB8
 10
21.6243
 20
12.3555
 30
0.000000
  70
    32
  0
VERTEX
  8
VISIBLE_NARROW__ISO_
  5
AB9
 10
21.6223
 20
12.3591
 30
0.000000
  70
    32
  0
VERTEX
  8
VISIBLE_NARROW__ISO_
  5
ABA
 10
21.6203
 20
12.3626
 30
0.000000
  70
    32
  0
VERTEX
  8
VISIBLE_NARROW__ISO_
  5
ABB
 10
21.6183
 20
12.3662
 30
0.000000
  70
    32
  0
VERTEX
  8
VISIBLE_NARROW__ISO_
  5
ABC
 10
21.6163
 20
12.3698
 30
0.000000
  70
    32
  0
VERTEX
  8
VISIBLE_NARROW__ISO_
  5
ABD
 10
21.6142
 20
12.3734
 30
0.000000
  70
    32
  0
VERTEX
  8
VISIBLE_NARROW__ISO_
  5
ABE
 10
21.6122
 20
12.3769
 30
0.000000
  70
    32
  0
VERTEX
  8
VISIBLE_NARROW__ISO_
  5
ABF
 10
21.6102
 20
12.3805
 30
0.000000
  70
    32
  0
VERTEX
  8
VISIBLE_NARROW__ISO_
  5
AC0
 10
21.6081
 20
12.3840
 30
0.000000
  70
    32
  0
VERTEX
  8
VISIBLE_NARROW__ISO_
  5
AC1
 10
21.6060
 20
12.3875
 30
0.000000
  70
    32
  0
VERTEX
  8
VISIBLE_NARROW__ISO_
  5
AC2
 10
21.6039
 20
12.3911
 30
0.000000
  70
    32
  0
VERTEX
  8
VISIBLE_NARROW__ISO_
  5
AC3
 10
21.6018
 20
12.3946
 30
0.000000
  70
    32
  0
VERTEX
  8
VISIBLE_NARROW__ISO_
  5
AC4
 10
21.5997
 20
12.3981
 30
0.000000
  70
    32
  0
VERTEX
  8
VISIBLE_NARROW__ISO_
  5
AC5
 10
21.5976
 20
12.4016
 30
0.000000
  70
    32
  0
VERTEX
  8
VISIBLE_NARROW__ISO_
  5
AC6
 10
21.5955
 20
12.4051
 30
0.000000
  70
    32
  0
VERTEX
  8
VISIBLE_NARROW__ISO_
  5
AC7
 10
21.5934
 20
12.4086
 30
0.000000
  70
    32
  0
VERTEX
  8
VISIBLE_NARROW__ISO_
  5
AC8
 10
21.5912
 20
12.4121
 30
0.000000
  70
    32
  0
VERTEX
  8
VISIBLE_NARROW__ISO_
  5
AC9
 10
21.5890
 20
12.4156
 30
0.000000
  70
    32
  0
VERTEX
  8
VISIBLE_NARROW__ISO_
  5
ACA
 10
21.5869
 20
12.4191
 30
0.000000
  70
    32
  0
VERTEX
  8
VISIBLE_NARROW__ISO_
  5
ACB
 10
21.5847
 20
12.4226
 30
0.000000
  70
    32
  0
VERTEX
  8
VISIBLE_NARROW__ISO_
  5
ACC
 10
21.5825
 20
12.4260
 30
0.000000
  70
    32
  0
VERTEX
  8
VISIBLE_NARROW__ISO_
  5
ACD
 10
21.5803
 20
12.4295
 30
0.000000
  70
    32
  0
VERTEX
  8
VISIBLE_NARROW__ISO_
  5
ACE
 10
21.5781
 20
12.4330
 30
0.000000
  70
    32
  0
VERTEX
  8
VISIBLE_NARROW__ISO_
  5
ACF
 10
21.5759
 20
12.4364
 30
0.000000
  70
    32
  0
VERTEX
  8
VISIBLE_NARROW__ISO_
  5
AD0
 10
21.5736
 20
12.4398
 30
0.000000
  70
    32
  0
VERTEX
  8
VISIBLE_NARROW__ISO_
  5
AD1
 10
21.5714
 20
12.4433
 30
0.000000
  70
    32
  0
VERTEX
  8
VISIBLE_NARROW__ISO_
  5
AD2
 10
21.5691
 20
12.4467
 30
0.000000
  70
    32
  0
VERTEX
  8
VISIBLE_NARROW__ISO_
  5
AD3
 10
21.5669
 20
12.4501
 30
0.000000
  70
    32
  0
VERTEX
  8
VISIBLE_NARROW__ISO_
  5
AD4
 10
21.5646
 20
12.4535
 30
0.000000
  70
    32
  0
VERTEX
  8
VISIBLE_NARROW__ISO_
  5
AD5
 10
21.5623
 20
12.4569
 30
0.000000
  70
    32
  0
VERTEX
  8
VISIBLE_NARROW__ISO_
  5
AD6
 10
21.5600
 20
12.4603
 30
0.000000
  70
    32
  0
VERTEX
  8
VISIBLE_NARROW__ISO_
  5
AD7
 10
21.5577
 20
12.4637
 30
0.000000
  70
    32
  0
VERTEX
  8
VISIBLE_NARROW__ISO_
  5
AD8
 10
21.5554
 20
12.4671
 30
0.000000
  70
    32
  0
VERTEX
  8
VISIBLE_NARROW__ISO_
  5
AD9
 10
21.5531
 20
12.4705
 30
0.000000
  70
    32
  0
VERTEX
  8
VISIBLE_NARROW__ISO_
  5
ADA
 10
21.5507
 20
12.4738
 30
0.000000
  70
    32
  0
VERTEX
  8
VISIBLE_NARROW__ISO_
  5
ADB
 10
21.5484
 20
12.4772
 30
0.000000
  70
    32
  0
VERTEX
  8
VISIBLE_NARROW__ISO_
  5
ADC
 10
21.5460
 20
12.4806
 30
0.000000
  70
    32
  0
VERTEX
  8
VISIBLE_NARROW__ISO_
  5
ADD
 10
21.5436
 20
12.4839
 30
0.000000
  70
    32
  0
VERTEX
  8
VISIBLE_NARROW__ISO_
  5
ADE
 10
21.5413
 20
12.4872
 30
0.000000
  70
    32
  0
VERTEX
  8
VISIBLE_NARROW__ISO_
  5
ADF
 10
21.5389
 20
12.4906
 30
0.000000
  70
    32
  0
VERTEX
  8
VISIBLE_NARROW__ISO_
  5
AE0
 10
21.5365
 20
12.4939
 30
0.000000
  70
    32
  0
VERTEX
  8
VISIBLE_NARROW__ISO_
  5
AE1
 10
21.5341
 20
12.4972
 30
0.000000
  70
    32
  0
VERTEX
  8
VISIBLE_NARROW__ISO_
  5
AE2
 10
21.5316
 20
12.5005
 30
0.000000
  70
    32
  0
VERTEX
  8
VISIBLE_NARROW__ISO_
  5
AE3
 10
21.5292
 20
12.5038
 30
0.000000
  70
    32
  0
VERTEX
  8
VISIBLE_NARROW__ISO_
  5
AE4
 10
21.5268
 20
12.5071
 30
0.000000
  70
    32
  0
VERTEX
  8
VISIBLE_NARROW__ISO_
  5
AE5
 10
21.5243
 20
12.5104
 30
0.000000
  70
    32
  0
VERTEX
  8
VISIBLE_NARROW__ISO_
  5
AE6
 10
21.5219
 20
12.5137
 30
0.000000
  70
    32
  0
VERTEX
  8
VISIBLE_NARROW__ISO_
  5
AE7
 10
21.5194
 20
12.5170
 30
0.000000
  70
    32
  0
VERTEX
  8
VISIBLE_NARROW__ISO_
  5
AE8
 10
21.5169
 20
12.5202
 30
0.000000
  70
    32
  0
VERTEX
  8
VISIBLE_NARROW__ISO_
  5
AE9
 10
21.5144
 20
12.5235
 30
0.000000
  70
    32
  0
VERTEX
  8
VISIBLE_NARROW__ISO_
  5
AEA
 10
21.5119
 20
12.5267
 30
0.000000
  70
    32
  0
VERTEX
  8
VISIBLE_NARROW__ISO_
  5
AEB
 10
21.5094
 20
12.5300
 30
0.000000
  70
    32
  0
VERTEX
  8
VISIBLE_NARROW__ISO_
  5
AEC
 10
21.5069
 20
12.5332
 30
0.000000
  70
    32
  0
VERTEX
  8
VISIBLE_NARROW__ISO_
  5
AED
 10
21.5043
 20
12.5365
 30
0.000000
  70
    32
  0
VERTEX
  8
VISIBLE_NARROW__ISO_
  5
AEE
 10
21.5018
 20
12.5397
 30
0.000000
  70
    32
  0
VERTEX
  8
VISIBLE_NARROW__ISO_
  5
AEF
 10
21.4993
 20
12.5429
 30
0.000000
  70
    32
  0
VERTEX
  8
VISIBLE_NARROW__ISO_
  5
AF0
 10
21.4967
 20
12.5461
 30
0.000000
  70
    32
  0
VERTEX
  8
VISIBLE_NARROW__ISO_
  5
AF1
 10
21.4941
 20
12.5493
 30
0.000000
  70
    32
  0
VERTEX
  8
VISIBLE_NARROW__ISO_
  5
AF2
 10
21.4915
 20
12.5525
 30
0.000000
  70
    32
  0
VERTEX
  8
VISIBLE_NARROW__ISO_
  5
AF3
 10
21.4890
 20
12.5556
 30
0.000000
  70
    32
  0
VERTEX
  8
VISIBLE_NARROW__ISO_
  5
AF4
 10
21.4864
 20
12.5588
 30
0.000000
  70
    32
  0
VERTEX
  8
VISIBLE_NARROW__ISO_
  5
AF5
 10
21.4837
 20
12.5620
 30
0.000000
  70
    32
  0
VERTEX
  8
VISIBLE_NARROW__ISO_
  5
AF6
 10
21.4811
 20
12.5651
 30
0.000000
  70
    32
  0
VERTEX
  8
VISIBLE_NARROW__ISO_
  5
AF7
 10
21.4785
 20
12.5683
 30
0.000000
  70
    32
  0
VERTEX
  8
VISIBLE_NARROW__ISO_
  5
AF8
 10
21.4759
 20
12.5714
 30
0.000000
  70
    32
  0
VERTEX
  8
VISIBLE_NARROW__ISO_
  5
AF9
 10
21.4732
 20
12.5746
 30
0.000000
  70
    32
  0
VERTEX
  8
VISIBLE_NARROW__ISO_
  5
AFA
 10
21.4705
 20
12.5777
 30
0.000000
  70
    32
  0
VERTEX
  8
VISIBLE_NARROW__ISO_
  5
AFB
 10
21.4679
 20
12.5808
 30
0.000000
  70
    32
  0
VERTEX
  8
VISIBLE_NARROW__ISO_
  5
AFC
 10
21.4652
 20
12.5839
 30
0.000000
  70
    32
  0
VERTEX
  8
VISIBLE_NARROW__ISO_
  5
AFD
 10
21.4625
 20
12.5870
 30
0.000000
  70
    32
  0
VERTEX
  8
VISIBLE_NARROW__ISO_
  5
AFE
 10
21.4598
 20
12.5901
 30
0.000000
  70
    32
  0
VERTEX
  8
VISIBLE_NARROW__ISO_
  5
AFF
 10
21.4571
 20
12.5932
 30
0.000000
  70
    32
  0
VERTEX
  8
VISIBLE_NARROW__ISO_
  5
B00
 10
21.4544
 20
12.5962
 30
0.000000
  70
    32
  0
VERTEX
  8
VISIBLE_NARROW__ISO_
  5
B01
 10
21.4517
 20
12.5993
 30
0.000000
  70
    32
  0
VERTEX
  8
VISIBLE_NARROW__ISO_
  5
B02
 10
21.4489
 20
12.6024
 30
0.000000
  70
    32
  0
VERTEX
  8
VISIBLE_NARROW__ISO_
  5
B03
 10
21.4462
 20
12.6054
 30
0.000000
  70
    32
  0
VERTEX
  8
VISIBLE_NARROW__ISO_
  5
B04
 10
21.4434
 20
12.6084
 30
0.000000
  70
    32
  0
VERTEX
  8
VISIBLE_NARROW__ISO_
  5
B05
 10
21.4407
 20
12.6115
 30
0.000000
  70
    32
  0
VERTEX
  8
VISIBLE_NARROW__ISO_
  5
B06
 10
21.4379
 20
12.6145
 30
0.000000
  70
    32
  0
VERTEX
  8
VISIBLE_NARROW__ISO_
  5
B07
 10
21.4351
 20
12.6175
 30
0.000000
  70
    32
  0
VERTEX
  8
VISIBLE_NARROW__ISO_
  5
B08
 10
21.4323
 20
12.6205
 30
0.000000
  70
    32
  0
VERTEX
  8
VISIBLE_NARROW__ISO_
  5
B09
 10
21.4295
 20
12.6235
 30
0.000000
  70
    32
  0
VERTEX
  8
VISIBLE_NARROW__ISO_
  5
B0A
 10
21.4267
 20
12.6265
 30
0.000000
  70
    32
  0
VERTEX
  8
VISIBLE_NARROW__ISO_
  5
B0B
 10
21.4239
 20
12.6295
 30
0.000000
  70
    32
  0
VERTEX
  8
VISIBLE_NARROW__ISO_
  5
B0C
 10
21.4211
 20
12.6324
 30
0.000000
  70
    32
  0
VERTEX
  8
VISIBLE_NARROW__ISO_
  5
B0D
 10
21.4182
 20
12.6354
 30
0.000000
  70
    32
  0
VERTEX
  8
VISIBLE_NARROW__ISO_
  5
B0E
 10
21.4154
 20
12.6384
 30
0.000000
  70
    32
  0
VERTEX
  8
VISIBLE_NARROW__ISO_
  5
B0F
 10
21.4125
 20
12.6413
 30
0.000000
  70
    32
  0
VERTEX
  8
VISIBLE_NARROW__ISO_
  5
B10
 10
21.4097
 20
12.6442
 30
0.000000
  70
    32
  0
VERTEX
  8
VISIBLE_NARROW__ISO_
  5
B11
 10
21.4068
 20
12.6472
 30
0.000000
  70
    32
  0
VERTEX
  8
VISIBLE_NARROW__ISO_
  5
B12
 10
21.4039
 20
12.6501
 30
0.000000
  70
    32
  0
VERTEX
  8
VISIBLE_NARROW__ISO_
  5
B13
 10
21.4010
 20
12.6530
 30
0.000000
  70
    32
  0
VERTEX
  8
VISIBLE_NARROW__ISO_
  5
B14
 10
21.3981
 20
12.6559
 30
0.000000
  70
    32
  0
VERTEX
  8
VISIBLE_NARROW__ISO_
  5
B15
 10
21.3952
 20
12.6588
 30
0.000000
  70
    32
  0
VERTEX
  8
VISIBLE_NARROW__ISO_
  5
B16
 10
21.3923
 20
12.6617
 30
0.000000
  70
    32
  0
VERTEX
  8
VISIBLE_NARROW__ISO_
  5
B17
 10
21.3894
 20
12.6645
 30
0.000000
  70
    32
  0
VERTEX
  8
VISIBLE_NARROW__ISO_
  5
B18
 10
21.3864
 20
12.6674
 30
0.000000
  70
    32
  0
VERTEX
  8
VISIBLE_NARROW__ISO_
  5
B19
 10
21.3835
 20
12.6703
 30
0.000000
  70
    32
  0
VERTEX
  8
VISIBLE_NARROW__ISO_
  5
B1A
 10
21.3805
 20
12.6731
 30
0.000000
  70
    32
  0
VERTEX
  8
VISIBLE_NARROW__ISO_
  5
B1B
 10
21.3776
 20
12.6759
 30
0.000000
  70
    32
  0
VERTEX
  8
VISIBLE_NARROW__ISO_
  5
B1C
 10
21.3746
 20
12.6788
 30
0.000000
  70
    32
  0
VERTEX
  8
VISIBLE_NARROW__ISO_
  5
B1D
 10
21.3716
 20
12.6816
 30
0.000000
  70
    32
  0
VERTEX
  8
VISIBLE_NARROW__ISO_
  5
B1E
 10
21.3686
 20
12.6844
 30
0.000000
  70
    32
  0
VERTEX
  8
VISIBLE_NARROW__ISO_
  5
B1F
 10
21.3656
 20
12.6872
 30
0.000000
  70
    32
  0
VERTEX
  8
VISIBLE_NARROW__ISO_
  5
B20
 10
21.3626
 20
12.6900
 30
0.000000
  70
    32
  0
VERTEX
  8
VISIBLE_NARROW__ISO_
  5
B21
 10
21.3596
 20
12.6928
 30
0.000000
  70
    32
  0
VERTEX
  8
VISIBLE_NARROW__ISO_
  5
B22
 10
21.3566
 20
12.6955
 30
0.000000
  70
    32
  0
VERTEX
  8
VISIBLE_NARROW__ISO_
  5
B23
 10
21.3536
 20
12.6983
 30
0.000000
  70
    32
  0
VERTEX
  8
VISIBLE_NARROW__ISO_
  5
B24
 10
21.3505
 20
12.7010
 30
0.000000
  70
    32
  0
VERTEX
  8
VISIBLE_NARROW__ISO_
  5
B25
 10
21.3475
 20
12.7038
 30
0.000000
  70
    32
  0
VERTEX
  8
VISIBLE_NARROW__ISO_
  5
B26
 10
21.3444
 20
12.7065
 30
0.000000
  70
    32
  0
VERTEX
  8
VISIBLE_NARROW__ISO_
  5
B27
 10
21.3414
 20
12.7093
 30
0.000000
  70
    32
  0
VERTEX
  8
VISIBLE_NARROW__ISO_
  5
B28
 10
21.3383
 20
12.7120
 30
0.000000
  70
    32
  0
VERTEX
  8
VISIBLE_NARROW__ISO_
  5
B29
 10
21.3352
 20
12.7147
 30
0.000000
  70
    32
  0
VERTEX
  8
VISIBLE_NARROW__ISO_
  5
B2A
 10
21.3321
 20
12.7174
 30
0.000000
  70
    32
  0
VERTEX
  8
VISIBLE_NARROW__ISO_
  5
B2B
 10
21.3290
 20
12.7201
 30
0.000000
  70
    32
  0
VERTEX
  8
VISIBLE_NARROW__ISO_
  5
B2C
 10
21.3259
 20
12.7227
 30
0.000000
  70
    32
  0
VERTEX
  8
VISIBLE_NARROW__ISO_
  5
B2D
 10
21.3228
 20
12.7254
 30
0.000000
  70
    32
  0
VERTEX
  8
VISIBLE_NARROW__ISO_
  5
B2E
 10
21.3197
 20
12.7281
 30
0.000000
  70
    32
  0
VERTEX
  8
VISIBLE_NARROW__ISO_
  5
B2F
 10
21.3165
 20
12.7307
 30
0.000000
  70
    32
  0
VERTEX
  8
VISIBLE_NARROW__ISO_
  5
B30
 10
21.3134
 20
12.7334
 30
0.000000
  70
    32
  0
VERTEX
  8
VISIBLE_NARROW__ISO_
  5
B31
 10
21.3103
 20
12.7360
 30
0.000000
  70
    32
  0
VERTEX
  8
VISIBLE_NARROW__ISO_
  5
B32
 10
21.3071
 20
12.7386
 30
0.000000
  70
    32
  0
VERTEX
  8
VISIBLE_NARROW__ISO_
  5
B33
 10
21.3039
 20
12.7412
 30
0.000000
  70
    32
  0
VERTEX
  8
VISIBLE_NARROW__ISO_
  5
B34
 10
21.3008
 20
12.7438
 30
0.000000
  70
    32
  0
VERTEX
  8
VISIBLE_NARROW__ISO_
  5
B35
 10
21.2976
 20
12.7464
 30
0.000000
  70
    32
  0
VERTEX
  8
VISIBLE_NARROW__ISO_
  5
B36
 10
21.2944
 20
12.7490
 30
0.000000
  70
    32
  0
VERTEX
  8
VISIBLE_NARROW__ISO_
  5
B37
 10
21.2912
 20
12.7516
 30
0.000000
  70
    32
  0
VERTEX
  8
VISIBLE_NARROW__ISO_
  5
B38
 10
21.2880
 20
12.7541
 30
0.000000
  70
    32
  0
VERTEX
  8
VISIBLE_NARROW__ISO_
  5
B39
 10
21.2848
 20
12.7567
 30
0.000000
  70
    32
  0
VERTEX
  8
VISIBLE_NARROW__ISO_
  5
B3A
 10
21.2816
 20
12.7592
 30
0.000000
  70
    32
  0
VERTEX
  8
VISIBLE_NARROW__ISO_
  5
B3B
 10
21.2783
 20
12.7617
 30
0.000000
  70
    32
  0
VERTEX
  8
VISIBLE_NARROW__ISO_
  5
B3C
 10
21.2751
 20
12.7643
 30
0.000000
  70
    32
  0
VERTEX
  8
VISIBLE_NARROW__ISO_
  5
B3D
 10
21.2719
 20
12.7668
 30
0.000000
  70
    32
  0
VERTEX
  8
VISIBLE_NARROW__ISO_
  5
B3E
 10
21.2686
 20
12.7693
 30
0.000000
  70
    32
  0
VERTEX
  8
VISIBLE_NARROW__ISO_
  5
B3F
 10
21.2654
 20
12.7718
 30
0.000000
  70
    32
  0
VERTEX
  8
VISIBLE_NARROW__ISO_
  5
B40
 10
21.2621
 20
12.7743
 30
0.000000
  70
    32
  0
VERTEX
  8
VISIBLE_NARROW__ISO_
  5
B41
 10
21.2588
 20
12.7767
 30
0.000000
  70
    32
  0
VERTEX
  8
VISIBLE_NARROW__ISO_
  5
B42
 10
21.2555
 20
12.7792
 30
0.000000
  70
    32
  0
VERTEX
  8
VISIBLE_NARROW__ISO_
  5
B43
 10
21.2523
 20
12.7816
 30
0.000000
  70
    32
  0
VERTEX
  8
VISIBLE_NARROW__ISO_
  5
B44
 10
21.2490
 20
12.7841
 30
0.000000
  70
    32
  0
VERTEX
  8
VISIBLE_NARROW__ISO_
  5
B45
 10
21.2457
 20
12.7865
 30
0.000000
  70
    32
  0
VERTEX
  8
VISIBLE_NARROW__ISO_
  5
B46
 10
21.2424
 20
12.7889
 30
0.000000
  70
    32
  0
VERTEX
  8
VISIBLE_NARROW__ISO_
  5
B47
 10
21.2390
 20
12.7914
 30
0.000000
  70
    32
  0
VERTEX
  8
VISIBLE_NARROW__ISO_
  5
B48
 10
21.2357
 20
12.7938
 30
0.000000
  70
    32
  0
VERTEX
  8
VISIBLE_NARROW__ISO_
  5
B49
 10
21.2324
 20
12.7961
 30
0.000000
  70
    32
  0
VERTEX
  8
VISIBLE_NARROW__ISO_
  5
B4A
 10
21.2290
 20
12.7985
 30
0.000000
  70
    32
  0
VERTEX
  8
VISIBLE_NARROW__ISO_
  5
B4B
 10
21.2257
 20
12.8009
 30
0.000000
  70
    32
  0
VERTEX
  8
VISIBLE_NARROW__ISO_
  5
B4C
 10
21.2223
 20
12.8033
 30
0.000000
  70
    32
  0
VERTEX
  8
VISIBLE_NARROW__ISO_
  5
B4D
 10
21.2190
 20
12.8056
 30
0.000000
  70
    32
  0
VERTEX
  8
VISIBLE_NARROW__ISO_
  5
B4E
 10
21.2156
 20
12.8079
 30
0.000000
  70
    32
  0
VERTEX
  8
VISIBLE_NARROW__ISO_
  5
B4F
 10
21.2122
 20
12.8103
 30
0.000000
  70
    32
  0
VERTEX
  8
VISIBLE_NARROW__ISO_
  5
B50
 10
21.2089
 20
12.8126
 30
0.000000
  70
    32
  0
VERTEX
  8
VISIBLE_NARROW__ISO_
  5
B51
 10
21.2055
 20
12.8149
 30
0.000000
  70
    32
  0
VERTEX
  8
VISIBLE_NARROW__ISO_
  5
B52
 10
21.2021
 20
12.8172
 30
0.000000
  70
    32
  0
VERTEX
  8
VISIBLE_NARROW__ISO_
  5
B53
 10
21.1987
 20
12.8195
 30
0.000000
  70
    32
  0
VERTEX
  8
VISIBLE_NARROW__ISO_
  5
B54
 10
21.1953
 20
12.8218
 30
0.000000
  70
    32
  0
VERTEX
  8
VISIBLE_NARROW__ISO_
  5
B55
 10
21.1918
 20
12.8240
 30
0.000000
  70
    32
  0
VERTEX
  8
VISIBLE_NARROW__ISO_
  5
B56
 10
21.1884
 20
12.8263
 30
0.000000
  70
    32
  0
VERTEX
  8
VISIBLE_NARROW__ISO_
  5
B57
 10
21.1850
 20
12.8285
 30
0.000000
  70
    32
  0
VERTEX
  8
VISIBLE_NARROW__ISO_
  5
B58
 10
21.1815
 20
12.8308
 30
0.000000
  70
    32
  0
VERTEX
  8
VISIBLE_NARROW__ISO_
  5
B59
 10
21.1781
 20
12.8330
 30
0.000000
  70
    32
  0
VERTEX
  8
VISIBLE_NARROW__ISO_
  5
B5A
 10
21.1746
 20
12.8352
 30
0.000000
  70
    32
  0
VERTEX
  8
VISIBLE_NARROW__ISO_
  5
B5B
 10
21.1712
 20
12.8374
 30
0.000000
  70
    32
  0
VERTEX
  8
VISIBLE_NARROW__ISO_
  5
B5C
 10
21.1677
 20
12.8396
 30
0.000000
  70
    32
  0
VERTEX
  8
VISIBLE_NARROW__ISO_
  5
B5D
 10
21.1642
 20
12.8418
 30
0.000000
  70
    32
  0
VERTEX
  8
VISIBLE_NARROW__ISO_
  5
B5E
 10
21.1608
 20
12.8439
 30
0.000000
  70
    32
  0
VERTEX
  8
VISIBLE_NARROW__ISO_
  5
B5F
 10
21.1573
 20
12.8461
 30
0.000000
  70
    32
  0
VERTEX
  8
VISIBLE_NARROW__ISO_
  5
B60
 10
21.1538
 20
12.8482
 30
0.000000
  70
    32
  0
VERTEX
  8
VISIBLE_NARROW__ISO_
  5
B61
 10
21.1503
 20
12.8504
 30
0.000000
  70
    32
  0
VERTEX
  8
VISIBLE_NARROW__ISO_
  5
B62
 10
21.1468
 20
12.8525
 30
0.000000
  70
    32
  0
VERTEX
  8
VISIBLE_NARROW__ISO_
  5
B63
 10
21.1433
 20
12.8546
 30
0.000000
  70
    32
  0
VERTEX
  8
VISIBLE_NARROW__ISO_
  5
B64
 10
21.1397
 20
12.8567
 30
0.000000
  70
    32
  0
VERTEX
  8
VISIBLE_NARROW__ISO_
  5
B65
 10
21.1362
 20
12.8588
 30
0.000000
  70
    32
  0
VERTEX
  8
VISIBLE_NARROW__ISO_
  5
B66
 10
21.1327
 20
12.8609
 30
0.000000
  70
    32
  0
VERTEX
  8
VISIBLE_NARROW__ISO_
  5
B67
 10
21.1291
 20
12.8630
 30
0.000000
  70
    32
  0
VERTEX
  8
VISIBLE_NARROW__ISO_
  5
B68
 10
21.1256
 20
12.8650
 30
0.000000
  70
    32
  0
VERTEX
  8
VISIBLE_NARROW__ISO_
  5
B69
 10
21.1220
 20
12.8671
 30
0.000000
  70
    32
  0
VERTEX
  8
VISIBLE_NARROW__ISO_
  5
B6A
 10
21.1185
 20
12.8691
 30
0.000000
  70
    32
  0
VERTEX
  8
VISIBLE_NARROW__ISO_
  5
B6B
 10
21.1149
 20
12.8712
 30
0.000000
  70
    32
  0
VERTEX
  8
VISIBLE_NARROW__ISO_
  5
B6C
 10
21.1114
 20
12.8732
 30
0.000000
  70
    32
  0
VERTEX
  8
VISIBLE_NARROW__ISO_
  5
B6D
 10
21.1078
 20
12.8752
 30
0.000000
  70
    32
  0
VERTEX
  8
VISIBLE_NARROW__ISO_
  5
B6E
 10
21.1042
 20
12.8772
 30
0.000000
  70
    32
  0
VERTEX
  8
VISIBLE_NARROW__ISO_
  5
B6F
 10
21.1006
 20
12.8792
 30
0.000000
  70
    32
  0
VERTEX
  8
VISIBLE_NARROW__ISO_
  5
B70
 10
21.0970
 20
12.8811
 30
0.000000
  70
    32
  0
VERTEX
  8
VISIBLE_NARROW__ISO_
  5
B71
 10
21.0934
 20
12.8831
 30
0.000000
  70
    32
  0
VERTEX
  8
VISIBLE_NARROW__ISO_
  5
B72
 10
21.0898
 20
12.8850
 30
0.000000
  70
    32
  0
VERTEX
  8
VISIBLE_NARROW__ISO_
  5
B73
 10
21.0862
 20
12.8870
 30
0.000000
  70
    32
  0
VERTEX
  8
VISIBLE_NARROW__ISO_
  5
B74
 10
21.0826
 20
12.8889
 30
0.000000
  70
    32
  0
VERTEX
  8
VISIBLE_NARROW__ISO_
  5
B75
 10
21.0789
 20
12.8908
 30
0.000000
  70
    32
  0
VERTEX
  8
VISIBLE_NARROW__ISO_
  5
B76
 10
21.0753
 20
12.8927
 30
0.000000
  70
    32
  0
VERTEX
  8
VISIBLE_NARROW__ISO_
  5
B77
 10
21.0717
 20
12.8946
 30
0.000000
  70
    32
  0
VERTEX
  8
VISIBLE_NARROW__ISO_
  5
B78
 10
21.0680
 20
12.8965
 30
0.000000
  70
    32
  0
VERTEX
  8
VISIBLE_NARROW__ISO_
  5
B79
 10
21.0644
 20
12.8984
 30
0.000000
  70
    32
  0
VERTEX
  8
VISIBLE_NARROW__ISO_
  5
B7A
 10
21.0607
 20
12.9003
 30
0.000000
  70
    32
  0
VERTEX
  8
VISIBLE_NARROW__ISO_
  5
B7B
 10
21.0571
 20
12.9021
 30
0.000000
  70
    32
  0
VERTEX
  8
VISIBLE_NARROW__ISO_
  5
B7C
 10
21.0534
 20
12.9039
 30
0.000000
  70
    32
  0
VERTEX
  8
VISIBLE_NARROW__ISO_
  5
B7D
 10
21.0497
 20
12.9058
 30
0.000000
  70
    32
  0
VERTEX
  8
VISIBLE_NARROW__ISO_
  5
B7E
 10
21.0461
 20
12.9076
 30
0.000000
  70
    32
  0
VERTEX
  8
VISIBLE_NARROW__ISO_
  5
B7F
 10
21.0424
 20
12.9094
 30
0.000000
  70
    32
  0
VERTEX
  8
VISIBLE_NARROW__ISO_
  5
B80
 10
21.0387
 20
12.9112
 30
0.000000
  70
    32
  0
VERTEX
  8
VISIBLE_NARROW__ISO_
  5
B81
 10
21.0350
 20
12.9130
 30
0.000000
  70
    32
  0
VERTEX
  8
VISIBLE_NARROW__ISO_
  5
B82
 10
21.0313
 20
12.9147
 30
0.000000
  70
    32
  0
VERTEX
  8
VISIBLE_NARROW__ISO_
  5
B83
 10
21.0276
 20
12.9165
 30
0.000000
  70
    32
  0
VERTEX
  8
VISIBLE_NARROW__ISO_
  5
B84
 10
21.0239
 20
12.9183
 30
0.000000
  70
    32
  0
VERTEX
  8
VISIBLE_NARROW__ISO_
  5
B85
 10
21.0202
 20
12.9200
 30
0.000000
  70
    32
  0
VERTEX
  8
VISIBLE_NARROW__ISO_
  5
B86
 10
21.0165
 20
12.9217
 30
0.000000
  70
    32
  0
VERTEX
  8
VISIBLE_NARROW__ISO_
  5
B87
 10
21.0127
 20
12.9234
 30
0.000000
  70
    32
  0
VERTEX
  8
VISIBLE_NARROW__ISO_
  5
B88
 10
21.0090
 20
12.9251
 30
0.000000
  70
    32
  0
VERTEX
  8
VISIBLE_NARROW__ISO_
  5
B89
 10
21.0053
 20
12.9268
 30
0.000000
  70
    32
  0
VERTEX
  8
VISIBLE_NARROW__ISO_
  5
B8A
 10
21.0015
 20
12.9285
 30
0.000000
  70
    32
  0
VERTEX
  8
VISIBLE_NARROW__ISO_
  5
B8B
 10
20.9978
 20
12.9302
 30
0.000000
  70
    32
  0
VERTEX
  8
VISIBLE_NARROW__ISO_
  5
B8C
 10
20.9940
 20
12.9318
 30
0.000000
  70
    32
  0
VERTEX
  8
VISIBLE_NARROW__ISO_
  5
B8D
 10
20.9903
 20
12.9335
 30
0.000000
  70
    32
  0
VERTEX
  8
VISIBLE_NARROW__ISO_
  5
B8E
 10
20.9865
 20
12.9351
 30
0.000000
  70
    32
  0
VERTEX
  8
VISIBLE_NARROW__ISO_
  5
B8F
 10
20.9827
 20
12.9367
 30
0.000000
  70
    32
  0
VERTEX
  8
VISIBLE_NARROW__ISO_
  5
B90
 10
20.9790
 20
12.9384
 30
0.000000
  70
    32
  0
VERTEX
  8
VISIBLE_NARROW__ISO_
  5
B91
 10
20.9752
 20
12.9400
 30
0.000000
  70
    32
  0
VERTEX
  8
VISIBLE_NARROW__ISO_
  5
B92
 10
20.9714
 20
12.9415
 30
0.000000
  70
    32
  0
VERTEX
  8
VISIBLE_NARROW__ISO_
  5
B93
 10
20.9676
 20
12.9431
 30
0.000000
  70
    32
  0
VERTEX
  8
VISIBLE_NARROW__ISO_
  5
B94
 10
20.9638
 20
12.9447
 30
0.000000
  70
    32
  0
VERTEX
  8
VISIBLE_NARROW__ISO_
  5
B95
 10
20.9600
 20
12.9462
 30
0.000000
  70
    32
  0
VERTEX
  8
VISIBLE_NARROW__ISO_
  5
B96
 10
20.9562
 20
12.9478
 30
0.000000
  70
    32
  0
VERTEX
  8
VISIBLE_NARROW__ISO_
  5
B97
 10
20.9524
 20
12.9493
 30
0.000000
  70
    32
  0
VERTEX
  8
VISIBLE_NARROW__ISO_
  5
B98
 10
20.9486
 20
12.9508
 30
0.000000
  70
    32
  0
VERTEX
  8
VISIBLE_NARROW__ISO_
  5
B99
 10
20.9448
 20
12.9523
 30
0.000000
  70
    32
  0
VERTEX
  8
VISIBLE_NARROW__ISO_
  5
B9A
 10
20.9410
 20
12.9538
 30
0.000000
  70
    32
  0
VERTEX
  8
VISIBLE_NARROW__ISO_
  5
B9B
 10
20.9372
 20
12.9553
 30
0.000000
  70
    32
  0
VERTEX
  8
VISIBLE_NARROW__ISO_
  5
B9C
 10
20.9334
 20
12.9568
 30
0.000000
  70
    32
  0
VERTEX
  8
VISIBLE_NARROW__ISO_
  5
B9D
 10
20.9295
 20
12.9582
 30
0.000000
  70
    32
  0
VERTEX
  8
VISIBLE_NARROW__ISO_
  5
B9E
 10
20.9257
 20
12.9597
 30
0.000000
  70
    32
  0
VERTEX
  8
VISIBLE_NARROW__ISO_
  5
B9F
 10
20.9218
 20
12.9611
 30
0.000000
  70
    32
  0
VERTEX
  8
VISIBLE_NARROW__ISO_
  5
BA0
 10
20.9180
 20
12.9625
 30
0.000000
  70
    32
  0
VERTEX
  8
VISIBLE_NARROW__ISO_
  5
BA1
 10
20.9141
 20
12.9640
 30
0.000000
  70
    32
  0
VERTEX
  8
VISIBLE_NARROW__ISO_
  5
BA2
 10
20.9103
 20
12.9654
 30
0.000000
  70
    32
  0
VERTEX
  8
VISIBLE_NARROW__ISO_
  5
BA3
 10
20.9064
 20
12.9667
 30
0.000000
  70
    32
  0
VERTEX
  8
VISIBLE_NARROW__ISO_
  5
BA4
 10
20.9026
 20
12.9681
 30
0.000000
  70
    32
  0
VERTEX
  8
VISIBLE_NARROW__ISO_
  5
BA5
 10
20.8987
 20
12.9695
 30
0.000000
  70
    32
  0
VERTEX
  8
VISIBLE_NARROW__ISO_
  5
BA6
 10
20.8948
 20
12.9708
 30
0.000000
  70
    32
  0
VERTEX
  8
VISIBLE_NARROW__ISO_
  5
BA7
 10
20.8910
 20
12.9722
 30
0.000000
  70
    32
  0
VERTEX
  8
VISIBLE_NARROW__ISO_
  5
BA8
 10
20.8871
 20
12.9735
 30
0.000000
  70
    32
  0
VERTEX
  8
VISIBLE_NARROW__ISO_
  5
BA9
 10
20.8832
 20
12.9748
 30
0.000000
  70
    32
  0
VERTEX
  8
VISIBLE_NARROW__ISO_
  5
BAA
 10
20.8793
 20
12.9761
 30
0.000000
  70
    32
  0
VERTEX
  8
VISIBLE_NARROW__ISO_
  5
BAB
 10
20.8754
 20
12.9774
 30
0.000000
  70
    32
  0
VERTEX
  8
VISIBLE_NARROW__ISO_
  5
BAC
 10
20.8715
 20
12.9787
 30
0.000000
  70
    32
  0
VERTEX
  8
VISIBLE_NARROW__ISO_
  5
BAD
 10
20.8676
 20
12.9800
 30
0.000000
  70
    32
  0
VERTEX
  8
VISIBLE_NARROW__ISO_
  5
BAE
 10
20.8637
 20
12.9812
 30
0.000000
  70
    32
  0
VERTEX
  8
VISIBLE_NARROW__ISO_
  5
BAF
 10
20.8598
 20
12.9825
 30
0.000000
  70
    32
  0
VERTEX
  8
VISIBLE_NARROW__ISO_
  5
BB0
 10
20.8559
 20
12.9837
 30
0.000000
  70
    32
  0
VERTEX
  8
VISIBLE_NARROW__ISO_
  5
BB1
 10
20.8520
 20
12.9849
 30
0.000000
  70
    32
  0
VERTEX
  8
VISIBLE_NARROW__ISO_
  5
BB2
 10
20.8481
 20
12.9861
 30
0.000000
  70
    32
  0
VERTEX
  8
VISIBLE_NARROW__ISO_
  5
BB3
 10
20.8441
 20
12.9873
 30
0.000000
  70
    32
  0
VERTEX
  8
VISIBLE_NARROW__ISO_
  5
BB4
 10
20.8402
 20
12.9885
 30
0.000000
  70
    32
  0
VERTEX
  8
VISIBLE_NARROW__ISO_
  5
BB5
 10
20.8363
 20
12.9897
 30
0.000000
  70
    32
  0
VERTEX
  8
VISIBLE_NARROW__ISO_
  5
BB6
 10
20.8324
 20
12.9909
 30
0.000000
  70
    32
  0
VERTEX
  8
VISIBLE_NARROW__ISO_
  5
BB7
 10
20.8284
 20
12.9920
 30
0.000000
  70
    32
  0
VERTEX
  8
VISIBLE_NARROW__ISO_
  5
BB8
 10
20.8245
 20
12.9931
 30
0.000000
  70
    32
  0
VERTEX
  8
VISIBLE_NARROW__ISO_
  5
BB9
 10
20.8205
 20
12.9943
 30
0.000000
  70
    32
  0
VERTEX
  8
VISIBLE_NARROW__ISO_
  5
BBA
 10
20.8166
 20
12.9954
 30
0.000000
  70
    32
  0
VERTEX
  8
VISIBLE_NARROW__ISO_
  5
BBB
 10
20.8126
 20
12.9965
 30
0.000000
  70
    32
  0
VERTEX
  8
VISIBLE_NARROW__ISO_
  5
BBC
 10
20.8087
 20
12.9976
 30
0.000000
  70
    32
  0
VERTEX
  8
VISIBLE_NARROW__ISO_
  5
BBD
 10
20.8047
 20
12.9986
 30
0.000000
  70
    32
  0
VERTEX
  8
VISIBLE_NARROW__ISO_
  5
BBE
 10
20.8008
 20
12.9997
 30
0.000000
  70
    32
  0
VERTEX
  8
VISIBLE_NARROW__ISO_
  5
BBF
 10
20.7968
 20
13.0007
 30
0.000000
  70
    32
  0
VERTEX
  8
VISIBLE_NARROW__ISO_
  5
BC0
 10
20.7928
 20
13.0018
 30
0.000000
  70
    32
  0
VERTEX
  8
VISIBLE_NARROW__ISO_
  5
BC1
 10
20.7889
 20
13.0028
 30
0.000000
  70
    32
  0
VERTEX
  8
VISIBLE_NARROW__ISO_
  5
BC2
 10
20.7849
 20
13.0038
 30
0.000000
  70
    32
  0
VERTEX
  8
VISIBLE_NARROW__ISO_
  5
BC3
 10
20.7809
 20
13.0048
 30
0.000000
  70
    32
  0
VERTEX
  8
VISIBLE_NARROW__ISO_
  5
BC4
 10
20.7769
 20
13.0058
 30
0.000000
  70
    32
  0
VERTEX
  8
VISIBLE_NARROW__ISO_
  5
BC5
 10
20.7730
 20
13.0068
 30
0.000000
  70
    32
  0
VERTEX
  8
VISIBLE_NARROW__ISO_
  5
BC6
 10
20.7690
 20
13.0078
 30
0.000000
  70
    32
  0
VERTEX
  8
VISIBLE_NARROW__ISO_
  5
BC7
 10
20.7650
 20
13.0087
 30
0.000000
  70
    32
  0
VERTEX
  8
VISIBLE_NARROW__ISO_
  5
BC8
 10
20.7610
 20
13.0096
 30
0.000000
  70
    32
  0
VERTEX
  8
VISIBLE_NARROW__ISO_
  5
BC9
 10
20.7570
 20
13.0106
 30
0.000000
  70
    32
  0
VERTEX
  8
VISIBLE_NARROW__ISO_
  5
BCA
 10
20.7530
 20
13.0115
 30
0.000000
  70
    32
  0
VERTEX
  8
VISIBLE_NARROW__ISO_
  5
BCB
 10
20.7490
 20
13.0124
 30
0.000000
  70
    32
  0
VERTEX
  8
VISIBLE_NARROW__ISO_
  5
BCC
 10
20.7450
 20
13.0133
 30
0.000000
  70
    32
  0
VERTEX
  8
VISIBLE_NARROW__ISO_
  5
BCD
 10
20.7410
 20
13.0142
 30
0.000000
  70
    32
  0
VERTEX
  8
VISIBLE_NARROW__ISO_
  5
BCE
 10
20.7370
 20
13.0150
 30
0.000000
  70
    32
  0
VERTEX
  8
VISIBLE_NARROW__ISO_
  5
BCF
 10
20.7330
 20
13.0159
 30
0.000000
  70
    32
  0
VERTEX
  8
VISIBLE_NARROW__ISO_
  5
BD0
 10
20.7290
 20
13.0167
 30
0.000000
  70
    32
  0
VERTEX
  8
VISIBLE_NARROW__ISO_
  5
BD1
 10
20.7250
 20
13.0176
 30
0.000000
  70
    32
  0
VERTEX
  8
VISIBLE_NARROW__ISO_
  5
BD2
 10
20.7209
 20
13.0184
 30
0.000000
  70
    32
  0
VERTEX
  8
VISIBLE_NARROW__ISO_
  5
BD3
 10
20.7169
 20
13.0192
 30
0.000000
  70
    32
  0
VERTEX
  8
VISIBLE_NARROW__ISO_
  5
BD4
 10
20.7129
 20
13.0200
 30
0.000000
  70
    32
  0
VERTEX
  8
VISIBLE_NARROW__ISO_
  5
BD5
 10
20.7089
 20
13.0208
 30
0.000000
  70
    32
  0
VERTEX
  8
VISIBLE_NARROW__ISO_
  5
BD6
 10
20.7048
 20
13.0215
 30
0.000000
  70
    32
  0
VERTEX
  8
VISIBLE_NARROW__ISO_
  5
BD7
 10
20.7008
 20
13.0223
 30
0.000000
  70
    32
  0
VERTEX
  8
VISIBLE_NARROW__ISO_
  5
BD8
 10
20.6968
 20
13.0230
 30
0.000000
  70
    32
  0
VERTEX
  8
VISIBLE_NARROW__ISO_
  5
BD9
 10
20.6927
 20
13.0238
 30
0.000000
  70
    32
  0
VERTEX
  8
VISIBLE_NARROW__ISO_
  5
BDA
 10
20.6887
 20
13.0245
 30
0.000000
  70
    32
  0
VERTEX
  8
VISIBLE_NARROW__ISO_
  5
BDB
 10
20.6847
 20
13.0252
 30
0.000000
  70
    32
  0
VERTEX
  8
VISIBLE_NARROW__ISO_
  5
BDC
 10
20.6806
 20
13.0259
 30
0.000000
  70
    32
  0
VERTEX
  8
VISIBLE_NARROW__ISO_
  5
BDD
 10
20.6766
 20
13.0266
 30
0.000000
  70
    32
  0
VERTEX
  8
VISIBLE_NARROW__ISO_
  5
BDE
 10
20.6725
 20
13.0272
 30
0.000000
  70
    32
  0
VERTEX
  8
VISIBLE_NARROW__ISO_
  5
BDF
 10
20.6685
 20
13.0279
 30
0.000000
  70
    32
  0
VERTEX
  8
VISIBLE_NARROW__ISO_
  5
BE0
 10
20.6644
 20
13.0285
 30
0.000000
  70
    32
  0
VERTEX
  8
VISIBLE_NARROW__ISO_
  5
BE1
 10
20.6604
 20
13.0292
 30
0.000000
  70
    32
  0
VERTEX
  8
VISIBLE_NARROW__ISO_
  5
BE2
 10
20.6563
 20
13.0298
 30
0.000000
  70
    32
  0
VERTEX
  8
VISIBLE_NARROW__ISO_
  5
BE3
 10
20.6523
 20
13.0304
 30
0.000000
  70
    32
  0
VERTEX
  8
VISIBLE_NARROW__ISO_
  5
BE4
 10
20.6482
 20
13.0310
 30
0.000000
  70
    32
  0
VERTEX
  8
VISIBLE_NARROW__ISO_
  5
BE5
 10
20.6442
 20
13.0316
 30
0.000000
  70
    32
  0
VERTEX
  8
VISIBLE_NARROW__ISO_
  5
BE6
 10
20.6401
 20
13.0321
 30
0.000000
  70
    32
  0
VERTEX
  8
VISIBLE_NARROW__ISO_
  5
BE7
 10
20.6361
 20
13.0327
 30
0.000000
  70
    32
  0
VERTEX
  8
VISIBLE_NARROW__ISO_
  5
BE8
 10
20.6320
 20
13.0332
 30
0.000000
  70
    32
  0
VERTEX
  8
VISIBLE_NARROW__ISO_
  5
BE9
 10
20.6279
 20
13.0338
 30
0.000000
  70
    32
  0
VERTEX
  8
VISIBLE_NARROW__ISO_
  5
BEA
 10
20.6239
 20
13.0343
 30
0.000000
  70
    32
  0
VERTEX
  8
VISIBLE_NARROW__ISO_
  5
BEB
 10
20.6198
 20
13.0348
 30
0.000000
  70
    32
  0
VERTEX
  8
VISIBLE_NARROW__ISO_
  5
BEC
 10
20.6157
 20
13.0353
 30
0.000000
  70
    32
  0
VERTEX
  8
VISIBLE_NARROW__ISO_
  5
BED
 10
20.6116
 20
13.0358
 30
0.000000
  70
    32
  0
VERTEX
  8
VISIBLE_NARROW__ISO_
  5
BEE
 10
20.6076
 20
13.0362
 30
0.000000
  70
    32
  0
VERTEX
  8
VISIBLE_NARROW__ISO_
  5
BEF
 10
20.6035
 20
13.0367
 30
0.000000
  70
    32
  0
VERTEX
  8
VISIBLE_NARROW__ISO_
  5
BF0
 10
20.5994
 20
13.0371
 30
0.000000
  70
    32
  0
VERTEX
  8
VISIBLE_NARROW__ISO_
  5
BF1
 10
20.5953
 20
13.0376
 30
0.000000
  70
    32
  0
VERTEX
  8
VISIBLE_NARROW__ISO_
  5
BF2
 10
20.5913
 20
13.0380
 30
0.000000
  70
    32
  0
VERTEX
  8
VISIBLE_NARROW__ISO_
  5
BF3
 10
20.5872
 20
13.0384
 30
0.000000
  70
    32
  0
VERTEX
  8
VISIBLE_NARROW__ISO_
  5
BF4
 10
20.5831
 20
13.0388
 30
0.000000
  70
    32
  0
VERTEX
  8
VISIBLE_NARROW__ISO_
  5
BF5
 10
20.5790
 20
13.0392
 30
0.000000
  70
    32
  0
VERTEX
  8
VISIBLE_NARROW__ISO_
  5
BF6
 10
20.5749
 20
13.0396
 30
0.000000
  70
    32
  0
VERTEX
  8
VISIBLE_NARROW__ISO_
  5
BF7
 10
20.5709
 20
13.0399
 30
0.000000
  70
    32
  0
VERTEX
  8
VISIBLE_NARROW__ISO_
  5
BF8
 10
20.5668
 20
13.0403
 30
0.000000
  70
    32
  0
VERTEX
  8
VISIBLE_NARROW__ISO_
  5
BF9
 10
20.5627
 20
13.0406
 30
0.000000
  70
    32
  0
VERTEX
  8
VISIBLE_NARROW__ISO_
  5
BFA
 10
20.5586
 20
13.0409
 30
0.000000
  70
    32
  0
VERTEX
  8
VISIBLE_NARROW__ISO_
  5
BFB
 10
20.5545
 20
13.0412
 30
0.000000
  70
    32
  0
VERTEX
  8
VISIBLE_NARROW__ISO_
  5
BFC
 10
20.5504
 20
13.0415
 30
0.000000
  70
    32
  0
VERTEX
  8
VISIBLE_NARROW__ISO_
  5
BFD
 10
20.5463
 20
13.0418
 30
0.000000
  70
    32
  0
VERTEX
  8
VISIBLE_NARROW__ISO_
  5
BFE
 10
20.5422
 20
13.0421
 30
0.000000
  70
    32
  0
VERTEX
  8
VISIBLE_NARROW__ISO_
  5
BFF
 10
20.5382
 20
13.0423
 30
0.000000
  70
    32
  0
VERTEX
  8
VISIBLE_NARROW__ISO_
  5
C00
 10
20.5341
 20
13.0426
 30
0.000000
  70
    32
  0
VERTEX
  8
VISIBLE_NARROW__ISO_
  5
C01
 10
20.5300
 20
13.0428
 30
0.000000
  70
    32
  0
VERTEX
  8
VISIBLE_NARROW__ISO_
  5
C02
 10
20.5259
 20
13.0430
 30
0.000000
  70
    32
  0
VERTEX
  8
VISIBLE_NARROW__ISO_
  5
C03
 10
20.5218
 20
13.0432
 30
0.000000
  70
    32
  0
VERTEX
  8
VISIBLE_NARROW__ISO_
  5
C04
 10
20.5177
 20
13.0434
 30
0.000000
  70
    32
  0
VERTEX
  8
VISIBLE_NARROW__ISO_
  5
C05
 10
20.5136
 20
13.0436
 30
0.000000
  70
    32
  0
VERTEX
  8
VISIBLE_NARROW__ISO_
  5
C06
 10
20.5095
 20
13.0438
 30
0.000000
  70
    32
  0
VERTEX
  8
VISIBLE_NARROW__ISO_
  5
C07
 10
20.5054
 20
13.0439
 30
0.000000
  70
    32
  0
VERTEX
  8
VISIBLE_NARROW__ISO_
  5
C08
 10
20.5013
 20
13.0441
 30
0.000000
  70
    32
  0
VERTEX
  8
VISIBLE_NARROW__ISO_
  5
C09
 10
20.4972
 20
13.0442
 30
0.000000
  70
    32
  0
VERTEX
  8
VISIBLE_NARROW__ISO_
  5
C0A
 10
20.4931
 20
13.0443
 30
0.000000
  70
    32
  0
VERTEX
  8
VISIBLE_NARROW__ISO_
  5
C0B
 10
20.4890
 20
13.0444
 30
0.000000
  70
    32
  0
VERTEX
  8
VISIBLE_NARROW__ISO_
  5
C0C
 10
20.4849
 20
13.0445
 30
0.000000
  70
    32
  0
VERTEX
  8
VISIBLE_NARROW__ISO_
  5
C0D
 10
20.4808
 20
13.0446
 30
0.000000
  70
    32
  0
VERTEX
  8
VISIBLE_NARROW__ISO_
  5
C0E
 10
20.4767
 20
13.0447
 30
0.000000
  70
    32
  0
VERTEX
  8
VISIBLE_NARROW__ISO_
  5
C0F
 10
20.4726
 20
13.0447
 30
0.000000
  70
    32
  0
VERTEX
  8
VISIBLE_NARROW__ISO_
  5
C10
 10
20.4685
 20
13.0448
 30
0.000000
  70
    32
  0
VERTEX
  8
VISIBLE_NARROW__ISO_
  5
C11
 10
20.4644
 20
13.0448
 30
0.000000
  70
    32
  0
VERTEX
  8
VISIBLE_NARROW__ISO_
  5
C12
 10
20.4603
 20
13.0448
 30
0.000000
  70
    32
  0
VERTEX
  8
VISIBLE_NARROW__ISO_
  5
C13
 10
20.4562
 20
13.0448
 30
0.000000
  70
    32
  0
SEQEND
  8
VISIBLE_NARROW__ISO_
  5
C14
  0
POLYLINE
  67
1
  8
VISIBLE_NARROW__ISO_
  5
C15
  66
     1
 10
0.000000
 20
0.000000
 30
0.000000
  70
     8
  0
VERTEX
  8
VISIBLE_NARROW__ISO_
  5
C16
 10
20.4562
 20
-4.57650
 30
0.000000
  70
    32
  0
VERTEX
  8
VISIBLE_NARROW__ISO_
  5
C17
 10
20.4603
 20
-4.57650
 30
0.000000
  70
    32
  0
VERTEX
  8
VISIBLE_NARROW__ISO_
  5
C18
 10
20.4644
 20
-4.57648
 30
0.000000
  70
    32
  0
VERTEX
  8
VISIBLE_NARROW__ISO_
  5
C19
 10
20.4685
 20
-4.57645
 30
0.000000
  70
    32
  0
VERTEX
  8
VISIBLE_NARROW__ISO_
  5
C1A
 10
20.4726
 20
-4.57641
 30
0.000000
  70
    32
  0
VERTEX
  8
VISIBLE_NARROW__ISO_
  5
C1B
 10
20.4767
 20
-4.57635
 30
0.000000
  70
    32
  0
VERTEX
  8
VISIBLE_NARROW__ISO_
  5
C1C
 10
20.4808
 20
-4.57628
 30
0.000000
  70
    32
  0
VERTEX
  8
VISIBLE_NARROW__ISO_
  5
C1D
 10
20.4849
 20
-4.57620
 30
0.000000
  70
    32
  0
VERTEX
  8
VISIBLE_NARROW__ISO_
  5
C1E
 10
20.4890
 20
-4.57611
 30
0.000000
  70
    32
  0
VERTEX
  8
VISIBLE_NARROW__ISO_
  5
C1F
 10
20.4931
 20
-4.57600
 30
0.000000
  70
    32
  0
VERTEX
  8
VISIBLE_NARROW__ISO_
  5
C20
 10
20.4972
 20
-4.57589
 30
0.000000
  70
    32
  0
VERTEX
  8
VISIBLE_NARROW__ISO_
  5
C21
 10
20.5013
 20
-4.57575
 30
0.000000
  70
    32
  0
VERTEX
  8
VISIBLE_NARROW__ISO_
  5
C22
 10
20.5054
 20
-4.57561
 30
0.000000
  70
    32
  0
VERTEX
  8
VISIBLE_NARROW__ISO_
  5
C23
 10
20.5095
 20
-4.57545
 30
0.000000
  70
    32
  0
VERTEX
  8
VISIBLE_NARROW__ISO_
  5
C24
 10
20.5136
 20
-4.57529
 30
0.000000
  70
    32
  0
VERTEX
  8
VISIBLE_NARROW__ISO_
  5
C25
 10
20.5177
 20
-4.57510
 30
0.000000
  70
    32
  0
VERTEX
  8
VISIBLE_NARROW__ISO_
  5
C26
 10
20.5218
 20
-4.57491
 30
0.000000
  70
    32
  0
VERTEX
  8
VISIBLE_NARROW__ISO_
  5
C27
 10
20.5259
 20
-4.57470
 30
0.000000
  70
    32
  0
VERTEX
  8
VISIBLE_NARROW__ISO_
  5
C28
 10
20.5300
 20
-4.57449
 30
0.000000
  70
    32
  0
VERTEX
  8
VISIBLE_NARROW__ISO_
  5
C29
 10
20.5341
 20
-4.57425
 30
0.000000
  70
    32
  0
VERTEX
  8
VISIBLE_NARROW__ISO_
  5
C2A
 10
20.5382
 20
-4.57401
 30
0.000000
  70
    32
  0
VERTEX
  8
VISIBLE_NARROW__ISO_
  5
C2B
 10
20.5422
 20
-4.57375
 30
0.000000
  70
    32
  0
VERTEX
  8
VISIBLE_NARROW__ISO_
  5
C2C
 10
20.5463
 20
-4.57348
 30
0.000000
  70
    32
  0
VERTEX
  8
VISIBLE_NARROW__ISO_
  5
C2D
 10
20.5504
 20
-4.57320
 30
0.000000
  70
    32
  0
VERTEX
  8
VISIBLE_NARROW__ISO_
  5
C2E
 10
20.5545
 20
-4.57291
 30
0.000000
  70
    32
  0
VERTEX
  8
VISIBLE_NARROW__ISO_
  5
C2F
 10
20.5586
 20
-4.57260
 30
0.000000
  70
    32
  0
VERTEX
  8
VISIBLE_NARROW__ISO_
  5
C30
 10
20.5627
 20
-4.57228
 30
0.000000
  70
    32
  0
VERTEX
  8
VISIBLE_NARROW__ISO_
  5
C31
 10
20.5668
 20
-4.57195
 30
0.000000
  70
    32
  0
VERTEX
  8
VISIBLE_NARROW__ISO_
  5
C32
 10
20.5709
 20
-4.57161
 30
0.000000
  70
    32
  0
VERTEX
  8
VISIBLE_NARROW__ISO_
  5
C33
 10
20.5749
 20
-4.57125
 30
0.000000
  70
    32
  0
VERTEX
  8
VISIBLE_NARROW__ISO_
  5
C34
 10
20.5790
 20
-4.57088
 30
0.000000
  70
    32
  0
VERTEX
  8
VISIBLE_NARROW__ISO_
  5
C35
 10
20.5831
 20
-4.57050
 30
0.000000
  70
    32
  0
VERTEX
  8
VISIBLE_NARROW__ISO_
  5
C36
 10
20.5872
 20
-4.57010
 30
0.000000
  70
    32
  0
VERTEX
  8
VISIBLE_NARROW__ISO_
  5
C37
 10
20.5913
 20
-4.56970
 30
0.000000
  70
    32
  0
VERTEX
  8
VISIBLE_NARROW__ISO_
  5
C38
 10
20.5953
 20
-4.56928
 30
0.000000
  70
    32
  0
VERTEX
  8
VISIBLE_NARROW__ISO_
  5
C39
 10
20.5994
 20
-4.56884
 30
0.000000
  70
    32
  0
VERTEX
  8
VISIBLE_NARROW__ISO_
  5
C3A
 10
20.6035
 20
-4.56840
 30
0.000000
  70
    32
  0
VERTEX
  8
VISIBLE_NARROW__ISO_
  5
C3B
 10
20.6076
 20
-4.56794
 30
0.000000
  70
    32
  0
VERTEX
  8
VISIBLE_NARROW__ISO_
  5
C3C
 10
20.6116
 20
-4.56747
 30
0.000000
  70
    32
  0
VERTEX
  8
VISIBLE_NARROW__ISO_
  5
C3D
 10
20.6157
 20
-4.56699
 30
0.000000
  70
    32
  0
VERTEX
  8
VISIBLE_NARROW__ISO_
  5
C3E
 10
20.6198
 20
-4.56650
 30
0.000000
  70
    32
  0
VERTEX
  8
VISIBLE_NARROW__ISO_
  5
C3F
 10
20.6239
 20
-4.56599
 30
0.000000
  70
    32
  0
VERTEX
  8
VISIBLE_NARROW__ISO_
  5
C40
 10
20.6279
 20
-4.56547
 30
0.000000
  70
    32
  0
VERTEX
  8
VISIBLE_NARROW__ISO_
  5
C41
 10
20.6320
 20
-4.56494
 30
0.000000
  70
    32
  0
VERTEX
  8
VISIBLE_NARROW__ISO_
  5
C42
 10
20.6361
 20
-4.56439
 30
0.000000
  70
    32
  0
VERTEX
  8
VISIBLE_NARROW__ISO_
  5
C43
 10
20.6401
 20
-4.56384
 30
0.000000
  70
    32
  0
VERTEX
  8
VISIBLE_NARROW__ISO_
  5
C44
 10
20.6442
 20
-4.56327
 30
0.000000
  70
    32
  0
VERTEX
  8
VISIBLE_NARROW__ISO_
  5
C45
 10
20.6482
 20
-4.56268
 30
0.000000
  70
    32
  0
VERTEX
  8
VISIBLE_NARROW__ISO_
  5
C46
 10
20.6523
 20
-4.56209
 30
0.000000
  70
    32
  0
VERTEX
  8
VISIBLE_NARROW__ISO_
  5
C47
 10
20.6563
 20
-4.56148
 30
0.000000
  70
    32
  0
VERTEX
  8
VISIBLE_NARROW__ISO_
  5
C48
 10
20.6604
 20
-4.56086
 30
0.000000
  70
    32
  0
VERTEX
  8
VISIBLE_NARROW__ISO_
  5
C49
 10
20.6645
 20
-4.56023
 30
0.000000
  70
    32
  0
VERTEX
  8
VISIBLE_NARROW__ISO_
  5
C4A
 10
20.6685
 20
-4.55959
 30
0.000000
  70
    32
  0
VERTEX
  8
VISIBLE_NARROW__ISO_
  5
C4B
 10
20.6725
 20
-4.55893
 30
0.000000
  70
    32
  0
VERTEX
  8
VISIBLE_NARROW__ISO_
  5
C4C
 10
20.6766
 20
-4.55826
 30
0.000000
  70
    32
  0
VERTEX
  8
VISIBLE_NARROW__ISO_
  5
C4D
 10
20.6806
 20
-4.55758
 30
0.000000
  70
    32
  0
VERTEX
  8
VISIBLE_NARROW__ISO_
  5
C4E
 10
20.6847
 20
-4.55689
 30
0.000000
  70
    32
  0
VERTEX
  8
VISIBLE_NARROW__ISO_
  5
C4F
 10
20.6887
 20
-4.55618
 30
0.000000
  70
    32
  0
VERTEX
  8
VISIBLE_NARROW__ISO_
  5
C50
 10
20.6928
 20
-4.55546
 30
0.000000
  70
    32
  0
VERTEX
  8
VISIBLE_NARROW__ISO_
  5
C51
 10
20.6968
 20
-4.55473
 30
0.000000
  70
    32
  0
VERTEX
  8
VISIBLE_NARROW__ISO_
  5
C52
 10
20.7008
 20
-4.55398
 30
0.000000
  70
    32
  0
VERTEX
  8
VISIBLE_NARROW__ISO_
  5
C53
 10
20.7048
 20
-4.55323
 30
0.000000
  70
    32
  0
VERTEX
  8
VISIBLE_NARROW__ISO_
  5
C54
 10
20.7089
 20
-4.55246
 30
0.000000
  70
    32
  0
VERTEX
  8
VISIBLE_NARROW__ISO_
  5
C55
 10
20.7129
 20
-4.55168
 30
0.000000
  70
    32
  0
VERTEX
  8
VISIBLE_NARROW__ISO_
  5
C56
 10
20.7169
 20
-4.55088
 30
0.000000
  70
    32
  0
VERTEX
  8
VISIBLE_NARROW__ISO_
  5
C57
 10
20.7209
 20
-4.55008
 30
0.000000
  70
    32
  0
VERTEX
  8
VISIBLE_NARROW__ISO_
  5
C58
 10
20.7250
 20
-4.54926
 30
0.000000
  70
    32
  0
VERTEX
  8
VISIBLE_NARROW__ISO_
  5
C59
 10
20.7290
 20
-4.54843
 30
0.000000
  70
    32
  0
VERTEX
  8
VISIBLE_NARROW__ISO_
  5
C5A
 10
20.7330
 20
-4.54758
 30
0.000000
  70
    32
  0
VERTEX
  8
VISIBLE_NARROW__ISO_
  5
C5B
 10
20.7370
 20
-4.54673
 30
0.000000
  70
    32
  0
VERTEX
  8
VISIBLE_NARROW__ISO_
  5
C5C
 10
20.7410
 20
-4.54586
 30
0.000000
  70
    32
  0
VERTEX
  8
VISIBLE_NARROW__ISO_
  5
C5D
 10
20.7450
 20
-4.54498
 30
0.000000
  70
    32
  0
VERTEX
  8
VISIBLE_NARROW__ISO_
  5
C5E
 10
20.7490
 20
-4.54409
 30
0.000000
  70
    32
  0
VERTEX
  8
VISIBLE_NARROW__ISO_
  5
C5F
 10
20.7530
 20
-4.54318
 30
0.000000
  70
    32
  0
VERTEX
  8
VISIBLE_NARROW__ISO_
  5
C60
 10
20.7570
 20
-4.54227
 30
0.000000
  70
    32
  0
VERTEX
  8
VISIBLE_NARROW__ISO_
  5
C61
 10
20.7610
 20
-4.54134
 30
0.000000
  70
    32
  0
VERTEX
  8
VISIBLE_NARROW__ISO_
  5
C62
 10
20.7650
 20
-4.54040
 30
0.000000
  70
    32
  0
VERTEX
  8
VISIBLE_NARROW__ISO_
  5
C63
 10
20.7690
 20
-4.53944
 30
0.000000
  70
    32
  0
VERTEX
  8
VISIBLE_NARROW__ISO_
  5
C64
 10
20.7730
 20
-4.53848
 30
0.000000
  70
    32
  0
VERTEX
  8
VISIBLE_NARROW__ISO_
  5
C65
 10
20.7769
 20
-4.53750
 30
0.000000
  70
    32
  0
VERTEX
  8
VISIBLE_NARROW__ISO_
  5
C66
 10
20.7809
 20
-4.53651
 30
0.000000
  70
    32
  0
VERTEX
  8
VISIBLE_NARROW__ISO_
  5
C67
 10
20.7849
 20
-4.53550
 30
0.000000
  70
    32
  0
VERTEX
  8
VISIBLE_NARROW__ISO_
  5
C68
 10
20.7889
 20
-4.53449
 30
0.000000
  70
    32
  0
VERTEX
  8
VISIBLE_NARROW__ISO_
  5
C69
 10
20.7928
 20
-4.53346
 30
0.000000
  70
    32
  0
VERTEX
  8
VISIBLE_NARROW__ISO_
  5
C6A
 10
20.7968
 20
-4.53242
 30
0.000000
  70
    32
  0
VERTEX
  8
VISIBLE_NARROW__ISO_
  5
C6B
 10
20.8008
 20
-4.53137
 30
0.000000
  70
    32
  0
VERTEX
  8
VISIBLE_NARROW__ISO_
  5
C6C
 10
20.8047
 20
-4.53031
 30
0.000000
  70
    32
  0
VERTEX
  8
VISIBLE_NARROW__ISO_
  5
C6D
 10
20.8087
 20
-4.52923
 30
0.000000
  70
    32
  0
VERTEX
  8
VISIBLE_NARROW__ISO_
  5
C6E
 10
20.8126
 20
-4.52814
 30
0.000000
  70
    32
  0
VERTEX
  8
VISIBLE_NARROW__ISO_
  5
C6F
 10
20.8166
 20
-4.52704
 30
0.000000
  70
    32
  0
VERTEX
  8
VISIBLE_NARROW__ISO_
  5
C70
 10
20.8205
 20
-4.52593
 30
0.000000
  70
    32
  0
VERTEX
  8
VISIBLE_NARROW__ISO_
  5
C71
 10
20.8245
 20
-4.52481
 30
0.000000
  70
    32
  0
VERTEX
  8
VISIBLE_NARROW__ISO_
  5
C72
 10
20.8284
 20
-4.52367
 30
0.000000
  70
    32
  0
VERTEX
  8
VISIBLE_NARROW__ISO_
  5
C73
 10
20.8324
 20
-4.52252
 30
0.000000
  70
    32
  0
VERTEX
  8
VISIBLE_NARROW__ISO_
  5
C74
 10
20.8363
 20
-4.52136
 30
0.000000
  70
    32
  0
VERTEX
  8
VISIBLE_NARROW__ISO_
  5
C75
 10
20.8402
 20
-4.52019
 30
0.000000
  70
    32
  0
VERTEX
  8
VISIBLE_NARROW__ISO_
  5
C76
 10
20.8441
 20
-4.51901
 30
0.000000
  70
    32
  0
VERTEX
  8
VISIBLE_NARROW__ISO_
  5
C77
 10
20.8481
 20
-4.51781
 30
0.000000
  70
    32
  0
VERTEX
  8
VISIBLE_NARROW__ISO_
  5
C78
 10
20.8520
 20
-4.51660
 30
0.000000
  70
    32
  0
VERTEX
  8
VISIBLE_NARROW__ISO_
  5
C79
 10
20.8559
 20
-4.51538
 30
0.000000
  70
    32
  0
VERTEX
  8
VISIBLE_NARROW__ISO_
  5
C7A
 10
20.8598
 20
-4.51415
 30
0.000000
  70
    32
  0
VERTEX
  8
VISIBLE_NARROW__ISO_
  5
C7B
 10
20.8637
 20
-4.51290
 30
0.000000
  70
    32
  0
VERTEX
  8
VISIBLE_NARROW__ISO_
  5
C7C
 10
20.8676
 20
-4.51165
 30
0.000000
  70
    32
  0
VERTEX
  8
VISIBLE_NARROW__ISO_
  5
C7D
 10
20.8715
 20
-4.51038
 30
0.000000
  70
    32
  0
VERTEX
  8
VISIBLE_NARROW__ISO_
  5
C7E
 10
20.8754
 20
-4.50910
 30
0.000000
  70
    32
  0
VERTEX
  8
VISIBLE_NARROW__ISO_
  5
C7F
 10
20.8793
 20
-4.50781
 30
0.000000
  70
    32
  0
VERTEX
  8
VISIBLE_NARROW__ISO_
  5
C80
 10
20.8832
 20
-4.50650
 30
0.000000
  70
    32
  0
VERTEX
  8
VISIBLE_NARROW__ISO_
  5
C81
 10
20.8871
 20
-4.50518
 30
0.000000
  70
    32
  0
VERTEX
  8
VISIBLE_NARROW__ISO_
  5
C82
 10
20.8910
 20
-4.50386
 30
0.000000
  70
    32
  0
VERTEX
  8
VISIBLE_NARROW__ISO_
  5
C83
 10
20.8948
 20
-4.50252
 30
0.000000
  70
    32
  0
VERTEX
  8
VISIBLE_NARROW__ISO_
  5
C84
 10
20.8987
 20
-4.50117
 30
0.000000
  70
    32
  0
VERTEX
  8
VISIBLE_NARROW__ISO_
  5
C85
 10
20.9026
 20
-4.49980
 30
0.000000
  70
    32
  0
VERTEX
  8
VISIBLE_NARROW__ISO_
  5
C86
 10
20.9064
 20
-4.49843
 30
0.000000
  70
    32
  0
VERTEX
  8
VISIBLE_NARROW__ISO_
  5
C87
 10
20.9103
 20
-4.49704
 30
0.000000
  70
    32
  0
VERTEX
  8
VISIBLE_NARROW__ISO_
  5
C88
 10
20.9141
 20
-4.49564
 30
0.000000
  70
    32
  0
VERTEX
  8
VISIBLE_NARROW__ISO_
  5
C89
 10
20.9180
 20
-4.49423
 30
0.000000
  70
    32
  0
VERTEX
  8
VISIBLE_NARROW__ISO_
  5
C8A
 10
20.9218
 20
-4.49280
 30
0.000000
  70
    32
  0
VERTEX
  8
VISIBLE_NARROW__ISO_
  5
C8B
 10
20.9257
 20
-4.49137
 30
0.000000
  70
    32
  0
VERTEX
  8
VISIBLE_NARROW__ISO_
  5
C8C
 10
20.9295
 20
-4.48992
 30
0.000000
  70
    32
  0
VERTEX
  8
VISIBLE_NARROW__ISO_
  5
C8D
 10
20.9334
 20
-4.48847
 30
0.000000
  70
    32
  0
VERTEX
  8
VISIBLE_NARROW__ISO_
  5
C8E
 10
20.9372
 20
-4.48700
 30
0.000000
  70
    32
  0
VERTEX
  8
VISIBLE_NARROW__ISO_
  5
C8F
 10
20.9410
 20
-4.48551
 30
0.000000
  70
    32
  0
VERTEX
  8
VISIBLE_NARROW__ISO_
  5
C90
 10
20.9448
 20
-4.48402
 30
0.000000
  70
    32
  0
VERTEX
  8
VISIBLE_NARROW__ISO_
  5
C91
 10
20.9486
 20
-4.48251
 30
0.000000
  70
    32
  0
VERTEX
  8
VISIBLE_NARROW__ISO_
  5
C92
 10
20.9524
 20
-4.48100
 30
0.000000
  70
    32
  0
VERTEX
  8
VISIBLE_NARROW__ISO_
  5
C93
 10
20.9563
 20
-4.47947
 30
0.000000
  70
    32
  0
VERTEX
  8
VISIBLE_NARROW__ISO_
  5
C94
 10
20.9601
 20
-4.47793
 30
0.000000
  70
    32
  0
VERTEX
  8
VISIBLE_NARROW__ISO_
  5
C95
 10
20.9638
 20
-4.47638
 30
0.000000
  70
    32
  0
VERTEX
  8
VISIBLE_NARROW__ISO_
  5
C96
 10
20.9676
 20
-4.47481
 30
0.000000
  70
    32
  0
VERTEX
  8
VISIBLE_NARROW__ISO_
  5
C97
 10
20.9714
 20
-4.47324
 30
0.000000
  70
    32
  0
VERTEX
  8
VISIBLE_NARROW__ISO_
  5
C98
 10
20.9752
 20
-4.47165
 30
0.000000
  70
    32
  0
VERTEX
  8
VISIBLE_NARROW__ISO_
  5
C99
 10
20.9790
 20
-4.47005
 30
0.000000
  70
    32
  0
VERTEX
  8
VISIBLE_NARROW__ISO_
  5
C9A
 10
20.9828
 20
-4.46844
 30
0.000000
  70
    32
  0
VERTEX
  8
VISIBLE_NARROW__ISO_
  5
C9B
 10
20.9865
 20
-4.46682
 30
0.000000
  70
    32
  0
VERTEX
  8
VISIBLE_NARROW__ISO_
  5
C9C
 10
20.9903
 20
-4.46518
 30
0.000000
  70
    32
  0
VERTEX
  8
VISIBLE_NARROW__ISO_
  5
C9D
 10
20.9940
 20
-4.46354
 30
0.000000
  70
    32
  0
VERTEX
  8
VISIBLE_NARROW__ISO_
  5
C9E
 10
20.9978
 20
-4.46188
 30
0.000000
  70
    32
  0
VERTEX
  8
VISIBLE_NARROW__ISO_
  5
C9F
 10
21.0015
 20
-4.46021
 30
0.000000
  70
    32
  0
VERTEX
  8
VISIBLE_NARROW__ISO_
  5
CA0
 10
21.0053
 20
-4.45853
 30
0.000000
  70
    32
  0
VERTEX
  8
VISIBLE_NARROW__ISO_
  5
CA1
 10
21.0090
 20
-4.45684
 30
0.000000
  70
    32
  0
VERTEX
  8
VISIBLE_NARROW__ISO_
  5
CA2
 10
21.0127
 20
-4.45514
 30
0.000000
  70
    32
  0
VERTEX
  8
VISIBLE_NARROW__ISO_
  5
CA3
 10
21.0165
 20
-4.45342
 30
0.000000
  70
    32
  0
VERTEX
  8
VISIBLE_NARROW__ISO_
  5
CA4
 10
21.0202
 20
-4.45170
 30
0.000000
  70
    32
  0
VERTEX
  8
VISIBLE_NARROW__ISO_
  5
CA5
 10
21.0239
 20
-4.44996
 30
0.000000
  70
    32
  0
VERTEX
  8
VISIBLE_NARROW__ISO_
  5
CA6
 10
21.0276
 20
-4.44821
 30
0.000000
  70
    32
  0
VERTEX
  8
VISIBLE_NARROW__ISO_
  5
CA7
 10
21.0313
 20
-4.44645
 30
0.000000
  70
    32
  0
VERTEX
  8
VISIBLE_NARROW__ISO_
  5
CA8
 10
21.0350
 20
-4.44468
 30
0.000000
  70
    32
  0
VERTEX
  8
VISIBLE_NARROW__ISO_
  5
CA9
 10
21.0387
 20
-4.44290
 30
0.000000
  70
    32
  0
VERTEX
  8
VISIBLE_NARROW__ISO_
  5
CAA
 10
21.0424
 20
-4.44110
 30
0.000000
  70
    32
  0
VERTEX
  8
VISIBLE_NARROW__ISO_
  5
CAB
 10
21.0461
 20
-4.43929
 30
0.000000
  70
    32
  0
VERTEX
  8
VISIBLE_NARROW__ISO_
  5
CAC
 10
21.0497
 20
-4.43748
 30
0.000000
  70
    32
  0
VERTEX
  8
VISIBLE_NARROW__ISO_
  5
CAD
 10
21.0534
 20
-4.43565
 30
0.000000
  70
    32
  0
VERTEX
  8
VISIBLE_NARROW__ISO_
  5
CAE
 10
21.0571
 20
-4.43381
 30
0.000000
  70
    32
  0
VERTEX
  8
VISIBLE_NARROW__ISO_
  5
CAF
 10
21.0607
 20
-4.43196
 30
0.000000
  70
    32
  0
VERTEX
  8
VISIBLE_NARROW__ISO_
  5
CB0
 10
21.0644
 20
-4.43009
 30
0.000000
  70
    32
  0
VERTEX
  8
VISIBLE_NARROW__ISO_
  5
CB1
 10
21.0680
 20
-4.42822
 30
0.000000
  70
    32
  0
VERTEX
  8
VISIBLE_NARROW__ISO_
  5
CB2
 10
21.0717
 20
-4.42633
 30
0.000000
  70
    32
  0
VERTEX
  8
VISIBLE_NARROW__ISO_
  5
CB3
 10
21.0753
 20
-4.42444
 30
0.000000
  70
    32
  0
VERTEX
  8
VISIBLE_NARROW__ISO_
  5
CB4
 10
21.0789
 20
-4.42253
 30
0.000000
  70
    32
  0
VERTEX
  8
VISIBLE_NARROW__ISO_
  5
CB5
 10
21.0826
 20
-4.42061
 30
0.000000
  70
    32
  0
VERTEX
  8
VISIBLE_NARROW__ISO_
  5
CB6
 10
21.0862
 20
-4.41868
 30
0.000000
  70
    32
  0
VERTEX
  8
VISIBLE_NARROW__ISO_
  5
CB7
 10
21.0898
 20
-4.41674
 30
0.000000
  70
    32
  0
VERTEX
  8
VISIBLE_NARROW__ISO_
  5
CB8
 10
21.0934
 20
-4.41479
 30
0.000000
  70
    32
  0
VERTEX
  8
VISIBLE_NARROW__ISO_
  5
CB9
 10
21.0970
 20
-4.41282
 30
0.000000
  70
    32
  0
VERTEX
  8
VISIBLE_NARROW__ISO_
  5
CBA
 10
21.1006
 20
-4.41085
 30
0.000000
  70
    32
  0
VERTEX
  8
VISIBLE_NARROW__ISO_
  5
CBB
 10
21.1042
 20
-4.40886
 30
0.000000
  70
    32
  0
VERTEX
  8
VISIBLE_NARROW__ISO_
  5
CBC
 10
21.1078
 20
-4.40687
 30
0.000000
  70
    32
  0
VERTEX
  8
VISIBLE_NARROW__ISO_
  5
CBD
 10
21.1113
 20
-4.40486
 30
0.000000
  70
    32
  0
VERTEX
  8
VISIBLE_NARROW__ISO_
  5
CBE
 10
21.1149
 20
-4.40284
 30
0.000000
  70
    32
  0
VERTEX
  8
VISIBLE_NARROW__ISO_
  5
CBF
 10
21.1185
 20
-4.40081
 30
0.000000
  70
    32
  0
VERTEX
  8
VISIBLE_NARROW__ISO_
  5
CC0
 10
21.1220
 20
-4.39877
 30
0.000000
  70
    32
  0
VERTEX
  8
VISIBLE_NARROW__ISO_
  5
CC1
 10
21.1256
 20
-4.39672
 30
0.000000
  70
    32
  0
VERTEX
  8
VISIBLE_NARROW__ISO_
  5
CC2
 10
21.1291
 20
-4.39466
 30
0.000000
  70
    32
  0
VERTEX
  8
VISIBLE_NARROW__ISO_
  5
CC3
 10
21.1327
 20
-4.39258
 30
0.000000
  70
    32
  0
VERTEX
  8
VISIBLE_NARROW__ISO_
  5
CC4
 10
21.1362
 20
-4.39050
 30
0.000000
  70
    32
  0
VERTEX
  8
VISIBLE_NARROW__ISO_
  5
CC5
 10
21.1397
 20
-4.38840
 30
0.000000
  70
    32
  0
VERTEX
  8
VISIBLE_NARROW__ISO_
  5
CC6
 10
21.1432
 20
-4.38630
 30
0.000000
  70
    32
  0
VERTEX
  8
VISIBLE_NARROW__ISO_
  5
CC7
 10
21.1468
 20
-4.38418
 30
0.000000
  70
    32
  0
VERTEX
  8
VISIBLE_NARROW__ISO_
  5
CC8
 10
21.1503
 20
-4.38205
 30
0.000000
  70
    32
  0
VERTEX
  8
VISIBLE_NARROW__ISO_
  5
CC9
 10
21.1538
 20
-4.37992
 30
0.000000
  70
    32
  0
VERTEX
  8
VISIBLE_NARROW__ISO_
  5
CCA
 10
21.1573
 20
-4.37777
 30
0.000000
  70
    32
  0
VERTEX
  8
VISIBLE_NARROW__ISO_
  5
CCB
 10
21.1607
 20
-4.37561
 30
0.000000
  70
    32
  0
VERTEX
  8
VISIBLE_NARROW__ISO_
  5
CCC
 10
21.1642
 20
-4.37344
 30
0.000000
  70
    32
  0
VERTEX
  8
VISIBLE_NARROW__ISO_
  5
CCD
 10
21.1677
 20
-4.37126
 30
0.000000
  70
    32
  0
VERTEX
  8
VISIBLE_NARROW__ISO_
  5
CCE
 10
21.1712
 20
-4.36907
 30
0.000000
  70
    32
  0
VERTEX
  8
VISIBLE_NARROW__ISO_
  5
CCF
 10
21.1746
 20
-4.36686
 30
0.000000
  70
    32
  0
VERTEX
  8
VISIBLE_NARROW__ISO_
  5
CD0
 10
21.1781
 20
-4.36465
 30
0.000000
  70
    32
  0
VERTEX
  8
VISIBLE_NARROW__ISO_
  5
CD1
 10
21.1815
 20
-4.36243
 30
0.000000
  70
    32
  0
VERTEX
  8
VISIBLE_NARROW__ISO_
  5
CD2
 10
21.1850
 20
-4.36019
 30
0.000000
  70
    32
  0
VERTEX
  8
VISIBLE_NARROW__ISO_
  5
CD3
 10
21.1884
 20
-4.35795
 30
0.000000
  70
    32
  0
VERTEX
  8
VISIBLE_NARROW__ISO_
  5
CD4
 10
21.1918
 20
-4.35569
 30
0.000000
  70
    32
  0
VERTEX
  8
VISIBLE_NARROW__ISO_
  5
CD5
 10
21.1952
 20
-4.35343
 30
0.000000
  70
    32
  0
VERTEX
  8
VISIBLE_NARROW__ISO_
  5
CD6
 10
21.1987
 20
-4.35115
 30
0.000000
  70
    32
  0
VERTEX
  8
VISIBLE_NARROW__ISO_
  5
CD7
 10
21.2021
 20
-4.34887
 30
0.000000
  70
    32
  0
VERTEX
  8
VISIBLE_NARROW__ISO_
  5
CD8
 10
21.2055
 20
-4.34657
 30
0.000000
  70
    32
  0
VERTEX
  8
VISIBLE_NARROW__ISO_
  5
CD9
 10
21.2088
 20
-4.34426
 30
0.000000
  70
    32
  0
VERTEX
  8
VISIBLE_NARROW__ISO_
  5
CDA
 10
21.2122
 20
-4.34195
 30
0.000000
  70
    32
  0
VERTEX
  8
VISIBLE_NARROW__ISO_
  5
CDB
 10
21.2156
 20
-4.33962
 30
0.000000
  70
    32
  0
VERTEX
  8
VISIBLE_NARROW__ISO_
  5
CDC
 10
21.2190
 20
-4.33728
 30
0.000000
  70
    32
  0
VERTEX
  8
VISIBLE_NARROW__ISO_
  5
CDD
 10
21.2223
 20
-4.33493
 30
0.000000
  70
    32
  0
VERTEX
  8
VISIBLE_NARROW__ISO_
  5
CDE
 10
21.2257
 20
-4.33257
 30
0.000000
  70
    32
  0
VERTEX
  8
VISIBLE_NARROW__ISO_
  5
CDF
 10
21.2290
 20
-4.33020
 30
0.000000
  70
    32
  0
VERTEX
  8
VISIBLE_NARROW__ISO_
  5
CE0
 10
21.2324
 20
-4.32782
 30
0.000000
  70
    32
  0
VERTEX
  8
VISIBLE_NARROW__ISO_
  5
CE1
 10
21.2357
 20
-4.32543
 30
0.000000
  70
    32
  0
VERTEX
  8
VISIBLE_NARROW__ISO_
  5
CE2
 10
21.2390
 20
-4.32303
 30
0.000000
  70
    32
  0
VERTEX
  8
VISIBLE_NARROW__ISO_
  5
CE3
 10
21.2424
 20
-4.32062
 30
0.000000
  70
    32
  0
VERTEX
  8
VISIBLE_NARROW__ISO_
  5
CE4
 10
21.2457
 20
-4.31820
 30
0.000000
  70
    32
  0
VERTEX
  8
VISIBLE_NARROW__ISO_
  5
CE5
 10
21.2490
 20
-4.31577
 30
0.000000
  70
    32
  0
VERTEX
  8
VISIBLE_NARROW__ISO_
  5
CE6
 10
21.2523
 20
-4.31333
 30
0.000000
  70
    32
  0
VERTEX
  8
VISIBLE_NARROW__ISO_
  5
CE7
 10
21.2555
 20
-4.31088
 30
0.000000
  70
    32
  0
VERTEX
  8
VISIBLE_NARROW__ISO_
  5
CE8
 10
21.2588
 20
-4.30842
 30
0.000000
  70
    32
  0
VERTEX
  8
VISIBLE_NARROW__ISO_
  5
CE9
 10
21.2621
 20
-4.30595
 30
0.000000
  70
    32
  0
VERTEX
  8
VISIBLE_NARROW__ISO_
  5
CEA
 10
21.2654
 20
-4.30347
 30
0.000000
  70
    32
  0
VERTEX
  8
VISIBLE_NARROW__ISO_
  5
CEB
 10
21.2686
 20
-4.30098
 30
0.000000
  70
    32
  0
VERTEX
  8
VISIBLE_NARROW__ISO_
  5
CEC
 10
21.2719
 20
-4.29847
 30
0.000000
  70
    32
  0
VERTEX
  8
VISIBLE_NARROW__ISO_
  5
CED
 10
21.2751
 20
-4.29596
 30
0.000000
  70
    32
  0
VERTEX
  8
VISIBLE_NARROW__ISO_
  5
CEE
 10
21.2784
 20
-4.29344
 30
0.000000
  70
    32
  0
VERTEX
  8
VISIBLE_NARROW__ISO_
  5
CEF
 10
21.2816
 20
-4.29091
 30
0.000000
  70
    32
  0
VERTEX
  8
VISIBLE_NARROW__ISO_
  5
CF0
 10
21.2848
 20
-4.28837
 30
0.000000
  70
    32
  0
VERTEX
  8
VISIBLE_NARROW__ISO_
  5
CF1
 10
21.2880
 20
-4.28582
 30
0.000000
  70
    32
  0
VERTEX
  8
VISIBLE_NARROW__ISO_
  5
CF2
 10
21.2912
 20
-4.28326
 30
0.000000
  70
    32
  0
VERTEX
  8
VISIBLE_NARROW__ISO_
  5
CF3
 10
21.2944
 20
-4.28069
 30
0.000000
  70
    32
  0
VERTEX
  8
VISIBLE_NARROW__ISO_
  5
CF4
 10
21.2976
 20
-4.27811
 30
0.000000
  70
    32
  0
VERTEX
  8
VISIBLE_NARROW__ISO_
  5
CF5
 10
21.3008
 20
-4.27552
 30
0.000000
  70
    32
  0
VERTEX
  8
VISIBLE_NARROW__ISO_
  5
CF6
 10
21.3039
 20
-4.27292
 30
0.000000
  70
    32
  0
VERTEX
  8
VISIBLE_NARROW__ISO_
  5
CF7
 10
21.3071
 20
-4.27031
 30
0.000000
  70
    32
  0
VERTEX
  8
VISIBLE_NARROW__ISO_
  5
CF8
 10
21.3103
 20
-4.26769
 30
0.000000
  70
    32
  0
VERTEX
  8
VISIBLE_NARROW__ISO_
  5
CF9
 10
21.3134
 20
-4.26506
 30
0.000000
  70
    32
  0
VERTEX
  8
VISIBLE_NARROW__ISO_
  5
CFA
 10
21.3166
 20
-4.26242
 30
0.000000
  70
    32
  0
VERTEX
  8
VISIBLE_NARROW__ISO_
  5
CFB
 10
21.3197
 20
-4.25977
 30
0.000000
  70
    32
  0
VERTEX
  8
VISIBLE_NARROW__ISO_
  5
CFC
 10
21.3228
 20
-4.25711
 30
0.000000
  70
    32
  0
VERTEX
  8
VISIBLE_NARROW__ISO_
  5
CFD
 10
21.3259
 20
-4.25444
 30
0.000000
  70
    32
  0
VERTEX
  8
VISIBLE_NARROW__ISO_
  5
CFE
 10
21.3290
 20
-4.25176
 30
0.000000
  70
    32
  0
VERTEX
  8
VISIBLE_NARROW__ISO_
  5
CFF
 10
21.3321
 20
-4.24908
 30
0.000000
  70
    32
  0
VERTEX
  8
VISIBLE_NARROW__ISO_
  5
D00
 10
21.3352
 20
-4.24638
 30
0.000000
  70
    32
  0
VERTEX
  8
VISIBLE_NARROW__ISO_
  5
D01
 10
21.3383
 20
-4.24367
 30
0.000000
  70
    32
  0
VERTEX
  8
VISIBLE_NARROW__ISO_
  5
D02
 10
21.3414
 20
-4.24096
 30
0.000000
  70
    32
  0
VERTEX
  8
VISIBLE_NARROW__ISO_
  5
D03
 10
21.3444
 20
-4.23823
 30
0.000000
  70
    32
  0
VERTEX
  8
VISIBLE_NARROW__ISO_
  5
D04
 10
21.3475
 20
-4.23550
 30
0.000000
  70
    32
  0
VERTEX
  8
VISIBLE_NARROW__ISO_
  5
D05
 10
21.3505
 20
-4.23275
 30
0.000000
  70
    32
  0
VERTEX
  8
VISIBLE_NARROW__ISO_
  5
D06
 10
21.3536
 20
-4.23000
 30
0.000000
  70
    32
  0
VERTEX
  8
VISIBLE_NARROW__ISO_
  5
D07
 10
21.3566
 20
-4.22723
 30
0.000000
  70
    32
  0
VERTEX
  8
VISIBLE_NARROW__ISO_
  5
D08
 10
21.3596
 20
-4.22446
 30
0.000000
  70
    32
  0
VERTEX
  8
VISIBLE_NARROW__ISO_
  5
D09
 10
21.3626
 20
-4.22168
 30
0.000000
  70
    32
  0
VERTEX
  8
VISIBLE_NARROW__ISO_
  5
D0A
 10
21.3656
 20
-4.21889
 30
0.000000
  70
    32
  0
VERTEX
  8
VISIBLE_NARROW__ISO_
  5
D0B
 10
21.3686
 20
-4.21609
 30
0.000000
  70
    32
  0
VERTEX
  8
VISIBLE_NARROW__ISO_
  5
D0C
 10
21.3716
 20
-4.21328
 30
0.000000
  70
    32
  0
VERTEX
  8
VISIBLE_NARROW__ISO_
  5
D0D
 10
21.3746
 20
-4.21046
 30
0.000000
  70
    32
  0
VERTEX
  8
VISIBLE_NARROW__ISO_
  5
D0E
 10
21.3776
 20
-4.20763
 30
0.000000
  70
    32
  0
VERTEX
  8
VISIBLE_NARROW__ISO_
  5
D0F
 10
21.3805
 20
-4.20479
 30
0.000000
  70
    32
  0
VERTEX
  8
VISIBLE_NARROW__ISO_
  5
D10
 10
21.3835
 20
-4.20195
 30
0.000000
  70
    32
  0
VERTEX
  8
VISIBLE_NARROW__ISO_
  5
D11
 10
21.3864
 20
-4.19909
 30
0.000000
  70
    32
  0
VERTEX
  8
VISIBLE_NARROW__ISO_
  5
D12
 10
21.3894
 20
-4.19623
 30
0.000000
  70
    32
  0
VERTEX
  8
VISIBLE_NARROW__ISO_
  5
D13
 10
21.3923
 20
-4.19335
 30
0.000000
  70
    32
  0
VERTEX
  8
VISIBLE_NARROW__ISO_
  5
D14
 10
21.3952
 20
-4.19047
 30
0.000000
  70
    32
  0
VERTEX
  8
VISIBLE_NARROW__ISO_
  5
D15
 10
21.3981
 20
-4.18758
 30
0.000000
  70
    32
  0
VERTEX
  8
VISIBLE_NARROW__ISO_
  5
D16
 10
21.4010
 20
-4.18468
 30
0.000000
  70
    32
  0
VERTEX
  8
VISIBLE_NARROW__ISO_
  5
D17
 10
21.4039
 20
-4.18177
 30
0.000000
  70
    32
  0
VERTEX
  8
VISIBLE_NARROW__ISO_
  5
D18
 10
21.4068
 20
-4.17885
 30
0.000000
  70
    32
  0
VERTEX
  8
VISIBLE_NARROW__ISO_
  5
D19
 10
21.4097
 20
-4.17593
 30
0.000000
  70
    32
  0
VERTEX
  8
VISIBLE_NARROW__ISO_
  5
D1A
 10
21.4125
 20
-4.17299
 30
0.000000
  70
    32
  0
VERTEX
  8
VISIBLE_NARROW__ISO_
  5
D1B
 10
21.4154
 20
-4.17004
 30
0.000000
  70
    32
  0
VERTEX
  8
VISIBLE_NARROW__ISO_
  5
D1C
 10
21.4182
 20
-4.16709
 30
0.000000
  70
    32
  0
VERTEX
  8
VISIBLE_NARROW__ISO_
  5
D1D
 10
21.4211
 20
-4.16413
 30
0.000000
  70
    32
  0
VERTEX
  8
VISIBLE_NARROW__ISO_
  5
D1E
 10
21.4239
 20
-4.16116
 30
0.000000
  70
    32
  0
VERTEX
  8
VISIBLE_NARROW__ISO_
  5
D1F
 10
21.4267
 20
-4.15818
 30
0.000000
  70
    32
  0
VERTEX
  8
VISIBLE_NARROW__ISO_
  5
D20
 10
21.4295
 20
-4.15519
 30
0.000000
  70
    32
  0
VERTEX
  8
VISIBLE_NARROW__ISO_
  5
D21
 10
21.4323
 20
-4.15219
 30
0.000000
  70
    32
  0
VERTEX
  8
VISIBLE_NARROW__ISO_
  5
D22
 10
21.4351
 20
-4.14919
 30
0.000000
  70
    32
  0
VERTEX
  8
VISIBLE_NARROW__ISO_
  5
D23
 10
21.4379
 20
-4.14618
 30
0.000000
  70
    32
  0
VERTEX
  8
VISIBLE_NARROW__ISO_
  5
D24
 10
21.4407
 20
-4.14315
 30
0.000000
  70
    32
  0
VERTEX
  8
VISIBLE_NARROW__ISO_
  5
D25
 10
21.4434
 20
-4.14012
 30
0.000000
  70
    32
  0
VERTEX
  8
VISIBLE_NARROW__ISO_
  5
D26
 10
21.4462
 20
-4.13708
 30
0.000000
  70
    32
  0
VERTEX
  8
VISIBLE_NARROW__ISO_
  5
D27
 10
21.4489
 20
-4.13404
 30
0.000000
  70
    32
  0
VERTEX
  8
VISIBLE_NARROW__ISO_
  5
D28
 10
21.4517
 20
-4.13098
 30
0.000000
  70
    32
  0
VERTEX
  8
VISIBLE_NARROW__ISO_
  5
D29
 10
21.4544
 20
-4.12791
 30
0.000000
  70
    32
  0
VERTEX
  8
VISIBLE_NARROW__ISO_
  5
D2A
 10
21.4571
 20
-4.12484
 30
0.000000
  70
    32
  0
VERTEX
  8
VISIBLE_NARROW__ISO_
  5
D2B
 10
21.4598
 20
-4.12176
 30
0.000000
  70
    32
  0
VERTEX
  8
VISIBLE_NARROW__ISO_
  5
D2C
 10
21.4625
 20
-4.11867
 30
0.000000
  70
    32
  0
VERTEX
  8
VISIBLE_NARROW__ISO_
  5
D2D
 10
21.4652
 20
-4.11557
 30
0.000000
  70
    32
  0
VERTEX
  8
VISIBLE_NARROW__ISO_
  5
D2E
 10
21.4679
 20
-4.11247
 30
0.000000
  70
    32
  0
VERTEX
  8
VISIBLE_NARROW__ISO_
  5
D2F
 10
21.4705
 20
-4.10935
 30
0.000000
  70
    32
  0
VERTEX
  8
VISIBLE_NARROW__ISO_
  5
D30
 10
21.4732
 20
-4.10623
 30
0.000000
  70
    32
  0
VERTEX
  8
VISIBLE_NARROW__ISO_
  5
D31
 10
21.4758
 20
-4.10310
 30
0.000000
  70
    32
  0
VERTEX
  8
VISIBLE_NARROW__ISO_
  5
D32
 10
21.4785
 20
-4.09996
 30
0.000000
  70
    32
  0
VERTEX
  8
VISIBLE_NARROW__ISO_
  5
D33
 10
21.4811
 20
-4.09681
 30
0.000000
  70
    32
  0
VERTEX
  8
VISIBLE_NARROW__ISO_
  5
D34
 10
21.4837
 20
-4.09366
 30
0.000000
  70
    32
  0
VERTEX
  8
VISIBLE_NARROW__ISO_
  5
D35
 10
21.4863
 20
-4.09050
 30
0.000000
  70
    32
  0
VERTEX
  8
VISIBLE_NARROW__ISO_
  5
D36
 10
21.4889
 20
-4.08733
 30
0.000000
  70
    32
  0
VERTEX
  8
VISIBLE_NARROW__ISO_
  5
D37
 10
21.4915
 20
-4.08415
 30
0.000000
  70
    32
  0
VERTEX
  8
VISIBLE_NARROW__ISO_
  5
D38
 10
21.4941
 20
-4.08096
 30
0.000000
  70
    32
  0
VERTEX
  8
VISIBLE_NARROW__ISO_
  5
D39
 10
21.4967
 20
-4.07777
 30
0.000000
  70
    32
  0
VERTEX
  8
VISIBLE_NARROW__ISO_
  5
D3A
 10
21.4992
 20
-4.07456
 30
0.000000
  70
    32
  0
VERTEX
  8
VISIBLE_NARROW__ISO_
  5
D3B
 10
21.5018
 20
-4.07135
 30
0.000000
  70
    32
  0
VERTEX
  8
VISIBLE_NARROW__ISO_
  5
D3C
 10
21.5043
 20
-4.06814
 30
0.000000
  70
    32
  0
VERTEX
  8
VISIBLE_NARROW__ISO_
  5
D3D
 10
21.5069
 20
-4.06491
 30
0.000000
  70
    32
  0
VERTEX
  8
VISIBLE_NARROW__ISO_
  5
D3E
 10
21.5094
 20
-4.06168
 30
0.000000
  70
    32
  0
VERTEX
  8
VISIBLE_NARROW__ISO_
  5
D3F
 10
21.5119
 20
-4.05843
 30
0.000000
  70
    32
  0
VERTEX
  8
VISIBLE_NARROW__ISO_
  5
D40
 10
21.5144
 20
-4.05518
 30
0.000000
  70
    32
  0
VERTEX
  8
VISIBLE_NARROW__ISO_
  5
D41
 10
21.5169
 20
-4.05193
 30
0.000000
  70
    32
  0
VERTEX
  8
VISIBLE_NARROW__ISO_
  5
D42
 10
21.5194
 20
-4.04866
 30
0.000000
  70
    32
  0
VERTEX
  8
VISIBLE_NARROW__ISO_
  5
D43
 10
21.5219
 20
-4.04539
 30
0.000000
  70
    32
  0
VERTEX
  8
VISIBLE_NARROW__ISO_
  5
D44
 10
21.5243
 20
-4.04211
 30
0.000000
  70
    32
  0
VERTEX
  8
VISIBLE_NARROW__ISO_
  5
D45
 10
21.5268
 20
-4.03882
 30
0.000000
  70
    32
  0
VERTEX
  8
VISIBLE_NARROW__ISO_
  5
D46
 10
21.5292
 20
-4.03553
 30
0.000000
  70
    32
  0
VERTEX
  8
VISIBLE_NARROW__ISO_
  5
D47
 10
21.5316
 20
-4.03223
 30
0.000000
  70
    32
  0
VERTEX
  8
VISIBLE_NARROW__ISO_
  5
D48
 10
21.5341
 20
-4.02892
 30
0.000000
  70
    32
  0
VERTEX
  8
VISIBLE_NARROW__ISO_
  5
D49
 10
21.5365
 20
-4.02560
 30
0.000000
  70
    32
  0
VERTEX
  8
VISIBLE_NARROW__ISO_
  5
D4A
 10
21.5389
 20
-4.02228
 30
0.000000
  70
    32
  0
VERTEX
  8
VISIBLE_NARROW__ISO_
  5
D4B
 10
21.5413
 20
-4.01894
 30
0.000000
  70
    32
  0
VERTEX
  8
VISIBLE_NARROW__ISO_
  5
D4C
 10
21.5437
 20
-4.01560
 30
0.000000
  70
    32
  0
VERTEX
  8
VISIBLE_NARROW__ISO_
  5
D4D
 10
21.5460
 20
-4.01226
 30
0.000000
  70
    32
  0
VERTEX
  8
VISIBLE_NARROW__ISO_
  5
D4E
 10
21.5484
 20
-4.00890
 30
0.000000
  70
    32
  0
VERTEX
  8
VISIBLE_NARROW__ISO_
  5
D4F
 10
21.5507
 20
-4.00554
 30
0.000000
  70
    32
  0
VERTEX
  8
VISIBLE_NARROW__ISO_
  5
D50
 10
21.5531
 20
-4.00217
 30
0.000000
  70
    32
  0
VERTEX
  8
VISIBLE_NARROW__ISO_
  5
D51
 10
21.5554
 20
-3.99880
 30
0.000000
  70
    32
  0
VERTEX
  8
VISIBLE_NARROW__ISO_
  5
D52
 10
21.5577
 20
-3.99542
 30
0.000000
  70
    32
  0
VERTEX
  8
VISIBLE_NARROW__ISO_
  5
D53
 10
21.5600
 20
-3.99202
 30
0.000000
  70
    32
  0
VERTEX
  8
VISIBLE_NARROW__ISO_
  5
D54
 10
21.5623
 20
-3.98863
 30
0.000000
  70
    32
  0
VERTEX
  8
VISIBLE_NARROW__ISO_
  5
D55
 10
21.5646
 20
-3.98522
 30
0.000000
  70
    32
  0
VERTEX
  8
VISIBLE_NARROW__ISO_
  5
D56
 10
21.5669
 20
-3.98181
 30
0.000000
  70
    32
  0
VERTEX
  8
VISIBLE_NARROW__ISO_
  5
D57
 10
21.5691
 20
-3.97839
 30
0.000000
  70
    32
  0
VERTEX
  8
VISIBLE_NARROW__ISO_
  5
D58
 10
21.5714
 20
-3.97497
 30
0.000000
  70
    32
  0
VERTEX
  8
VISIBLE_NARROW__ISO_
  5
D59
 10
21.5736
 20
-3.97154
 30
0.000000
  70
    32
  0
VERTEX
  8
VISIBLE_NARROW__ISO_
  5
D5A
 10
21.5759
 20
-3.96810
 30
0.000000
  70
    32
  0
VERTEX
  8
VISIBLE_NARROW__ISO_
  5
D5B
 10
21.5781
 20
-3.96465
 30
0.000000
  70
    32
  0
VERTEX
  8
VISIBLE_NARROW__ISO_
  5
D5C
 10
21.5803
 20
-3.96120
 30
0.000000
  70
    32
  0
VERTEX
  8
VISIBLE_NARROW__ISO_
  5
D5D
 10
21.5825
 20
-3.95774
 30
0.000000
  70
    32
  0
VERTEX
  8
VISIBLE_NARROW__ISO_
  5
D5E
 10
21.5847
 20
-3.95427
 30
0.000000
  70
    32
  0
VERTEX
  8
VISIBLE_NARROW__ISO_
  5
D5F
 10
21.5869
 20
-3.95080
 30
0.000000
  70
    32
  0
VERTEX
  8
VISIBLE_NARROW__ISO_
  5
D60
 10
21.5891
 20
-3.94732
 30
0.000000
  70
    32
  0
VERTEX
  8
VISIBLE_NARROW__ISO_
  5
D61
 10
21.5912
 20
-3.94383
 30
0.000000
  70
    32
  0
VERTEX
  8
VISIBLE_NARROW__ISO_
  5
D62
 10
21.5934
 20
-3.94034
 30
0.000000
  70
    32
  0
VERTEX
  8
VISIBLE_NARROW__ISO_
  5
D63
 10
21.5955
 20
-3.93684
 30
0.000000
  70
    32
  0
VERTEX
  8
VISIBLE_NARROW__ISO_
  5
D64
 10
21.5976
 20
-3.93333
 30
0.000000
  70
    32
  0
VERTEX
  8
VISIBLE_NARROW__ISO_
  5
D65
 10
21.5997
 20
-3.92982
 30
0.000000
  70
    32
  0
VERTEX
  8
VISIBLE_NARROW__ISO_
  5
D66
 10
21.6019
 20
-3.92630
 30
0.000000
  70
    32
  0
VERTEX
  8
VISIBLE_NARROW__ISO_
  5
D67
 10
21.6039
 20
-3.92277
 30
0.000000
  70
    32
  0
VERTEX
  8
VISIBLE_NARROW__ISO_
  5
D68
 10
21.6060
 20
-3.91924
 30
0.000000
  70
    32
  0
VERTEX
  8
VISIBLE_NARROW__ISO_
  5
D69
 10
21.6081
 20
-3.91570
 30
0.000000
  70
    32
  0
VERTEX
  8
VISIBLE_NARROW__ISO_
  5
D6A
 10
21.6102
 20
-3.91216
 30
0.000000
  70
    32
  0
VERTEX
  8
VISIBLE_NARROW__ISO_
  5
D6B
 10
21.6122
 20
-3.90860
 30
0.000000
  70
    32
  0
VERTEX
  8
VISIBLE_NARROW__ISO_
  5
D6C
 10
21.6143
 20
-3.90505
 30
0.000000
  70
    32
  0
VERTEX
  8
VISIBLE_NARROW__ISO_
  5
D6D
 10
21.6163
 20
-3.90148
 30
0.000000
  70
    32
  0
VERTEX
  8
VISIBLE_NARROW__ISO_
  5
D6E
 10
21.6183
 20
-3.89791
 30
0.000000
  70
    32
  0
VERTEX
  8
VISIBLE_NARROW__ISO_
  5
D6F
 10
21.6203
 20
-3.89434
 30
0.000000
  70
    32
  0
VERTEX
  8
VISIBLE_NARROW__ISO_
  5
D70
 10
21.6223
 20
-3.89075
 30
0.000000
  70
    32
  0
VERTEX
  8
VISIBLE_NARROW__ISO_
  5
D71
 10
21.6243
 20
-3.88716
 30
0.000000
  70
    32
  0
VERTEX
  8
VISIBLE_NARROW__ISO_
  5
D72
 10
21.6263
 20
-3.88357
 30
0.000000
  70
    32
  0
VERTEX
  8
VISIBLE_NARROW__ISO_
  5
D73
 10
21.6282
 20
-3.87997
 30
0.000000
  70
    32
  0
VERTEX
  8
VISIBLE_NARROW__ISO_
  5
D74
 10
21.6302
 20
-3.87636
 30
0.000000
  70
    32
  0
VERTEX
  8
VISIBLE_NARROW__ISO_
  5
D75
 10
21.6321
 20
-3.87275
 30
0.000000
  70
    32
  0
VERTEX
  8
VISIBLE_NARROW__ISO_
  5
D76
 10
21.6340
 20
-3.86913
 30
0.000000
  70
    32
  0
VERTEX
  8
VISIBLE_NARROW__ISO_
  5
D77
 10
21.6360
 20
-3.86551
 30
0.000000
  70
    32
  0
VERTEX
  8
VISIBLE_NARROW__ISO_
  5
D78
 10
21.6379
 20
-3.86188
 30
0.000000
  70
    32
  0
VERTEX
  8
VISIBLE_NARROW__ISO_
  5
D79
 10
21.6398
 20
-3.85824
 30
0.000000
  70
    32
  0
VERTEX
  8
VISIBLE_NARROW__ISO_
  5
D7A
 10
21.6416
 20
-3.85460
 30
0.000000
  70
    32
  0
VERTEX
  8
VISIBLE_NARROW__ISO_
  5
D7B
 10
21.6435
 20
-3.85095
 30
0.000000
  70
    32
  0
VERTEX
  8
VISIBLE_NARROW__ISO_
  5
D7C
 10
21.6454
 20
-3.84730
 30
0.000000
  70
    32
  0
VERTEX
  8
VISIBLE_NARROW__ISO_
  5
D7D
 10
21.6472
 20
-3.84364
 30
0.000000
  70
    32
  0
VERTEX
  8
VISIBLE_NARROW__ISO_
  5
D7E
 10
21.6491
 20
-3.83997
 30
0.000000
  70
    32
  0
VERTEX
  8
VISIBLE_NARROW__ISO_
  5
D7F
 10
21.6509
 20
-3.83630
 30
0.000000
  70
    32
  0
VERTEX
  8
VISIBLE_NARROW__ISO_
  5
D80
 10
21.6527
 20
-3.83262
 30
0.000000
  70
    32
  0
VERTEX
  8
VISIBLE_NARROW__ISO_
  5
D81
 10
21.6545
 20
-3.82894
 30
0.000000
  70
    32
  0
VERTEX
  8
VISIBLE_NARROW__ISO_
  5
D82
 10
21.6563
 20
-3.82526
 30
0.000000
  70
    32
  0
VERTEX
  8
VISIBLE_NARROW__ISO_
  5
D83
 10
21.6581
 20
-3.82156
 30
0.000000
  70
    32
  0
VERTEX
  8
VISIBLE_NARROW__ISO_
  5
D84
 10
21.6599
 20
-3.81786
 30
0.000000
  70
    32
  0
VERTEX
  8
VISIBLE_NARROW__ISO_
  5
D85
 10
21.6616
 20
-3.81416
 30
0.000000
  70
    32
  0
VERTEX
  8
VISIBLE_NARROW__ISO_
  5
D86
 10
21.6634
 20
-3.81045
 30
0.000000
  70
    32
  0
VERTEX
  8
VISIBLE_NARROW__ISO_
  5
D87
 10
21.6651
 20
-3.80674
 30
0.000000
  70
    32
  0
VERTEX
  8
VISIBLE_NARROW__ISO_
  5
D88
 10
21.6668
 20
-3.80302
 30
0.000000
  70
    32
  0
VERTEX
  8
VISIBLE_NARROW__ISO_
  5
D89
 10
21.6686
 20
-3.79929
 30
0.000000
  70
    32
  0
VERTEX
  8
VISIBLE_NARROW__ISO_
  5
D8A
 10
21.6703
 20
-3.79556
 30
0.000000
  70
    32
  0
VERTEX
  8
VISIBLE_NARROW__ISO_
  5
D8B
 10
21.6720
 20
-3.79183
 30
0.000000
  70
    32
  0
VERTEX
  8
VISIBLE_NARROW__ISO_
  5
D8C
 10
21.6736
 20
-3.78809
 30
0.000000
  70
    32
  0
VERTEX
  8
VISIBLE_NARROW__ISO_
  5
D8D
 10
21.6753
 20
-3.78434
 30
0.000000
  70
    32
  0
VERTEX
  8
VISIBLE_NARROW__ISO_
  5
D8E
 10
21.6770
 20
-3.78059
 30
0.000000
  70
    32
  0
VERTEX
  8
VISIBLE_NARROW__ISO_
  5
D8F
 10
21.6786
 20
-3.77684
 30
0.000000
  70
    32
  0
VERTEX
  8
VISIBLE_NARROW__ISO_
  5
D90
 10
21.6802
 20
-3.77307
 30
0.000000
  70
    32
  0
VERTEX
  8
VISIBLE_NARROW__ISO_
  5
D91
 10
21.6819
 20
-3.76931
 30
0.000000
  70
    32
  0
VERTEX
  8
VISIBLE_NARROW__ISO_
  5
D92
 10
21.6835
 20
-3.76554
 30
0.000000
  70
    32
  0
VERTEX
  8
VISIBLE_NARROW__ISO_
  5
D93
 10
21.6851
 20
-3.76176
 30
0.000000
  70
    32
  0
VERTEX
  8
VISIBLE_NARROW__ISO_
  5
D94
 10
21.6867
 20
-3.75798
 30
0.000000
  70
    32
  0
VERTEX
  8
VISIBLE_NARROW__ISO_
  5
D95
 10
21.6882
 20
-3.75420
 30
0.000000
  70
    32
  0
VERTEX
  8
VISIBLE_NARROW__ISO_
  5
D96
 10
21.6898
 20
-3.75041
 30
0.000000
  70
    32
  0
VERTEX
  8
VISIBLE_NARROW__ISO_
  5
D97
 10
21.6914
 20
-3.74661
 30
0.000000
  70
    32
  0
VERTEX
  8
VISIBLE_NARROW__ISO_
  5
D98
 10
21.6929
 20
-3.74281
 30
0.000000
  70
    32
  0
VERTEX
  8
VISIBLE_NARROW__ISO_
  5
D99
 10
21.6944
 20
-3.73901
 30
0.000000
  70
    32
  0
VERTEX
  8
VISIBLE_NARROW__ISO_
  5
D9A
 10
21.6960
 20
-3.73520
 30
0.000000
  70
    32
  0
VERTEX
  8
VISIBLE_NARROW__ISO_
  5
D9B
 10
21.6975
 20
-3.73138
 30
0.000000
  70
    32
  0
VERTEX
  8
VISIBLE_NARROW__ISO_
  5
D9C
 10
21.6990
 20
-3.72757
 30
0.000000
  70
    32
  0
VERTEX
  8
VISIBLE_NARROW__ISO_
  5
D9D
 10
21.7004
 20
-3.72374
 30
0.000000
  70
    32
  0
VERTEX
  8
VISIBLE_NARROW__ISO_
  5
D9E
 10
21.7019
 20
-3.71992
 30
0.000000
  70
    32
  0
VERTEX
  8
VISIBLE_NARROW__ISO_
  5
D9F
 10
21.7034
 20
-3.71608
 30
0.000000
  70
    32
  0
VERTEX
  8
VISIBLE_NARROW__ISO_
  5
DA0
 10
21.7048
 20
-3.71225
 30
0.000000
  70
    32
  0
VERTEX
  8
VISIBLE_NARROW__ISO_
  5
DA1
 10
21.7063
 20
-3.70841
 30
0.000000
  70
    32
  0
VERTEX
  8
VISIBLE_NARROW__ISO_
  5
DA2
 10
21.7077
 20
-3.70456
 30
0.000000
  70
    32
  0
VERTEX
  8
VISIBLE_NARROW__ISO_
  5
DA3
 10
21.7091
 20
-3.70071
 30
0.000000
  70
    32
  0
VERTEX
  8
VISIBLE_NARROW__ISO_
  5
DA4
 10
21.7105
 20
-3.69686
 30
0.000000
  70
    32
  0
VERTEX
  8
VISIBLE_NARROW__ISO_
  5
DA5
 10
21.7119
 20
-3.69300
 30
0.000000
  70
    32
  0
VERTEX
  8
VISIBLE_NARROW__ISO_
  5
DA6
 10
21.7133
 20
-3.68914
 30
0.000000
  70
    32
  0
VERTEX
  8
VISIBLE_NARROW__ISO_
  5
DA7
 10
21.7146
 20
-3.68527
 30
0.000000
  70
    32
  0
VERTEX
  8
VISIBLE_NARROW__ISO_
  5
DA8
 10
21.7160
 20
-3.68140
 30
0.000000
  70
    32
  0
VERTEX
  8
VISIBLE_NARROW__ISO_
  5
DA9
 10
21.7173
 20
-3.67752
 30
0.000000
  70
    32
  0
VERTEX
  8
VISIBLE_NARROW__ISO_
  5
DAA
 10
21.7186
 20
-3.67364
 30
0.000000
  70
    32
  0
VERTEX
  8
VISIBLE_NARROW__ISO_
  5
DAB
 10
21.7200
 20
-3.66976
 30
0.000000
  70
    32
  0
VERTEX
  8
VISIBLE_NARROW__ISO_
  5
DAC
 10
21.7213
 20
-3.66587
 30
0.000000
  70
    32
  0
VERTEX
  8
VISIBLE_NARROW__ISO_
  5
DAD
 10
21.7226
 20
-3.66198
 30
0.000000
  70
    32
  0
VERTEX
  8
VISIBLE_NARROW__ISO_
  5
DAE
 10
21.7238
 20
-3.65809
 30
0.000000
  70
    32
  0
VERTEX
  8
VISIBLE_NARROW__ISO_
  5
DAF
 10
21.7251
 20
-3.65419
 30
0.000000
  70
    32
  0
VERTEX
  8
VISIBLE_NARROW__ISO_
  5
DB0
 10
21.7264
 20
-3.65028
 30
0.000000
  70
    32
  0
VERTEX
  8
VISIBLE_NARROW__ISO_
  5
DB1
 10
21.7276
 20
-3.64638
 30
0.000000
  70
    32
  0
VERTEX
  8
VISIBLE_NARROW__ISO_
  5
DB2
 10
21.7288
 20
-3.64247
 30
0.000000
  70
    32
  0
VERTEX
  8
VISIBLE_NARROW__ISO_
  5
DB3
 10
21.7301
 20
-3.63855
 30
0.000000
  70
    32
  0
VERTEX
  8
VISIBLE_NARROW__ISO_
  5
DB4
 10
21.7313
 20
-3.63463
 30
0.000000
  70
    32
  0
VERTEX
  8
VISIBLE_NARROW__ISO_
  5
DB5
 10
21.7325
 20
-3.63071
 30
0.000000
  70
    32
  0
VERTEX
  8
VISIBLE_NARROW__ISO_
  5
DB6
 10
21.7336
 20
-3.62679
 30
0.000000
  70
    32
  0
VERTEX
  8
VISIBLE_NARROW__ISO_
  5
DB7
 10
21.7348
 20
-3.62286
 30
0.000000
  70
    32
  0
VERTEX
  8
VISIBLE_NARROW__ISO_
  5
DB8
 10
21.7360
 20
-3.61892
 30
0.000000
  70
    32
  0
VERTEX
  8
VISIBLE_NARROW__ISO_
  5
DB9
 10
21.7371
 20
-3.61499
 30
0.000000
  70
    32
  0
VERTEX
  8
VISIBLE_NARROW__ISO_
  5
DBA
 10
21.7383
 20
-3.61105
 30
0.000000
  70
    32
  0
VERTEX
  8
VISIBLE_NARROW__ISO_
  5
DBB
 10
21.7394
 20
-3.60710
 30
0.000000
  70
    32
  0
VERTEX
  8
VISIBLE_NARROW__ISO_
  5
DBC
 10
21.7405
 20
-3.60316
 30
0.000000
  70
    32
  0
VERTEX
  8
VISIBLE_NARROW__ISO_
  5
DBD
 10
21.7416
 20
-3.59921
 30
0.000000
  70
    32
  0
VERTEX
  8
VISIBLE_NARROW__ISO_
  5
DBE
 10
21.7427
 20
-3.59525
 30
0.000000
  70
    32
  0
VERTEX
  8
VISIBLE_NARROW__ISO_
  5
DBF
 10
21.7438
 20
-3.59130
 30
0.000000
  70
    32
  0
VERTEX
  8
VISIBLE_NARROW__ISO_
  5
DC0
 10
21.7448
 20
-3.58734
 30
0.000000
  70
    32
  0
VERTEX
  8
VISIBLE_NARROW__ISO_
  5
DC1
 10
21.7459
 20
-3.58337
 30
0.000000
  70
    32
  0
VERTEX
  8
VISIBLE_NARROW__ISO_
  5
DC2
 10
21.7469
 20
-3.57941
 30
0.000000
  70
    32
  0
VERTEX
  8
VISIBLE_NARROW__ISO_
  5
DC3
 10
21.7479
 20
-3.57544
 30
0.000000
  70
    32
  0
VERTEX
  8
VISIBLE_NARROW__ISO_
  5
DC4
 10
21.7489
 20
-3.57146
 30
0.000000
  70
    32
  0
VERTEX
  8
VISIBLE_NARROW__ISO_
  5
DC5
 10
21.7499
 20
-3.56749
 30
0.000000
  70
    32
  0
VERTEX
  8
VISIBLE_NARROW__ISO_
  5
DC6
 10
21.7509
 20
-3.56351
 30
0.000000
  70
    32
  0
VERTEX
  8
VISIBLE_NARROW__ISO_
  5
DC7
 10
21.7519
 20
-3.55953
 30
0.000000
  70
    32
  0
VERTEX
  8
VISIBLE_NARROW__ISO_
  5
DC8
 10
21.7529
 20
-3.55554
 30
0.000000
  70
    32
  0
VERTEX
  8
VISIBLE_NARROW__ISO_
  5
DC9
 10
21.7538
 20
-3.55155
 30
0.000000
  70
    32
  0
VERTEX
  8
VISIBLE_NARROW__ISO_
  5
DCA
 10
21.7548
 20
-3.54756
 30
0.000000
  70
    32
  0
VERTEX
  8
VISIBLE_NARROW__ISO_
  5
DCB
 10
21.7557
 20
-3.54357
 30
0.000000
  70
    32
  0
VERTEX
  8
VISIBLE_NARROW__ISO_
  5
DCC
 10
21.7566
 20
-3.53957
 30
0.000000
  70
    32
  0
VERTEX
  8
VISIBLE_NARROW__ISO_
  5
DCD
 10
21.7575
 20
-3.53557
 30
0.000000
  70
    32
  0
VERTEX
  8
VISIBLE_NARROW__ISO_
  5
DCE
 10
21.7584
 20
-3.53157
 30
0.000000
  70
    32
  0
VERTEX
  8
VISIBLE_NARROW__ISO_
  5
DCF
 10
21.7593
 20
-3.52757
 30
0.000000
  70
    32
  0
VERTEX
  8
VISIBLE_NARROW__ISO_
  5
DD0
 10
21.7602
 20
-3.52356
 30
0.000000
  70
    32
  0
VERTEX
  8
VISIBLE_NARROW__ISO_
  5
DD1
 10
21.7610
 20
-3.51955
 30
0.000000
  70
    32
  0
VERTEX
  8
VISIBLE_NARROW__ISO_
  5
DD2
 10
21.7619
 20
-3.51554
 30
0.000000
  70
    32
  0
VERTEX
  8
VISIBLE_NARROW__ISO_
  5
DD3
 10
21.7627
 20
-3.51152
 30
0.000000
  70
    32
  0
VERTEX
  8
VISIBLE_NARROW__ISO_
  5
DD4
 10
21.7635
 20
-3.50750
 30
0.000000
  70
    32
  0
VERTEX
  8
VISIBLE_NARROW__ISO_
  5
DD5
 10
21.7643
 20
-3.50348
 30
0.000000
  70
    32
  0
VERTEX
  8
VISIBLE_NARROW__ISO_
  5
DD6
 10
21.7651
 20
-3.49946
 30
0.000000
  70
    32
  0
VERTEX
  8
VISIBLE_NARROW__ISO_
  5
DD7
 10
21.7659
 20
-3.49543
 30
0.000000
  70
    32
  0
VERTEX
  8
VISIBLE_NARROW__ISO_
  5
DD8
 10
21.7666
 20
-3.49141
 30
0.000000
  70
    32
  0
VERTEX
  8
VISIBLE_NARROW__ISO_
  5
DD9
 10
21.7674
 20
-3.48738
 30
0.000000
  70
    32
  0
VERTEX
  8
VISIBLE_NARROW__ISO_
  5
DDA
 10
21.7681
 20
-3.48334
 30
0.000000
  70
    32
  0
VERTEX
  8
VISIBLE_NARROW__ISO_
  5
DDB
 10
21.7689
 20
-3.47931
 30
0.000000
  70
    32
  0
VERTEX
  8
VISIBLE_NARROW__ISO_
  5
DDC
 10
21.7696
 20
-3.47527
 30
0.000000
  70
    32
  0
VERTEX
  8
VISIBLE_NARROW__ISO_
  5
DDD
 10
21.7703
 20
-3.47124
 30
0.000000
  70
    32
  0
VERTEX
  8
VISIBLE_NARROW__ISO_
  5
DDE
 10
21.7710
 20
-3.46719
 30
0.000000
  70
    32
  0
VERTEX
  8
VISIBLE_NARROW__ISO_
  5
DDF
 10
21.7717
 20
-3.46315
 30
0.000000
  70
    32
  0
VERTEX
  8
VISIBLE_NARROW__ISO_
  5
DE0
 10
21.7724
 20
-3.45911
 30
0.000000
  70
    32
  0
VERTEX
  8
VISIBLE_NARROW__ISO_
  5
DE1
 10
21.7730
 20
-3.45506
 30
0.000000
  70
    32
  0
VERTEX
  8
VISIBLE_NARROW__ISO_
  5
DE2
 10
21.7737
 20
-3.45101
 30
0.000000
  70
    32
  0
VERTEX
  8
VISIBLE_NARROW__ISO_
  5
DE3
 10
21.7743
 20
-3.44696
 30
0.000000
  70
    32
  0
VERTEX
  8
VISIBLE_NARROW__ISO_
  5
DE4
 10
21.7749
 20
-3.44291
 30
0.000000
  70
    32
  0
VERTEX
  8
VISIBLE_NARROW__ISO_
  5
DE5
 10
21.7755
 20
-3.43885
 30
0.000000
  70
    32
  0
VERTEX
  8
VISIBLE_NARROW__ISO_
  5
DE6
 10
21.7761
 20
-3.43480
 30
0.000000
  70
    32
  0
VERTEX
  8
VISIBLE_NARROW__ISO_
  5
DE7
 10
21.7767
 20
-3.43074
 30
0.000000
  70
    32
  0
VERTEX
  8
VISIBLE_NARROW__ISO_
  5
DE8
 10
21.7773
 20
-3.42668
 30
0.000000
  70
    32
  0
VERTEX
  8
VISIBLE_NARROW__ISO_
  5
DE9
 10
21.7778
 20
-3.42261
 30
0.000000
  70
    32
  0
VERTEX
  8
VISIBLE_NARROW__ISO_
  5
DEA
 10
21.7784
 20
-3.41855
 30
0.000000
  70
    32
  0
VERTEX
  8
VISIBLE_NARROW__ISO_
  5
DEB
 10
21.7789
 20
-3.41449
 30
0.000000
  70
    32
  0
VERTEX
  8
VISIBLE_NARROW__ISO_
  5
DEC
 10
21.7794
 20
-3.41042
 30
0.000000
  70
    32
  0
VERTEX
  8
VISIBLE_NARROW__ISO_
  5
DED
 10
21.7799
 20
-3.40635
 30
0.000000
  70
    32
  0
VERTEX
  8
VISIBLE_NARROW__ISO_
  5
DEE
 10
21.7804
 20
-3.40228
 30
0.000000
  70
    32
  0
VERTEX
  8
VISIBLE_NARROW__ISO_
  5
DEF
 10
21.7809
 20
-3.39821
 30
0.000000
  70
    32
  0
VERTEX
  8
VISIBLE_NARROW__ISO_
  5
DF0
 10
21.7814
 20
-3.39414
 30
0.000000
  70
    32
  0
VERTEX
  8
VISIBLE_NARROW__ISO_
  5
DF1
 10
21.7818
 20
-3.39006
 30
0.000000
  70
    32
  0
VERTEX
  8
VISIBLE_NARROW__ISO_
  5
DF2
 10
21.7823
 20
-3.38599
 30
0.000000
  70
    32
  0
VERTEX
  8
VISIBLE_NARROW__ISO_
  5
DF3
 10
21.7827
 20
-3.38191
 30
0.000000
  70
    32
  0
VERTEX
  8
VISIBLE_NARROW__ISO_
  5
DF4
 10
21.7831
 20
-3.37783
 30
0.000000
  70
    32
  0
VERTEX
  8
VISIBLE_NARROW__ISO_
  5
DF5
 10
21.7835
 20
-3.37375
 30
0.000000
  70
    32
  0
VERTEX
  8
VISIBLE_NARROW__ISO_
  5
DF6
 10
21.7839
 20
-3.36967
 30
0.000000
  70
    32
  0
VERTEX
  8
VISIBLE_NARROW__ISO_
  5
DF7
 10
21.7843
 20
-3.36559
 30
0.000000
  70
    32
  0
VERTEX
  8
VISIBLE_NARROW__ISO_
  5
DF8
 10
21.7847
 20
-3.36151
 30
0.000000
  70
    32
  0
VERTEX
  8
VISIBLE_NARROW__ISO_
  5
DF9
 10
21.7850
 20
-3.35742
 30
0.000000
  70
    32
  0
VERTEX
  8
VISIBLE_NARROW__ISO_
  5
DFA
 10
21.7854
 20
-3.35334
 30
0.000000
  70
    32
  0
VERTEX
  8
VISIBLE_NARROW__ISO_
  5
DFB
 10
21.7857
 20
-3.34925
 30
0.000000
  70
    32
  0
VERTEX
  8
VISIBLE_NARROW__ISO_
  5
DFC
 10
21.7860
 20
-3.34516
 30
0.000000
  70
    32
  0
VERTEX
  8
VISIBLE_NARROW__ISO_
  5
DFD
 10
21.7863
 20
-3.34108
 30
0.000000
  70
    32
  0
VERTEX
  8
VISIBLE_NARROW__ISO_
  5
DFE
 10
21.7866
 20
-3.33699
 30
0.000000
  70
    32
  0
VERTEX
  8
VISIBLE_NARROW__ISO_
  5
DFF
 10
21.7869
 20
-3.33290
 30
0.000000
  70
    32
  0
VERTEX
  8
VISIBLE_NARROW__ISO_
  5
E00
 10
21.7872
 20
-3.32881
 30
0.000000
  70
    32
  0
VERTEX
  8
VISIBLE_NARROW__ISO_
  5
E01
 10
21.7874
 20
-3.32471
 30
0.000000
  70
    32
  0
VERTEX
  8
VISIBLE_NARROW__ISO_
  5
E02
 10
21.7877
 20
-3.32062
 30
0.000000
  70
    32
  0
VERTEX
  8
VISIBLE_NARROW__ISO_
  5
E03
 10
21.7879
 20
-3.31653
 30
0.000000
  70
    32
  0
VERTEX
  8
VISIBLE_NARROW__ISO_
  5
E04
 10
21.7881
 20
-3.31243
 30
0.000000
  70
    32
  0
VERTEX
  8
VISIBLE_NARROW__ISO_
  5
E05
 10
21.7884
 20
-3.30834
 30
0.000000
  70
    32
  0
VERTEX
  8
VISIBLE_NARROW__ISO_
  5
E06
 10
21.7885
 20
-3.30425
 30
0.000000
  70
    32
  0
VERTEX
  8
VISIBLE_NARROW__ISO_
  5
E07
 10
21.7887
 20
-3.30015
 30
0.000000
  70
    32
  0
VERTEX
  8
VISIBLE_NARROW__ISO_
  5
E08
 10
21.7889
 20
-3.29605
 30
0.000000
  70
    32
  0
VERTEX
  8
VISIBLE_NARROW__ISO_
  5
E09
 10
21.7891
 20
-3.29196
 30
0.000000
  70
    32
  0
VERTEX
  8
VISIBLE_NARROW__ISO_
  5
E0A
 10
21.7892
 20
-3.28786
 30
0.000000
  70
    32
  0
VERTEX
  8
VISIBLE_NARROW__ISO_
  5
E0B
 10
21.7893
 20
-3.28376
 30
0.000000
  70
    32
  0
VERTEX
  8
VISIBLE_NARROW__ISO_
  5
E0C
 10
21.7894
 20
-3.27966
 30
0.000000
  70
    32
  0
VERTEX
  8
VISIBLE_NARROW__ISO_
  5
E0D
 10
21.7895
 20
-3.27557
 30
0.000000
  70
    32
  0
VERTEX
  8
VISIBLE_NARROW__ISO_
  5
E0E
 10
21.7896
 20
-3.27147
 30
0.000000
  70
    32
  0
VERTEX
  8
VISIBLE_NARROW__ISO_
  5
E0F
 10
21.7897
 20
-3.26737
 30
0.000000
  70
    32
  0
VERTEX
  8
VISIBLE_NARROW__ISO_
  5
E10
 10
21.7898
 20
-3.26327
 30
0.000000
  70
    32
  0
VERTEX
  8
VISIBLE_NARROW__ISO_
  5
E11
 10
21.7898
 20
-3.25917
 30
0.000000
  70
    32
  0
VERTEX
  8
VISIBLE_NARROW__ISO_
  5
E12
 10
21.7899
 20
-3.25507
 30
0.000000
  70
    32
  0
VERTEX
  8
VISIBLE_NARROW__ISO_
  5
E13
 10
21.7899
 20
-3.25097
 30
0.000000
  70
    32
  0
VERTEX
  8
VISIBLE_NARROW__ISO_
  5
E14
 10
21.7899
 20
-3.24687
 30
0.000000
  70
    32
  0
VERTEX
  8
VISIBLE_NARROW__ISO_
  5
E15
 10
21.7899
 20
-3.24277
 30
0.000000
  70
    32
  0
SEQEND
  8
VISIBLE_NARROW__ISO_
  5
E16
  0
LINE
  5
D2
 67
     1
  8
VISIBLE_NARROW__ISO_
  6
BYBLOCK
 10
21.7899413896515313
 20
11.7112480469612592
 30
0.0
 11
21.7899413896515313
 21
-3.2429367069931341
 31
0.0
  0
ARC
  5
D3
 67
     1
  8
SKETCH_GEOMETRY__ISO_
  6
BYBLOCK
 10
-6.8994085780237659
 20
-3.2436899193078261
 30
0.0
 40
1.332813711578245
 50
179.9450642026388039
 51
270.0549357973708879
  0
ENDSEC
  0
EOF
